  0
SECTION
  2
HEADER
  9
$ACADVER
  1
AC1014
  9
$ACADMAINTVER
 70
     9
  9
$DWGCODEPAGE
  3
ANSI_1252
  9
$INSBASE
 10
0.0
 20
0.0
 30
0.0
  9
$EXTMIN
 10
-0.0000000000000018
 20
-0.0000000000000009
 30
0.0
  9
$EXTMAX
 10
5.299999999999999
 20
3.97
 30
0.0
  9
$LIMMIN
 10
0.0
 20
0.0
  9
$LIMMAX
 10
12.0
 20
9.0
  9
$ORTHOMODE
 70
     1
  9
$REGENMODE
 70
     1
  9
$FILLMODE
 70
     1
  9
$QTEXTMODE
 70
     0
  9
$MIRRTEXT
 70
     0
  9
$DRAGMODE
 70
     2
  9
$LTSCALE
 40
0.188
  9
$OSMODE
 70
   229
  9
$ATTMODE
 70
     1
  9
$TEXTSIZE
 40
0.063
  9
$TRACEWID
 40
0.05
  9
$TEXTSTYLE
  7
STANDARD
  9
$CLAYER
  8
OBJECT
  9
$CELTYPE
  6
BYLAYER
  9
$CECOLOR
 62
   256
  9
$CELTSCALE
 40
1.0
  9
$DELOBJ
 70
     1
  9
$DISPSILH
 70
     0
  9
$DIMSCALE
 40
0.5
  9
$DIMASZ
 40
0.18
  9
$DIMEXO
 40
0.063
  9
$DIMDLI
 40
0.281
  9
$DIMRND
 40
0.0
  9
$DIMDLE
 40
0.0
  9
$DIMEXE
 40
0.093
  9
$DIMTP
 40
0.0
  9
$DIMTM
 40
0.0
  9
$DIMTXT
 40
0.125
  9
$DIMCEN
 40
0.09
  9
$DIMTSZ
 40
0.0
  9
$DIMTOL
 70
     0
  9
$DIMLIM
 70
     0
  9
$DIMTIH
 70
     1
  9
$DIMTOH
 70
     1
  9
$DIMSE1
 70
     0
  9
$DIMSE2
 70
     0
  9
$DIMTAD
 70
     0
  9
$DIMZIN
 70
     0
  9
$DIMBLK
  1

  9
$DIMASO
 70
     1
  9
$DIMSHO
 70
     1
  9
$DIMPOST
  1

  9
$DIMAPOST
  1

  9
$DIMALT
 70
     0
  9
$DIMALTD
 70
     2
  9
$DIMALTF
 40
25.4
  9
$DIMLFAC
 40
1.0
  9
$DIMTOFL
 70
     0
  9
$DIMTVP
 40
0.0
  9
$DIMTIX
 70
     0
  9
$DIMSOXD
 70
     0
  9
$DIMSAH
 70
     0
  9
$DIMBLK1
  1

  9
$DIMBLK2
  1

  9
$DIMSTYLE
  2
23NSTD
  9
$DIMCLRD
 70
     0
  9
$DIMCLRE
 70
     0
  9
$DIMCLRT
 70
     0
  9
$DIMTFAC
 40
1.0
  9
$DIMGAP
 40
0.09
  9
$DIMJUST
 70
     0
  9
$DIMSD1
 70
     0
  9
$DIMSD2
 70
     0
  9
$DIMTOLJ
 70
     1
  9
$DIMTZIN
 70
     0
  9
$DIMALTZ
 70
     0
  9
$DIMALTTZ
 70
     0
  9
$DIMFIT
 70
     5
  9
$DIMUPT
 70
     0
  9
$DIMUNIT
 70
     2
  9
$DIMDEC
 70
     3
  9
$DIMTDEC
 70
     3
  9
$DIMALTU
 70
     2
  9
$DIMALTTD
 70
     2
  9
$DIMTXSTY
  7
TXT
  9
$DIMAUNIT
 70
     0
  9
$LUNITS
 70
     2
  9
$LUPREC
 70
     4
  9
$SKETCHINC
 40
0.1
  9
$FILLETRAD
 40
0.0
  9
$AUNITS
 70
     0
  9
$AUPREC
 70
     0
  9
$MENU
  1
.
  9
$ELEVATION
 40
0.0
  9
$PELEVATION
 40
0.0
  9
$THICKNESS
 40
0.0
  9
$LIMCHECK
 70
     0
  9
$BLIPMODE
 70
     0
  9
$CHAMFERA
 40
0.5
  9
$CHAMFERB
 40
0.5
  9
$CHAMFERC
 40
0.0
  9
$CHAMFERD
 40
0.0
  9
$SKPOLY
 70
     0
  9
$TDCREATE
 40
2451570.588983460
  9
$TDUPDATE
 40
2455441.384285474
  9
$TDINDWG
 40
0.4819243866
  9
$TDUSRTIMER
 40
0.4819242014
  9
$USRTIMER
 70
     1
  9
$ANGBASE
 50
0.0
  9
$ANGDIR
 70
     0
  9
$PDMODE
 70
     0
  9
$PDSIZE
 40
0.0
  9
$PLINEWID
 40
0.0
  9
$COORDS
 70
     2
  9
$SPLFRAME
 70
     0
  9
$SPLINETYPE
 70
     6
  9
$SPLINESEGS
 70
     8
  9
$ATTDIA
 70
     0
  9
$ATTREQ
 70
     1
  9
$HANDLING
 70
  4097
  9
$HANDSEED
  5
464E
  9
$SURFTAB1
 70
     6
  9
$SURFTAB2
 70
     6
  9
$SURFTYPE
 70
     6
  9
$SURFU
 70
     6
  9
$SURFV
 70
     6
  9
$UCSNAME
  2

  9
$UCSORG
 10
0.0
 20
0.0
 30
0.0
  9
$UCSXDIR
 10
1.0
 20
0.0
 30
0.0
  9
$UCSYDIR
 10
0.0
 20
1.0
 30
0.0
  9
$PUCSNAME
  2

  9
$PUCSORG
 10
0.0
 20
0.0
 30
0.0
  9
$PUCSXDIR
 10
1.0
 20
0.0
 30
0.0
  9
$PUCSYDIR
 10
0.0
 20
1.0
 30
0.0
  9
$USERI1
 70
     0
  9
$USERI2
 70
     0
  9
$USERI3
 70
     0
  9
$USERI4
 70
     0
  9
$USERI5
 70
     0
  9
$USERR1
 40
0.0
  9
$USERR2
 40
0.0
  9
$USERR3
 40
0.0
  9
$USERR4
 40
0.0
  9
$USERR5
 40
0.0
  9
$WORLDVIEW
 70
     1
  9
$SHADEDGE
 70
     3
  9
$SHADEDIF
 70
    70
  9
$TILEMODE
 70
     1
  9
$MAXACTVP
 70
    64
  9
$PINSBASE
 10
0.0
 20
0.0
 30
0.0
  9
$PLIMCHECK
 70
     0
  9
$PEXTMIN
 10
1.000000000000000E+20
 20
1.000000000000000E+20
 30
1.000000000000000E+20
  9
$PEXTMAX
 10
-1.000000000000000E+20
 20
-1.000000000000000E+20
 30
-1.000000000000000E+20
  9
$PLIMMIN
 10
0.0
 20
0.0
  9
$PLIMMAX
 10
12.0
 20
9.0
  9
$UNITMODE
 70
     0
  9
$VISRETAIN
 70
     1
  9
$PLINEGEN
 70
     0
  9
$PSLTSCALE
 70
     1
  9
$TREEDEPTH
 70
  3020
  9
$PICKSTYLE
 70
     1
  9
$CMLSTYLE
  2
STANDARD
  9
$CMLJUST
 70
     0
  9
$CMLSCALE
 40
1.0
  9
$PROXYGRAPHICS
 70
     1
  9
$MEASUREMENT
 70
     0
  0
ENDSEC
  0
SECTION
  2
CLASSES
  0
CLASS
  1
ACDBDICTIONARYWDFLT
  2
AcDbDictionaryWithDefault
  3
AutoCAD 2000
 90
        0
280
     0
281
     0
  0
CLASS
  1
ACDBPLACEHOLDER
  2
AcDbPlaceHolder
  3
AutoCAD 2000
 90
        0
280
     0
281
     0
  0
CLASS
  1
LAYOUT
  2
AcDbLayout
  3
AutoCAD 2000
 90
        0
280
     0
281
     0
  0
CLASS
  1
LONG_TRANSACTION
  2
AcDbLongTransaction
  3
AutoCAD 2000
 90
        0
280
     0
281
     0
  0
CLASS
  1
LWPOLYLINE
  2
AcDbPolyline
  3
AutoCAD 2000
 90
        0
280
     0
281
     1
  0
CLASS
  1
HATCH
  2
AcDbHatch
  3
AutoCAD 2000
 90
        0
280
     0
281
     1
  0
CLASS
  1
XRECORD
  2
AcDbXrecord
  3
AutoCAD 2000
 90
        0
280
     0
281
     0
  0
ENDSEC
  0
SECTION
  2
TABLES
  0
TABLE
  2
VPORT
  5
4525
330
0
100
AcDbSymbolTable
 70
     2
  0
VPORT
  5
4628
330
4525
100
AcDbSymbolTableRecord
100
AcDbViewportTableRecord
  2
*ACTIVE
 70
     0
 10
0.0
 20
0.0
 11
1.0
 21
1.0
 12
2.650085473258608
 22
1.985160845663818
 13
0.0
 23
0.0
 14
0.5
 24
0.5
 15
0.5
 25
0.5
 16
0.0
 26
0.0
 36
1.0
 17
0.0
 27
0.0
 37
0.0
 40
4.010846176890363
 41
1.836974789915966
 42
50.0
 43
0.0
 44
0.0
 50
0.0
 51
0.0
 71
     0
 72
   100
 73
     1
 74
     2
 75
     0
 76
     0
 77
     0
 78
     2
  0
ENDTAB
  0
TABLE
  2
LTYPE
  5
4522
330
0
100
AcDbSymbolTable
 70
     6
  0
LTYPE
  5
4530
330
4522
100
AcDbSymbolTableRecord
100
AcDbLinetypeTableRecord
  2
BYBLOCK
 70
     0
  3

 72
    65
 73
     0
 40
0.0
  0
LTYPE
  5
4531
330
4522
100
AcDbSymbolTableRecord
100
AcDbLinetypeTableRecord
  2
BYLAYER
 70
     0
  3

 72
    65
 73
     0
 40
0.0
  0
LTYPE
  5
4532
330
4522
100
AcDbSymbolTableRecord
100
AcDbLinetypeTableRecord
  2
CONTINUOUS
 70
     0
  3
Solid line
 72
    65
 73
     0
 40
0.0
  0
LTYPE
  5
4541
330
4522
100
AcDbSymbolTableRecord
100
AcDbLinetypeTableRecord
  2
HIDDEN
 70
     0
  3
_ _ _ _ _ _ _ _ _ _ _ _ _ _ _ _ _ _ _ _ _ _ _
 72
    65
 73
     2
 40
0.375
 49
0.25
 74
     0
 49
-0.125
 74
     0
  0
LTYPE
  5
4542
330
4522
100
AcDbSymbolTableRecord
100
AcDbLinetypeTableRecord
  2
PHANTOM
 70
     0
  3
_____ _ _ _____ _ _ _____ _ _ _____ _ _ ____
 72
    65
 73
     6
 40
2.5
 49
1.25
 74
     0
 49
-0.25
 74
     0
 49
0.25
 74
     0
 49
-0.25
 74
     0
 49
0.25
 74
     0
 49
-0.25
 74
     0
  0
LTYPE
  5
4543
330
4522
100
AcDbSymbolTableRecord
100
AcDbLinetypeTableRecord
  2
CENTER
 70
     0
  3
____ _ ____ _ ____ _ ____ _ ____ _ ____ _ ____
 72
    65
 73
     4
 40
2.0
 49
1.25
 74
     0
 49
-0.25
 74
     0
 49
0.25
 74
     0
 49
-0.25
 74
     0
  0
LTYPE
  5
4544
330
4522
100
AcDbSymbolTableRecord
100
AcDbLinetypeTableRecord
  2
HIDDEN2
 70
     0
  3
_ _ _ _ _ _ _ _ _ _ _ _ _ _ _ _ _ _ _ _ _ _ _ _
 72
    65
 73
     2
 40
0.1875
 49
0.125
 74
     0
 49
-0.0625
 74
     0
  0
LTYPE
  5
4545
330
4522
100
AcDbSymbolTableRecord
100
AcDbLinetypeTableRecord
  2
PHANTOM2
 70
     0
  3
___ _ _ ___ _ _ ___ _ _ ___ _ _ ___ _ _ ___ _ _
 72
    65
 73
     6
 40
1.25
 49
0.625
 74
     0
 49
-0.125
 74
     0
 49
0.125
 74
     0
 49
-0.125
 74
     0
 49
0.125
 74
     0
 49
-0.125
 74
     0
  0
ENDTAB
  0
TABLE
  2
LAYER
  5
451F
330
0
100
AcDbSymbolTable
 70
     9
  0
LAYER
  5
452D
330
451F
100
AcDbSymbolTableRecord
100
AcDbLayerTableRecord
  2
0
 70
     0
 62
     7
  6
CONTINUOUS
  0
LAYER
  5
453F
330
451F
100
AcDbSymbolTableRecord
100
AcDbLayerTableRecord
  2
OBJECT
 70
     0
 62
     7
  6
CONTINUOUS
  0
LAYER
  5
4546
330
451F
100
AcDbSymbolTableRecord
100
AcDbLayerTableRecord
  2
DIM
 70
     0
 62
     7
  6
CONTINUOUS
  0
LAYER
  5
4547
330
451F
100
AcDbSymbolTableRecord
100
AcDbLayerTableRecord
  2
HIDDEN
 70
     0
 62
     7
  6
HIDDEN
  0
LAYER
  5
4548
330
451F
100
AcDbSymbolTableRecord
100
AcDbLayerTableRecord
  2
BEND
 70
     0
 62
     7
  6
PHANTOM
  0
LAYER
  5
4549
330
451F
100
AcDbSymbolTableRecord
100
AcDbLayerTableRecord
  2
TEXT
 70
     0
 62
     7
  6
CONTINUOUS
  0
LAYER
  5
454A
330
451F
100
AcDbSymbolTableRecord
100
AcDbLayerTableRecord
  2
TITLE
 70
     0
 62
     7
  6
CONTINUOUS
  0
LAYER
  5
454B
330
451F
100
AcDbSymbolTableRecord
100
AcDbLayerTableRecord
  2
CENTER
 70
     0
 62
     7
  6
CENTER
  0
LAYER
  5
454C
330
451F
100
AcDbSymbolTableRecord
100
AcDbLayerTableRecord
  2
DEFPOINTS
 70
     0
 62
     7
  6
CONTINUOUS
  0
ENDTAB
  0
TABLE
  2
STYLE
  5
4520
330
0
100
AcDbSymbolTable
 70
     2
  0
STYLE
  5
452E
330
4520
100
AcDbSymbolTableRecord
100
AcDbTextStyleTableRecord
  2
STANDARD
 70
     0
 40
0.0
 41
0.75
 50
0.0
 71
     0
 42
0.063
  3
txt.shx
  4

  0
STYLE
  5
454D
330
4520
100
AcDbSymbolTableRecord
100
AcDbTextStyleTableRecord
  2
TXT
 70
     0
 40
0.0
 41
0.75
 50
0.0
 71
     0
 42
0.125
  3
TXT.shx
  4

  0
ENDTAB
  0
TABLE
  2
VIEW
  5
4523
330
0
100
AcDbSymbolTable
 70
     0
  0
ENDTAB
  0
TABLE
  2
UCS
  5
4524
330
0
100
AcDbSymbolTable
 70
     0
  0
ENDTAB
  0
TABLE
  2
APPID
  5
4526
330
0
100
AcDbSymbolTable
 70
     3
  0
APPID
  5
452F
330
4526
100
AcDbSymbolTableRecord
100
AcDbRegAppTableRecord
  2
ACAD
 70
     0
  0
APPID
  5
454E
330
4526
100
AcDbSymbolTableRecord
100
AcDbRegAppTableRecord
  2
MCAD_NO_VIS
 70
     0
  0
APPID
  5
454F
330
4526
100
AcDbSymbolTableRecord
100
AcDbRegAppTableRecord
  2
AD_SKETCHDIM
 70
     0
  0
ENDTAB
  0
TABLE
  2
DIMSTYLE
  5
4527
330
0
100
AcDbSymbolTable
 70
     2
  0
DIMSTYLE
105
45E8
330
4527
100
AcDbSymbolTableRecord
100
AcDbDimStyleTableRecord
  2
23NSTD
 70
     0
  3

  4

  5

  6

  7

 40
0.5
 41
0.18
 42
0.063
 43
0.281
 44
0.093
 45
0.0
 46
0.0
 47
0.0
 48
0.0
140
0.125
141
0.09
142
0.0
143
25.4
144
1.0
145
0.0
146
1.0
147
0.09
 71
     0
 72
     0
 73
     1
 74
     1
 75
     0
 76
     0
 77
     0
 78
     0
170
     0
171
     2
172
     0
173
     0
174
     0
175
     0
176
     0
177
     0
178
     0
270
     2
271
     3
272
     3
273
     2
274
     2
340
454D
275
     0
280
     0
281
     0
282
     0
283
     1
284
     0
285
     0
286
     0
287
     5
288
     0
  0
DIMSTYLE
105
45E9
330
4527
100
AcDbSymbolTableRecord
100
AcDbDimStyleTableRecord
  2
23NSTDI
 70
     0
  3

  4

  5

  6

  7

 40
0.5
 41
0.18
 42
0.063
 43
0.281
 44
0.093
 45
0.0
 46
0.0
 47
0.0
 48
0.0
140
0.125
141
0.09
142
0.0
143
25.4
144
1.0
145
0.0
146
1.0
147
0.09
 71
     0
 72
     0
 73
     1
 74
     1
 75
     0
 76
     0
 77
     0
 78
     0
170
     0
171
     2
172
     0
173
     0
174
     1
175
     0
176
     0
177
     0
178
     0
270
     2
271
     3
272
     3
273
     2
274
     2
340
454D
275
     0
280
     0
281
     0
282
     0
283
     1
284
     0
285
     0
286
     0
287
     5
288
     0
  0
ENDTAB
  0
TABLE
  2
BLOCK_RECORD
  5
451E
330
0
100
AcDbSymbolTable
 70
     2
  0
BLOCK_RECORD
  5
453B
102
{ACAD_XDICTIONARY
360
464C
102
}
330
451E
100
AcDbSymbolTableRecord
100
AcDbBlockTableRecord
  2
*MODEL_SPACE
  0
BLOCK_RECORD
  5
4537
102
{ACAD_XDICTIONARY
360
464A
102
}
330
451E
100
AcDbSymbolTableRecord
100
AcDbBlockTableRecord
  2
*PAPER_SPACE
  0
BLOCK_RECORD
  5
4559
330
451E
100
AcDbSymbolTableRecord
100
AcDbBlockTableRecord
  2
ACAD
  0
BLOCK_RECORD
  5
45EA
330
451E
100
AcDbSymbolTableRecord
100
AcDbBlockTableRecord
  2
HBA
  0
ENDTAB
  0
ENDSEC
  0
SECTION
  2
BLOCKS
  0
BLOCK
  5
453C
330
453B
100
AcDbEntity
  8
0
100
AcDbBlockBegin
  2
*MODEL_SPACE
 70
     0
 10
0.0
 20
0.0
 30
0.0
  3
*MODEL_SPACE
  1

  0
ENDBLK
  5
453D
330
453B
100
AcDbEntity
  8
0
100
AcDbBlockEnd
  0
BLOCK
  5
4538
330
4537
100
AcDbEntity
 67
     1
  8
0
100
AcDbBlockBegin
  2
*PAPER_SPACE
 70
     0
 10
0.0
 20
0.0
 30
0.0
  3
*PAPER_SPACE
  1

  0
ENDBLK
  5
4539
330
4537
100
AcDbEntity
 67
     1
  8
0
100
AcDbBlockEnd
  0
BLOCK
  5
455A
330
4559
100
AcDbEntity
  8
0
100
AcDbBlockBegin
  2
ACAD
 70
     0
 10
0.0
 20
0.0
 30
0.0
  3
ACAD
  1

  0
ENDBLK
  5
455B
330
4559
100
AcDbEntity
  8
0
100
AcDbBlockEnd
  0
BLOCK
  5
4601
330
45EA
100
AcDbEntity
  8
0
100
AcDbBlockBegin
  2
HBA
 70
     0
 10
0.0
 20
0.0
 30
0.0
  3
HBA
  1

  0
TEXT
  5
45EB
330
45EA
100
AcDbEntity
  8
TEXT
100
AcDbText
 10
4.239867481422549
 20
7.500079195640082
 30
0.0
 40
0.125
  1
No.
  7
TXT
 72
     1
 11
4.364867481422549
 21
7.500079195640082
 31
0.0
100
AcDbText
  0
TEXT
  5
45EC
330
45EA
100
AcDbEntity
  8
TEXT
100
AcDbText
 10
4.135700814755882
 20
7.708412528973415
 30
0.0
 40
0.125
  1
PART
  7
TXT
 72
     1
 11
4.364867481422549
 21
7.708412528973415
 31
0.0
100
AcDbText
  0
LINE
  5
45ED
330
45EA
100
AcDbEntity
  8
TITLE
100
AcDbLine
 10
0.0619999999999976
 20
7.459999999999999
 30
0.0
 11
10.538
 21
7.459999999999999
 31
0.0
  0
LINE
  5
45EE
330
45EA
100
AcDbEntity
  8
TITLE
100
AcDbLine
 10
0.0619999999999976
 20
7.877999999999999
 30
0.0
 11
10.538
 21
7.877999999999999
 31
0.0
  0
LINE
  5
45EF
330
45EA
100
AcDbEntity
  8
TITLE
100
AcDbLine
 10
0.0
 20
7.940000000000001
 30
0.0
 11
10.6
 21
7.939999999999997
 31
0.0
  0
LINE
  5
45F0
330
45EA
100
AcDbEntity
  8
TITLE
100
AcDbLine
 10
0.0
 20
0.0
 30
0.0
 11
-0.0000000000000036
 21
7.940000000000001
 31
0.0
  0
LINE
  5
45F1
330
45EA
100
AcDbEntity
  8
TITLE
100
AcDbLine
 10
0.0619999999999976
 20
0.0620000000000012
 30
0.0
 11
0.0619999999999976
 21
7.877999999999999
 31
0.0
  0
LINE
  5
45F2
330
45EA
100
AcDbEntity
  8
TITLE
100
AcDbLine
 10
0.8120000000000047
 20
7.459999999999999
 30
0.0
 11
0.8119999999999976
 21
7.877999999999999
 31
0.0
  0
TEXT
  5
45F3
330
45EA
100
AcDbEntity
  8
TEXT
100
AcDbText
 10
0.2078333333333381
 20
7.708412528973415
 30
0.0
 40
0.125
  1
PART
  7
TXT
 72
     1
 11
0.4370000000000048
 21
7.708412528973415
 31
0.0
100
AcDbText
  0
TEXT
  5
45F4
330
45EA
100
AcDbEntity
  8
TEXT
100
AcDbText
 10
0.2078333333333381
 20
7.500079195640082
 30
0.0
 40
0.125
  1
NAME
  7
TXT
 72
     1
 11
0.4370000000000048
 21
7.500079195640082
 31
0.0
100
AcDbText
  0
LINE
  5
45F5
330
45EA
100
AcDbEntity
  8
TITLE
100
AcDbLine
 10
3.989867481422556
 20
7.877999999999999
 30
0.0
 11
3.989867481422556
 21
7.459999999999999
 31
0.0
  0
LINE
  5
45F6
330
45EA
100
AcDbEntity
  8
TITLE
100
AcDbLine
 10
3.927867481422552
 20
7.877999999999999
 30
0.0
 11
3.927867481422552
 21
7.459999999999999
 31
0.0
  0
LINE
  5
45F7
330
45EA
100
AcDbEntity
  8
TITLE
100
AcDbLine
 10
10.6
 20
-0.0000000000000018
 30
0.0
 11
10.59999999999999
 21
7.939999999999997
 31
0.0
  0
LINE
  5
45F8
330
45EA
100
AcDbEntity
  8
TITLE
100
AcDbLine
 10
10.538
 20
0.0619999999999994
 30
0.0
 11
10.538
 21
7.877999999999999
 31
0.0
  0
LINE
  5
45F9
330
45EA
100
AcDbEntity
  8
TITLE
100
AcDbLine
 10
4.739867481422556
 20
7.877999999999999
 30
0.0
 11
4.739867481422556
 21
7.459999999999999
 31
0.0
  0
LINE
  5
45FA
330
45EA
100
AcDbEntity
  8
TITLE
100
AcDbLine
 10
10.538
 20
0.0619999999999994
 30
0.0
 11
0.0619999999999976
 21
0.0620000000000012
 31
0.0
  0
LINE
  5
45FB
330
45EA
100
AcDbEntity
  8
TITLE
100
AcDbLine
 10
10.6
 20
-0.0000000000000018
 30
0.0
 11
0.0
 21
0.0
 31
0.0
  0
LINE
  5
45FC
330
45EA
100
AcDbEntity
  8
TITLE
100
AcDbLine
 10
8.569254870049483
 20
7.877999999999999
 30
0.0
 11
8.569254870049483
 21
7.459999999999999
 31
0.0
  0
LINE
  5
45FD
330
45EA
100
AcDbEntity
  8
TITLE
100
AcDbLine
 10
8.631254870049488
 20
7.877999999999999
 30
0.0
 11
8.631254870049488
 21
7.459999999999999
 31
0.0
  0
TEXT
  5
45FE
330
45EA
100
AcDbEntity
  8
TEXT
100
AcDbText
 10
8.797921536716147
 20
7.708412528973415
 30
0.0
 40
0.125
  1
REV.
  7
TXT
 72
     1
 11
9.006254870049481
 21
7.708412528973415
 31
0.0
100
AcDbText
  0
TEXT
  5
45FF
330
45EA
100
AcDbEntity
  8
TEXT
100
AcDbText
 10
8.777088203382815
 20
7.500079195640082
 30
0.0
 40
0.125
  1
DATE
  7
TXT
 72
     1
 11
9.006254870049481
 21
7.500079195640082
 31
0.0
100
AcDbText
  0
LINE
  5
4600
330
45EA
100
AcDbEntity
  8
TITLE
100
AcDbLine
 10
9.381254870049488
 20
7.877999999999999
 30
0.0
 11
9.381254870049488
 21
7.459999999999999
 31
0.0
  0
ENDBLK
  5
4602
330
45EA
100
AcDbEntity
  8
0
100
AcDbBlockEnd
  0
ENDSEC
  0
SECTION
  2
ENTITIES
  0
INSERT
  5
4583
330
453B
100
AcDbEntity
  8
0
100
AcDbBlockReference
  2
ACAD
 10
39.89861532931161
 20
57.32504410962993
 30
0.0
  0
INSERT
  5
4584
330
453B
100
AcDbEntity
  8
0
100
AcDbBlockReference
  2
ACAD
 10
62.40779621638817
 20
107.6704480526458
 30
0.0
  0
INSERT
  5
4585
330
453B
100
AcDbEntity
  8
0
100
AcDbBlockReference
  2
ACAD
 10
24.99441715919684
 20
4.509071918688603
 30
0.0
  0
LINE
  5
4586
330
453B
100
AcDbEntity
  8
TITLE
100
AcDbLine
 10
5.269000000000001
 20
0.3429999999999982
 30
0.0
 11
0.0309999999999988
 21
0.343
 31
0.0
  0
LINE
  5
4587
330
453B
100
AcDbEntity
  8
TITLE
100
AcDbLine
 10
5.269000000000001
 20
0.1349999999999998
 30
0.0
 11
0.0309999999999988
 21
0.1350000000000016
 31
0.0
  0
LINE
  5
4588
330
453B
100
AcDbEntity
  8
TITLE
100
AcDbLine
 10
5.269000000000001
 20
0.238999999999999
 30
0.0
 11
0.0309999999999988
 21
0.2390000000000016
 31
0.0
  0
TEXT
  5
4590
330
453B
100
AcDbEntity
  8
TEXT
100
AcDbText
 10
0.4705933171386303
 20
0.2560789420260514
 30
0.0
 40
0.063
  1
PART NO.
 41
0.75
 72
     1
 11
0.6359683171386302
 21
0.2560789420260514
 31
0.0
100
AcDbText
  0
TEXT
  5
4591
330
453B
100
AcDbEntity
  8
TEXT
100
AcDbText
 10
0.5020933171386303
 20
0.0480789420260512
 30
0.0
 40
0.063
  1
F-3599
 41
0.75
 72
     1
 11
0.6359683171386302
 21
0.0480789420260512
 31
0.0
100
AcDbText
  0
TEXT
  5
4592
330
453B
100
AcDbEntity
  8
TEXT
100
AcDbText
 10
0.5099683171386303
 20
0.1520789420260522
 30
0.0
 40
0.063
  1
F-3581
 41
0.75
 72
     1
 11
0.6359683171386302
 21
0.1520789420260522
 31
0.0
100
AcDbText
  0
TEXT
  5
4598
330
453B
100
AcDbEntity
  8
TEXT
100
AcDbText
 10
3.268390052317601
 20
0.2560789420260509
 30
0.0
 40
0.063
  1
B
 41
0.75
 72
     1
 11
3.284140052317602
 21
0.2560789420260509
 31
0.0
100
AcDbText
  0
TEXT
  5
4599
330
453B
100
AcDbEntity
  8
TEXT
100
AcDbText
 10
1.943688836052745
 20
0.2560789420260511
 30
0.0
 40
0.063
  1
A
 41
0.75
 72
     1
 11
1.959438836052745
 21
0.2560789420260511
 31
0.0
100
AcDbText
  0
TEXT
  5
459A
330
453B
100
AcDbEntity
  8
TEXT
100
AcDbText
 10
1.876751336052745
 20
0.048078942026051
 30
0.0
 40
0.063
  1
0.812
 41
0.75
 72
     1
 11
1.959438836052745
 21
0.048078942026051
 31
0.0
100
AcDbText
  0
TEXT
  5
459B
330
453B
100
AcDbEntity
  8
TEXT
100
AcDbText
 10
1.876751336052745
 20
0.1520789420260519
 30
0.0
 40
0.063
  1
0.500
 41
0.75
 72
     1
 11
1.959438836052745
 21
0.1520789420260519
 31
0.0
100
AcDbText
  0
TEXT
  5
459C
330
453B
100
AcDbEntity
  8
TEXT
100
AcDbText
 10
3.201452552317602
 20
0.0480789420260507
 30
0.0
 40
0.063
  1
0.812
 41
0.75
 72
     1
 11
3.284140052317602
 21
0.0480789420260507
 31
0.0
100
AcDbText
  0
TEXT
  5
459D
330
453B
100
AcDbEntity
  8
TEXT
100
AcDbText
 10
3.201452552317602
 20
0.1520789420260516
 30
0.0
 40
0.063
  1
0.500
 41
0.75
 72
     1
 11
3.284140052317602
 21
0.1520789420260516
 31
0.0
100
AcDbText
  0
TEXT
  5
459E
330
453B
100
AcDbEntity
  8
TEXT
100
AcDbText
 10
4.619751951237295
 20
0.2560789420260506
 30
0.0
 40
0.063
  1
C
 41
0.75
 72
     1
 11
4.635501951237295
 21
0.2560789420260506
 31
0.0
100
AcDbText
  0
TEXT
  5
459F
330
453B
100
AcDbEntity
  8
TEXT
100
AcDbText
 10
4.552814451237296
 20
0.0480789420260505
 30
0.0
 40
0.063
  1
0.300
 41
0.75
 72
     1
 11
4.635501951237295
 21
0.0480789420260505
 31
0.0
100
AcDbText
  0
TEXT
  5
45A0
330
453B
100
AcDbEntity
  8
TEXT
100
AcDbText
 10
4.548876951237295
 20
0.1520789420260514
 30
0.0
 40
0.063
  1
0.220
 41
0.75
 72
     1
 11
4.635501951237295
 21
0.1520789420260514
 31
0.0
100
AcDbText
  0
TEXT
  5
45A8
330
453B
100
AcDbEntity
  8
TEXT
100
AcDbText
 10
0.2913619488746599
 20
2.995832525359998
 30
0.0
 40
0.063
  1
%%UCOLOR:%%u BLACK
 41
0.75
100
AcDbText
  0
TEXT
  5
45A9
330
453B
100
AcDbEntity
  8
TEXT
100
AcDbText
 10
0.2913619488746599
 20
3.182336891736784
 30
0.0
 40
0.063
  1
%%UMATERIAL:%%u POLYURETHANE
 41
0.75
100
AcDbText
  0
LINE
  5
45AA
330
453B
100
AcDbEntity
  8
OBJECT
100
AcDbLine
 10
1.555444346426557
 20
2.333799710277269
 30
0.0
 11
2.367444346426558
 21
2.333799710277269
 31
0.0
  0
LINE
  5
45AB
330
453B
100
AcDbEntity
  8
OBJECT
100
AcDbLine
 10
2.367444346426558
 20
2.333799710277269
 30
0.0
 11
2.367444346426558
 21
1.521799710277267
 31
0.0
  0
LINE
  5
45AC
330
453B
100
AcDbEntity
  8
OBJECT
100
AcDbLine
 10
2.367444346426558
 20
1.521799710277267
 30
0.0
 11
1.555444346426557
 21
1.521799710277268
 31
0.0
  0
LINE
  5
45AD
330
453B
100
AcDbEntity
  8
OBJECT
100
AcDbLine
 10
1.555444346426557
 20
1.521799710277268
 30
0.0
 11
1.555444346426557
 21
2.333799710277269
 31
0.0
  0
LINE
  5
45AE
330
453B
100
AcDbEntity
  8
OBJECT
100
AcDbLine
 10
3.274954474247774
 20
1.67811875505519
 30
0.0
 11
3.274954474247769
 21
2.177799710277268
 31
0.0
  0
LINE
  5
45AF
330
453B
100
AcDbEntity
  8
OBJECT
100
AcDbLine
 10
3.574954474247774
 20
2.333799710277269
 30
0.0
 11
3.574954474247774
 21
1.521799710277267
 31
0.0
  0
LINE
  5
45B0
330
453B
100
AcDbEntity
  8
OBJECT
100
AcDbLine
 10
3.574954474247774
 20
1.521799710277267
 30
0.0
 11
3.559954474247773
 21
1.521799710277267
 31
0.0
  0
LINE
  5
45B1
330
453B
100
AcDbEntity
  8
OBJECT
100
AcDbLine
 10
3.559954474247773
 20
2.333799710277269
 30
0.0
 11
3.574954474247774
 21
2.333799710277269
 31
0.0
  0
LINE
  5
45B2
330
453B
100
AcDbEntity
  8
OBJECT
100
AcDbLine
 10
1.570444346426558
 20
2.318799710277268
 30
0.0
 11
2.352444346426561
 21
2.318799710277267
 31
0.0
  0
LINE
  5
45B3
330
453B
100
AcDbEntity
  8
OBJECT
100
AcDbLine
 10
2.352444346426561
 20
2.318799710277267
 30
0.0
 11
2.352444346426555
 21
1.536799710277267
 31
0.0
  0
LINE
  5
45B4
330
453B
100
AcDbEntity
  8
OBJECT
100
AcDbLine
 10
2.352444346426555
 20
1.536799710277267
 30
0.0
 11
1.570444346426558
 21
1.536799710277269
 31
0.0
  0
LINE
  5
45B5
330
453B
100
AcDbEntity
  8
OBJECT
100
AcDbLine
 10
1.570444346426558
 20
1.536799710277269
 30
0.0
 11
1.570444346426558
 21
2.318799710277268
 31
0.0
  0
LINE
  5
45B6
330
453B
100
AcDbEntity
  8
OBJECT
100
AcDbLine
 10
3.559954474247773
 20
2.333799710277269
 30
0.0
 11
3.559954474247773
 21
1.521799710277267
 31
0.0
  0
LINE
  5
45BF
330
453B
100
AcDbEntity
  8
OBJECT
100
AcDbLine
 10
1.570444346426558
 20
2.318799710277268
 30
0.0
 11
1.711444346426562
 21
2.177480665499335
 31
0.0
  0
LINE
  5
45C0
330
453B
100
AcDbEntity
  8
OBJECT
100
AcDbLine
 10
2.211444346426562
 20
2.177480665499331
 30
0.0
 11
2.352444346426561
 21
2.318799710277267
 31
0.0
  0
LINE
  5
45C1
330
453B
100
AcDbEntity
  8
OBJECT
100
AcDbLine
 10
2.211444346426562
 20
1.67811875505519
 30
0.0
 11
2.352444346426555
 21
1.536799710277267
 31
0.0
  0
LINE
  5
45C2
330
453B
100
AcDbEntity
  8
OBJECT
100
AcDbLine
 10
1.711444346426562
 20
1.678118755055205
 30
0.0
 11
1.570444346426558
 21
1.536799710277269
 31
0.0
  0
LINE
  5
45C3
330
453B
100
AcDbEntity
  8
TITLE
100
AcDbLine
 10
1.339999999999998
 20
0.0310000000000015
 30
0.0
 11
1.339999999999998
 21
0.343
 31
0.0
  0
LINE
  5
45C4
330
453B
100
AcDbEntity
  8
TITLE
100
AcDbLine
 10
2.648999999999999
 20
0.0310000000000015
 30
0.0
 11
2.648999999999999
 21
0.3429999999999991
 31
0.0
  0
LINE
  5
45C5
330
453B
100
AcDbEntity
  8
TITLE
100
AcDbLine
 10
3.958
 20
0.0310000000000006
 30
0.0
 11
3.958
 21
0.3429999999999982
 31
0.0
  0
LINE
  5
45C6
330
453B
100
AcDbEntity
  8
DIM
100
AcDbLine
 10
1.555444346426557
 20
2.365049710277269
 30
0.0
 11
1.555444346426557
 21
2.595995223043951
 31
0.0
  0
LINE
  5
45C7
330
453B
100
AcDbEntity
  8
DIM
100
AcDbLine
 10
2.367444346426558
 20
2.365049710277269
 30
0.0
 11
2.367444346426558
 21
2.595995223043951
 31
0.0
  0
LINE
  5
45C8
330
453B
100
AcDbEntity
  8
DIM
100
AcDbLine
 10
1.645444346426558
 20
2.549495223043951
 30
0.0
 11
1.900819346426557
 21
2.549495223043951
 31
0.0
  0
LINE
  5
45C9
330
453B
100
AcDbEntity
  8
DIM
100
AcDbLine
 10
2.277444346426559
 20
2.549495223043951
 30
0.0
 11
2.022069346426557
 21
2.549495223043951
 31
0.0
  0
SOLID
  5
45CA
330
453B
100
AcDbEntity
  8
DIM
100
AcDbTrace
 10
1.645444346426558
 20
2.564495223043952
 30
0.0
 11
1.645444346426558
 21
2.534495223043951
 31
0.0
 12
1.555444346426557
 22
2.549495223043951
 32
0.0
 13
1.555444346426557
 23
2.549495223043951
 33
0.0
  0
SOLID
  5
45CB
330
453B
100
AcDbEntity
  8
DIM
100
AcDbTrace
 10
2.277444346426558
 20
2.564495223043952
 30
0.0
 11
2.277444346426558
 21
2.534495223043951
 31
0.0
 12
2.367444346426557
 22
2.549495223043951
 32
0.0
 13
2.367444346426557
 23
2.549495223043951
 33
0.0
  0
TEXT
  5
45CC
330
453B
100
AcDbEntity
  8
OBJECT
100
AcDbText
 10
1.945819346426558
 20
2.518245223043951
 30
0.0
 40
0.0625
  1
A
 41
0.75
  7
TXT
100
AcDbText
  0
LINE
  5
45D3
330
453B
100
AcDbEntity
  8
DIM
100
AcDbLine
 10
2.398694346426558
 20
2.333799710277269
 30
0.0
 11
2.678797216949868
 21
2.333799710277269
 31
0.0
  0
LINE
  5
45D4
330
453B
100
AcDbEntity
  8
DIM
100
AcDbLine
 10
2.398694346426558
 20
1.521799710277267
 30
0.0
 11
2.678797216949868
 21
1.521799710277267
 31
0.0
  0
LINE
  5
45D5
330
453B
100
AcDbEntity
  8
DIM
100
AcDbLine
 10
2.632297216949868
 20
2.243799710277268
 30
0.0
 11
2.632297216949868
 21
2.004049710277267
 31
0.0
  0
LINE
  5
45D6
330
453B
100
AcDbEntity
  8
DIM
100
AcDbLine
 10
2.632297216949868
 20
1.611799710277269
 30
0.0
 11
2.632297216949868
 21
1.851549710277268
 31
0.0
  0
SOLID
  5
45D7
330
453B
100
AcDbEntity
  8
DIM
100
AcDbTrace
 10
2.617297216949868
 20
2.243799710277268
 30
0.0
 11
2.647297216949867
 21
2.243799710277268
 31
0.0
 12
2.632297216949868
 22
2.333799710277269
 32
0.0
 13
2.632297216949868
 23
2.333799710277269
 33
0.0
  0
SOLID
  5
45D8
330
453B
100
AcDbEntity
  8
DIM
100
AcDbTrace
 10
2.617297216949868
 20
1.611799710277269
 30
0.0
 11
2.647297216949867
 21
1.611799710277269
 31
0.0
 12
2.632297216949868
 22
1.521799710277267
 32
0.0
 13
2.632297216949868
 23
1.521799710277267
 33
0.0
  0
TEXT
  5
45D9
330
453B
100
AcDbEntity
  8
OBJECT
100
AcDbText
 10
2.616672216949866
 20
1.896549710277268
 30
0.0
 40
0.0625
  1
B
 41
0.75
  7
TXT
100
AcDbText
  0
LINE
  5
45DC
330
453B
100
AcDbEntity
  8
DIM
100
AcDbLine
 10
3.27495447424777
 20
2.226158432005215
 30
0.0
 11
3.27495447424777
 21
2.595995223043951
 31
0.0
  0
LINE
  5
45DD
330
453B
100
AcDbEntity
  8
DIM
100
AcDbLine
 10
3.574954474247774
 20
2.365049710277269
 30
0.0
 11
3.574954474247774
 21
2.595995223043951
 31
0.0
  0
LINE
  5
45DE
330
453B
100
AcDbEntity
  8
DIM
100
AcDbLine
 10
3.184954474247771
 20
2.549495223043951
 30
0.0
 11
3.09495447424777
 21
2.549495223043951
 31
0.0
  0
LINE
  5
45DF
330
453B
100
AcDbEntity
  8
DIM
100
AcDbLine
 10
3.664954474247775
 20
2.549495223043949
 30
0.0
 11
3.754954474247774
 21
2.549495223043949
 31
0.0
  0
SOLID
  5
45E0
330
453B
100
AcDbEntity
  8
DIM
100
AcDbTrace
 10
3.184954474247771
 20
2.564495223043952
 30
0.0
 11
3.184954474247771
 21
2.534495223043951
 31
0.0
 12
3.27495447424777
 22
2.549495223043951
 32
0.0
 13
3.27495447424777
 23
2.549495223043951
 33
0.0
  0
SOLID
  5
45E1
330
453B
100
AcDbEntity
  8
DIM
100
AcDbTrace
 10
3.664954474247775
 20
2.564495223043952
 30
0.0
 11
3.664954474247775
 21
2.53449522304395
 31
0.0
 12
3.574954474247772
 22
2.549495223043951
 32
0.0
 13
3.574954474247772
 23
2.549495223043951
 33
0.0
  0
TEXT
  5
45E2
330
453B
100
AcDbEntity
  8
OBJECT
100
AcDbText
 10
3.409329474247772
 20
2.518245223043951
 30
0.0
 40
0.0625
  1
C
 41
0.75
  7
TXT
100
AcDbText
  0
INSERT
  5
4603
330
453B
100
AcDbEntity
  8
OBJECT
100
AcDbBlockReference
  2
HBA
 10
0.0
 20
0.0
 30
0.0
 41
0.5
 42
0.5
 43
0.5
  0
TEXT
  5
4604
330
453B
100
AcDbEntity
  8
TEXT
100
AcDbText
 10
0.8309884943964657
 20
3.778802776727444
 30
0.0
 40
0.094
  1
RUBBER FOOT
 41
0.75
 72
     1
 11
1.206988494396465
 21
3.778802776727444
 31
0.0
100
AcDbText
  0
TEXT
  5
4605
330
453B
100
AcDbEntity
  8
TEXT
100
AcDbText
 10
2.751151056727707
 20
3.778802776727444
 30
0.0
 40
0.094
  1
F-3581  &  F-3599
 41
0.75
 72
     1
 11
3.326901056727708
 21
3.778802776727444
 31
0.0
100
AcDbText
  0
TEXT
  5
4606
330
453B
100
AcDbEntity
  8
TEXT
100
AcDbText
 10
4.814252624001403
 20
3.778802776727444
 30
0.0
 40
0.094
  1
9-1-10
 41
0.75
 72
     1
 11
4.984627624001403
 21
3.778802776727444
 31
0.0
100
AcDbText
  0
LINE
  5
4609
330
453B
100
AcDbEntity
  8
OBJECT
100
AcDbLine
 10
2.211444346426562
 20
2.177799710277268
 30
0.0
 11
1.711444346426562
 21
2.177799710277268
 31
0.0
  0
LINE
  5
460A
330
453B
100
AcDbEntity
  8
OBJECT
100
AcDbLine
 10
2.211444346426562
 20
1.677799710277268
 30
0.0
 11
1.711444346426562
 21
1.677799710277268
 31
0.0
  0
LINE
  5
460C
330
453B
100
AcDbEntity
  8
OBJECT
100
AcDbLine
 10
1.711444346426562
 20
2.177799710277268
 30
0.0
 11
1.711444346426562
 21
1.677799710277268
 31
0.0
  0
LINE
  5
460D
330
453B
100
AcDbEntity
  8
OBJECT
100
AcDbLine
 10
2.211444346426562
 20
2.177799710277268
 30
0.0
 11
2.211444346426562
 21
1.677799710277268
 31
0.0
  0
LINE
  5
4612
330
453B
100
AcDbEntity
  8
OBJECT
100
AcDbLine
 10
3.274954474247769
 20
2.177799710277268
 30
0.0
 11
3.559954474247773
 21
2.318799710277267
 31
0.0
  0
LINE
  5
4613
330
453B
100
AcDbEntity
  8
OBJECT
100
AcDbLine
 10
3.274954474247774
 20
1.67811875505519
 30
0.0
 11
3.559954474247773
 21
1.536799710277267
 31
0.0
  0
TEXT
  5
461F
330
453B
100
AcDbEntity
  8
OBJECT
100
AcDbText
 10
3.977748190708545
 20
2.191941962178079
 30
0.0
 40
0.0625
  1
ADHESIVE SURFACE
 41
0.75
  7
TXT
100
AcDbText
  0
TEXT
  5
4620
330
453B
100
AcDbEntity
  8
OBJECT
100
AcDbText
 10
3.977748190708545
 20
2.087775295511412
 30
0.0
 40
0.0625
  1
W/ PAPER BACKING
 41
0.75
  7
TXT
100
AcDbText
  0
LWPOLYLINE
  5
4621
330
453B
100
AcDbEntity
  8
DIM
100
AcDbPolyline
 90
        3
 70
     0
 43
0.0
 10
3.629442679666631
 20
1.959880729699642
 10
3.842748190708544
 20
2.223191962178079
 10
3.932748190708545
 20
2.223191962178079
  0
SOLID
  5
4622
330
453B
100
AcDbEntity
  8
DIM
100
AcDbTrace
 10
3.617504138589009
 20
1.968962097269454
 30
0.0
 11
3.574954474247772
 21
1.888249483233924
 31
0.0
 12
3.641381220744252
 22
1.950799362129835
 32
0.0
 13
3.641381220744252
 23
1.950799362129835
 33
0.0
  0
ENDSEC
  0
SECTION
  2
OBJECTS
  0
DICTIONARY
  5
4529
330
0
100
AcDbDictionary
  3
ACAD_GROUP
350
452A
  3
ACAD_LAYOUT
350
4536
  3
ACAD_MLINESTYLE
350
4533
  3
ACAD_PLOTSETTINGS
350
4535
  3
ACAD_PLOTSTYLENAME
350
452B
  3
ACDBHEADERROUNDTRIPXREC
350
4629
  0
DICTIONARY
  5
464C
330
453B
100
AcDbDictionary
280
     1
  3
ACAD_LAYOUTSELFREF
360
464D
  0
DICTIONARY
  5
464A
330
4537
100
AcDbDictionary
280
     1
  3
ACAD_LAYOUTSELFREF
360
464B
  0
DICTIONARY
  5
452A
102
{ACAD_REACTORS
330
4529
102
}
330
4529
100
AcDbDictionary
  0
DICTIONARY
  5
4536
102
{ACAD_REACTORS
330
4529
102
}
330
4529
100
AcDbDictionary
  0
DICTIONARY
  5
4533
102
{ACAD_REACTORS
330
4529
102
}
330
4529
100
AcDbDictionary
  3
STANDARD
350
4534
  0
DICTIONARY
  5
4535
102
{ACAD_REACTORS
330
4529
102
}
330
4529
100
AcDbDictionary
  0
ACDBDICTIONARYWDFLT
  5
452B
102
{ACAD_REACTORS
330
4529
102
}
330
4529
100
AcDbDictionary
281
     1
  3
Normal
350
452C
100
AcDbDictionaryWithDefault
340
452C
  0
DICTIONARY
  5
4629
102
{ACAD_REACTORS
330
4529
102
}
330
4529
100
AcDbDictionary
  3
TSTACKALIGN
350
462A
  3
TSTACKSIZE
350
462B
  3
HYPERLINKBASE
350
462C
  3
STYLESHEET
350
462D
  3
LAYOUTDICT
350
462E
  3
PLOTSETDICT
350
462F
  3
PLOTSTYLNAMDICT
350
4630
  3
LWETCUNION
350
4631
  3
INSUNITS
350
4632
  3
CEPSNTYPE
350
4633
  3
FINGERPRINTGUID
350
4634
  3
VERSIONGUID
350
4635
  3
PSVPSCALE
350
4636
  3
DIMSTYLEDATA
350
4637
  3
PUCSORTHOREF
350
4638
  3
PUCSORTHOVIEW
350
4639
  3
PUCSBASE
350
463A
  3
PUCSORGTOP
350
463B
  3
PUCSORGBOTTOM
350
463C
  3
PUCSORGLEFT
350
463D
  3
PUCSORGRIGHT
350
463E
  3
PUCSORGFRONT
350
463F
  3
PUCSORGBACK
350
4640
  3
UCSORTHOREF
350
4641
  3
UCSORTHOVIEW
350
4642
  3
UCSBASE
350
4643
  3
UCSORGTOP
350
4644
  3
UCSORGBOTTOM
350
4645
  3
UCSORGLEFT
350
4646
  3
UCSORGRIGHT
350
4647
  3
UCSORGFRONT
350
4648
  3
UCSORGBACK
350
4649
  0
XRECORD
  5
464D
102
{ACAD_REACTORS
330
464C
102
}
330
464C
100
AcDbXrecord
340
453B
  0
XRECORD
  5
464B
102
{ACAD_REACTORS
330
464A
102
}
330
464A
100
AcDbXrecord
340
4537
  0
MLINESTYLE
  5
4534
102
{ACAD_REACTORS
330
4533
102
}
330
4533
100
AcDbMlineStyle
  2
STANDARD
 70
     0
  3

 62
   256
 51
90.0
 52
90.0
 71
     2
 49
0.5
 62
   256
  6
BYLAYER
 49
-0.5
 62
   256
  6
BYLAYER
  0
ACDBPLACEHOLDER
  5
452C
102
{ACAD_REACTORS
330
452B
102
}
330
452B
100
AcDbPlaceHolder
280
     0
  0
XRECORD
  5
462A
102
{ACAD_REACTORS
330
4629
102
}
330
4629
100
AcDbXrecord
 90
        1
  0
XRECORD
  5
462B
102
{ACAD_REACTORS
330
4629
102
}
330
4629
100
AcDbXrecord
 90
       70
  0
XRECORD
  5
462C
102
{ACAD_REACTORS
330
4629
102
}
330
4629
100
AcDbXrecord
  1

  0
XRECORD
  5
462D
102
{ACAD_REACTORS
330
4629
102
}
330
4629
100
AcDbXrecord
  1
monochrome.ctb
  0
XRECORD
  5
462E
102
{ACAD_REACTORS
330
4629
102
}
330
4629
100
AcDbXrecord
340
4536
  0
XRECORD
  5
462F
102
{ACAD_REACTORS
330
4629
102
}
330
4629
100
AcDbXrecord
340
4535
  0
XRECORD
  5
4630
102
{ACAD_REACTORS
330
4629
102
}
330
4629
100
AcDbXrecord
340
452B
  0
XRECORD
  5
4631
102
{ACAD_REACTORS
330
4629
102
}
330
4629
100
AcDbXrecord
 90
    10781
  0
XRECORD
  5
4632
102
{ACAD_REACTORS
330
4629
102
}
330
4629
100
AcDbXrecord
 90
        0
  0
XRECORD
  5
4633
102
{ACAD_REACTORS
330
4629
102
}
330
4629
100
AcDbXrecord
 90
        0
  0
XRECORD
  5
4634
102
{ACAD_REACTORS
330
4629
102
}
330
4629
100
AcDbXrecord
  1
{A8F3E323-EF15-482B-8C52-2FB6C030BAA8}
  0
XRECORD
  5
4635
102
{ACAD_REACTORS
330
4629
102
}
330
4629
100
AcDbXrecord
  1
{DD85F083-3706-49B7-97CD-0BD12501FA0D}
  0
XRECORD
  5
4636
102
{ACAD_REACTORS
330
4629
102
}
330
4629
100
AcDbXrecord
 40
0.0
  0
XRECORD
  5
4637
102
{ACAD_REACTORS
330
4629
102
}
330
4629
100
AcDbXrecord
1000
DSTYLE
1002
{
1070
   279
 70
     2
1002
}
  0
XRECORD
  5
4638
102
{ACAD_REACTORS
330
4629
102
}
330
4629
100
AcDbXrecord
340
0
  0
XRECORD
  5
4639
102
{ACAD_REACTORS
330
4629
102
}
330
4629
100
AcDbXrecord
 70
     0
  0
XRECORD
  5
463A
102
{ACAD_REACTORS
330
4629
102
}
330
4629
100
AcDbXrecord
340
0
  0
XRECORD
  5
463B
102
{ACAD_REACTORS
330
4629
102
}
330
4629
100
AcDbXrecord
 10
0.0
 20
0.0
 30
0.0
  0
XRECORD
  5
463C
102
{ACAD_REACTORS
330
4629
102
}
330
4629
100
AcDbXrecord
 10
0.0
 20
0.0
 30
0.0
  0
XRECORD
  5
463D
102
{ACAD_REACTORS
330
4629
102
}
330
4629
100
AcDbXrecord
 10
0.0
 20
0.0
 30
0.0
  0
XRECORD
  5
463E
102
{ACAD_REACTORS
330
4629
102
}
330
4629
100
AcDbXrecord
 10
0.0
 20
0.0
 30
0.0
  0
XRECORD
  5
463F
102
{ACAD_REACTORS
330
4629
102
}
330
4629
100
AcDbXrecord
 10
0.0
 20
0.0
 30
0.0
  0
XRECORD
  5
4640
102
{ACAD_REACTORS
330
4629
102
}
330
4629
100
AcDbXrecord
 10
0.0
 20
0.0
 30
0.0
  0
XRECORD
  5
4641
102
{ACAD_REACTORS
330
4629
102
}
330
4629
100
AcDbXrecord
340
0
  0
XRECORD
  5
4642
102
{ACAD_REACTORS
330
4629
102
}
330
4629
100
AcDbXrecord
 70
     0
  0
XRECORD
  5
4643
102
{ACAD_REACTORS
330
4629
102
}
330
4629
100
AcDbXrecord
340
0
  0
XRECORD
  5
4644
102
{ACAD_REACTORS
330
4629
102
}
330
4629
100
AcDbXrecord
 10
0.0
 20
0.0
 30
0.0
  0
XRECORD
  5
4645
102
{ACAD_REACTORS
330
4629
102
}
330
4629
100
AcDbXrecord
 10
0.0
 20
0.0
 30
0.0
  0
XRECORD
  5
4646
102
{ACAD_REACTORS
330
4629
102
}
330
4629
100
AcDbXrecord
 10
0.0
 20
0.0
 30
0.0
  0
XRECORD
  5
4647
102
{ACAD_REACTORS
330
4629
102
}
330
4629
100
AcDbXrecord
 10
0.0
 20
0.0
 30
0.0
  0
XRECORD
  5
4648
102
{ACAD_REACTORS
330
4629
102
}
330
4629
100
AcDbXrecord
 10
0.0
 20
0.0
 30
0.0
  0
XRECORD
  5
4649
102
{ACAD_REACTORS
330
4629
102
}
330
4629
100
AcDbXrecord
 10
0.0
 20
0.0
 30
0.0
  0
ENDSEC
  0
EOF
