  0
SECTION
  2
HEADER
  9
$ACADVER
  1
AC1009
  9
$INSBASE
 10
0.0
 20
0.0
 30
0.0
  9
$EXTMIN
 10
-0.0003661829982491
 20
-0.0007272395337523
 30
-0.0015258207003583
  9
$EXTMAX
 10
5.3005371295154751
 20
3.970656045664323
 30
0.0000000349246037
  9
$LIMMIN
 10
0.0
 20
0.0
  9
$LIMMAX
 10
12.0
 20
9.0
  9
$ORTHOMODE
 70
     1
  9
$REGENMODE
 70
     1
  9
$FILLMODE
 70
     1
  9
$QTEXTMODE
 70
     0
  9
$MIRRTEXT
 70
     0
  9
$DRAGMODE
 70
     2
  9
$LTSCALE
 40
0.188
  9
$OSMODE
 70
    37
  9
$ATTMODE
 70
     1
  9
$TEXTSIZE
 40
0.063
  9
$TRACEWID
 40
0.05
  9
$TEXTSTYLE
  7
STANDARD
  9
$CLAYER
  8
OBJECT
  9
$CELTYPE
  6
BYLAYER
  9
$CECOLOR
 62
   256
  9
$DIMSCALE
 40
0.5
  9
$DIMASZ
 40
0.18
  9
$DIMEXO
 40
0.0625
  9
$DIMDLI
 40
0.281
  9
$DIMRND
 40
0.0
  9
$DIMDLE
 40
0.0
  9
$DIMEXE
 40
0.093
  9
$DIMTP
 40
0.0
  9
$DIMTM
 40
0.0
  9
$DIMTXT
 40
0.125
  9
$DIMCEN
 40
0.09
  9
$DIMTSZ
 40
0.0
  9
$DIMTOL
 70
     0
  9
$DIMLIM
 70
     0
  9
$DIMTIH
 70
     1
  9
$DIMTOH
 70
     1
  9
$DIMSE1
 70
     0
  9
$DIMSE2
 70
     0
  9
$DIMTAD
 70
     0
  9
$DIMZIN
 70
     0
  9
$DIMBLK
  1

  9
$DIMASO
 70
     1
  9
$DIMSHO
 70
     1
  9
$DIMPOST
  1

  9
$DIMAPOST
  1

  9
$DIMALT
 70
     0
  9
$DIMALTD
 70
     2
  9
$DIMALTF
 40
25.399999999999999
  9
$DIMLFAC
 40
1.0
  9
$DIMTOFL
 70
     0
  9
$DIMTVP
 40
0.0
  9
$DIMTIX
 70
     1
  9
$DIMSOXD
 70
     0
  9
$DIMSAH
 70
     0
  9
$DIMBLK1
  1

  9
$DIMBLK2
  1

  9
$DIMSTYLE
  2
DIMIN
  9
$DIMCLRD
 70
     0
  9
$DIMCLRE
 70
     0
  9
$DIMCLRT
 70
     0
  9
$DIMTFAC
 40
1.0
  9
$DIMGAP
 40
0.09
  9
$LUNITS
 70
     2
  9
$LUPREC
 70
     4
  9
$SKETCHINC
 40
0.1
  9
$FILLETRAD
 40
0.0
  9
$AUNITS
 70
     0
  9
$AUPREC
 70
     0
  9
$MENU
  1
.
  9
$ELEVATION
 40
0.0
  9
$PELEVATION
 40
0.0
  9
$THICKNESS
 40
0.0
  9
$LIMCHECK
 70
     0
  9
$BLIPMODE
 70
     0
  9
$CHAMFERA
 40
0.5
  9
$CHAMFERB
 40
0.5
  9
$SKPOLY
 70
     0
  9
$TDCREATE
 40
2451570.5889834599
  9
$TDUPDATE
 40
2451802.444898345
  9
$TDINDWG
 40
0.4724061227
  9
$TDUSRTIMER
 40
0.4724061227
  9
$USRTIMER
 70
     1
  9
$ANGBASE
 50
0.0
  9
$ANGDIR
 70
     0
  9
$PDMODE
 70
     0
  9
$PDSIZE
 40
0.0
  9
$PLINEWID
 40
0.0
  9
$COORDS
 70
     0
  9
$SPLFRAME
 70
     0
  9
$SPLINETYPE
 70
     6
  9
$SPLINESEGS
 70
     8
  9
$ATTDIA
 70
     0
  9
$ATTREQ
 70
     1
  9
$HANDLING
 70
  4097
  9
$HANDSEED
  5
44D7
  9
$SURFTAB1
 70
     6
  9
$SURFTAB2
 70
     6
  9
$SURFTYPE
 70
     6
  9
$SURFU
 70
     6
  9
$SURFV
 70
     6
  9
$UCSNAME
  2

  9
$UCSORG
 10
0.0
 20
0.0
 30
0.0
  9
$UCSXDIR
 10
1.0
 20
0.0
 30
0.0
  9
$UCSYDIR
 10
0.0
 20
1.0
 30
0.0
  9
$PUCSNAME
  2

  9
$PUCSORG
 10
0.0
 20
0.0
 30
0.0
  9
$PUCSXDIR
 10
1.0
 20
0.0
 30
0.0
  9
$PUCSYDIR
 10
0.0
 20
1.0
 30
0.0
  9
$USERI1
 70
     0
  9
$USERI2
 70
     0
  9
$USERI3
 70
     0
  9
$USERI4
 70
     0
  9
$USERI5
 70
     0
  9
$USERR1
 40
0.0
  9
$USERR2
 40
0.0
  9
$USERR3
 40
0.0
  9
$USERR4
 40
0.0
  9
$USERR5
 40
0.0
  9
$WORLDVIEW
 70
     1
  9
$SHADEDGE
 70
     3
  9
$SHADEDIF
 70
    70
  9
$TILEMODE
 70
     1
  9
$MAXACTVP
 70
    64
  9
$PLIMCHECK
 70
     0
  9
$PEXTMIN
 10
1.0000000000000000E+020
 20
1.0000000000000000E+020
 30
1.0000000000000000E+020
  9
$PEXTMAX
 10
-1.0000000000000000E+020
 20
-1.0000000000000000E+020
 30
-1.0000000000000000E+020
  9
$PLIMMIN
 10
0.0
 20
0.0
  9
$PLIMMAX
 10
12.0
 20
9.0
  9
$UNITMODE
 70
     0
  9
$VISRETAIN
 70
     1
  9
$PLINEGEN
 70
     0
  9
$PSLTSCALE
 70
     1
  0
ENDSEC
  0
SECTION
  2
TABLES
  0
TABLE
  2
VPORT
 70
     2
  0
VPORT
  2
*ACTIVE
 70
     0
 10
0.0
 20
0.0
 11
1.0
 21
1.0
 12
2.650085473258613
 22
1.9849644030652851
 13
0.0
 23
0.0
 14
0.5
 24
0.5
 15
0.5
 25
0.5
 16
0.0
 26
0.0
 36
1.0
 17
0.0
 27
0.0
 37
0.0
 40
4.0160892884085611
 41
1.8139097744360899
 42
50.0
 43
0.0
 44
0.0
 50
0.0
 51
0.0
 71
     0
 72
   100
 73
     1
 74
     2
 75
     0
 76
     0
 77
     0
 78
     2
  0
ENDTAB
  0
TABLE
  2
LTYPE
 70
     6
  0
LTYPE
  2
CONTINUOUS
 70
     0
  3
Solid line
 72
    65
 73
     0
 40
0.0
  0
LTYPE
  2
HIDDEN
 70
     0
  3
_ _ _ _ _ _ _ _ _ _ _ _ _ _ _ _ _ _ _ _ _ _ _
 72
    65
 73
     2
 40
0.375
 49
0.25
 49
-0.125
  0
LTYPE
  2
PHANTOM
 70
     0
  3
_____ _ _ _____ _ _ _____ _ _ _____ _ _ ____
 72
    65
 73
     6
 40
2.5
 49
1.25
 49
-0.25
 49
0.25
 49
-0.25
 49
0.25
 49
-0.25
  0
LTYPE
  2
CENTER
 70
     0
  3
____ _ ____ _ ____ _ ____ _ ____ _ ____ _ ____
 72
    65
 73
     4
 40
2.0
 49
1.25
 49
-0.25
 49
0.25
 49
-0.25
  0
LTYPE
  2
HIDDEN2
 70
     0
  3
_ _ _ _ _ _ _ _ _ _ _ _ _ _ _ _ _ _ _ _ _ _ _ _
 72
    65
 73
     2
 40
0.1875
 49
0.125
 49
-0.0625
  0
LTYPE
  2
PHANTOM2
 70
     0
  3
___ _ _ ___ _ _ ___ _ _ ___ _ _ ___ _ _ ___ _ _
 72
    65
 73
     6
 40
1.25
 49
0.625
 49
-0.125
 49
0.125
 49
-0.125
 49
0.125
 49
-0.125
  0
ENDTAB
  0
TABLE
  2
LAYER
 70
     9
  0
LAYER
  2
0
 70
     0
 62
     7
  6
CONTINUOUS
  0
LAYER
  2
OBJECT
 70
     0
 62
     7
  6
CONTINUOUS
  0
LAYER
  2
DIM
 70
     0
 62
     7
  6
CONTINUOUS
  0
LAYER
  2
HIDDEN
 70
     0
 62
     7
  6
HIDDEN
  0
LAYER
  2
BEND
 70
     0
 62
     7
  6
PHANTOM
  0
LAYER
  2
TEXT
 70
     0
 62
     7
  6
CONTINUOUS
  0
LAYER
  2
TITLE
 70
     0
 62
     7
  6
CONTINUOUS
  0
LAYER
  2
CENTER
 70
     0
 62
     7
  6
CENTER
  0
LAYER
  2
DEFPOINTS
 70
     0
 62
     7
  6
CONTINUOUS
  0
ENDTAB
  0
TABLE
  2
STYLE
 70
     2
  0
STYLE
  2
STANDARD
 70
     0
 40
0.0
 41
0.75
 50
0.0
 71
     0
 42
0.063
  3
txt.shx
  4

  0
STYLE
  2
TXT
 70
     0
 40
0.0
 41
0.75
 50
0.0
 71
     0
 42
0.125
  3
TXT.shx
  4

  0
ENDTAB
  0
TABLE
  2
VIEW
 70
     0
  0
ENDTAB
  0
TABLE
  2
UCS
 70
     0
  0
ENDTAB
  0
TABLE
  2
APPID
 70
     3
  0
APPID
  2
ACAD
 70
     0
  0
APPID
  2
MCAD_NO_VIS
 70
     0
  0
APPID
  2
AD_SKETCHDIM
 70
     0
  0
ENDTAB
  0
TABLE
  2
DIMSTYLE
 70
     2
  0
DIMSTYLE
  2
DIMIN
 70
     0
  3

  4

  5

  6

  7

 40
0.5
 41
0.18
 42
0.0625
 43
0.281
 44
0.093
 45
0.0
 46
0.0
 47
0.0
 48
0.0
140
0.125
141
0.09
142
0.0
143
25.399999999999999
144
1.0
145
0.0
146
1.0
147
0.09
 71
     0
 72
     0
 73
     1
 74
     1
 75
     0
 76
     0
 77
     0
 78
     0
170
     0
171
     2
172
     0
173
     0
174
     1
175
     0
176
     0
177
     0
178
     0
  0
DIMSTYLE
  2
DIMOUT
 70
     0
  3

  4

  5

  6

  7

 40
0.5
 41
0.18
 42
0.0625
 43
0.281
 44
0.093
 45
0.0
 46
0.0
 47
0.0
 48
0.0
140
0.125
141
0.09
142
0.0
143
25.399999999999999
144
1.0
145
0.0
146
1.0
147
0.09
 71
     0
 72
     0
 73
     1
 74
     1
 75
     0
 76
     0
 77
     0
 78
     0
170
     0
171
     2
172
     0
173
     0
174
     0
175
     0
176
     0
177
     0
178
     0
  0
ENDTAB
  0
ENDSEC
  0
SECTION
  2
BLOCKS
  0
BLOCK
  8
0
  2
$MODEL_SPACE
 70
     0
 10
0.0
 20
0.0
 30
0.0
  3
$MODEL_SPACE
  1

  0
ENDBLK
  5
445E
  8
0
  0
BLOCK
 67
     1
  8
0
  2
$PAPER_SPACE
 70
     0
 10
0.0
 20
0.0
 30
0.0
  3
$PAPER_SPACE
  1

  0
ENDBLK
  5
445A
 67
     1
  8
0
  0
BLOCK
  8
0
  2
ACAD
 70
     0
 10
0.0
 20
0.0
 30
0.0
  3
ACAD
  1

  0
ENDBLK
  5
447C
  8
0
  0
BLOCK
  8
0
  2
*D3
 70
     1
 10
0.0
 20
0.0
 30
0.0
  3
*D3
  1

  0
LINE
  5
447F
  8
DIM
 62
     0
 10
1.5831306036361781
 20
1.824905462849006
 30
0.0
 11
1.5831306036361781
 21
2.511353490068398
 31
0.0
  0
LINE
  5
4480
  8
DIM
 62
     0
 10
2.3331306036361781
 20
1.824905462849006
 30
0.0
 11
2.3331306036361781
 21
2.511353490068398
 31
0.0
  0
LINE
  5
4481
  8
DIM
 62
     0
 10
1.673130603636177
 20
2.4648534900683972
 30
0.0
 11
1.733443103636177
 21
2.4648534900683972
 31
0.0
  0
LINE
  5
4482
  8
DIM
 62
     0
 10
2.2431306036361782
 20
2.4648534900683972
 30
0.0
 11
2.182818103636178
 21
2.4648534900683972
 31
0.0
  0
SOLID
  5
4483
  8
DIM
 62
     0
 10
1.673130603636177
 20
2.4798534900683982
 30
0.0
 11
1.673130603636177
 21
2.449853490068397
 31
0.0
 12
1.5831306036361781
 22
2.4648534900683972
 32
0.0
 13
1.5831306036361781
 23
2.4648534900683972
 33
0.0
  0
SOLID
  5
4484
  8
DIM
 62
     0
 10
2.2431306036361782
 20
2.4798534900683982
 30
0.0
 11
2.2431306036361782
 21
2.449853490068397
 31
0.0
 12
2.3331306036361781
 22
2.4648534900683972
 32
0.0
 13
2.3331306036361781
 23
2.4648534900683972
 33
0.0
  0
TEXT
  5
4485
  8
OBJECT
 62
     0
 10
1.7784431036361781
 20
2.4336034900683972
 30
0.0
 40
0.0625
  1
0.750 DIA.
 41
0.75
  7
TXT
  0
POINT
  5
4486
  8
DEFPOINTS
 62
     0
 10
1.5831306036361781
 20
1.793655462849006
 30
0.0
  0
POINT
  5
4487
  8
DEFPOINTS
 62
     0
 10
2.3331306036361781
 20
1.793655462849006
 30
0.0
  0
POINT
  5
4488
  8
DEFPOINTS
 62
     0
 10
2.3331306036361781
 20
2.4648534900683972
 30
0.0
  0
ENDBLK
  5
4489
  8
0
  0
BLOCK
  8
0
  2
*D4
 70
     1
 10
0.0
 20
0.0
 30
0.0
  3
*D4
  1

  0
LINE
  5
448C
  8
DIM
 62
     0
 10
3.2410449583918921
 20
2.199905462849006
 30
0.0
 11
3.2410449583918921
 21
2.511353490068398
 31
0.0
  0
LINE
  5
448D
  8
DIM
 62
     0
 10
3.3660449583918921
 20
2.199905462849006
 30
0.0
 11
3.3660449583918921
 21
2.511353490068398
 31
0.0
  0
LINE
  5
448E
  8
DIM
 62
     0
 10
3.1510449583918909
 20
2.4648534900683972
 30
0.0
 11
3.0610449583918911
 21
2.4648534900683972
 31
0.0
  0
LINE
  5
448F
  8
DIM
 62
     0
 10
3.456044958391892
 20
2.4648534900683972
 30
0.0
 11
3.5460449583918909
 21
2.4648534900683972
 31
0.0
  0
SOLID
  5
4490
  8
DIM
 62
     0
 10
3.1510449583918909
 20
2.4798534900683982
 30
0.0
 11
3.1510449583918909
 21
2.449853490068397
 31
0.0
 12
3.2410449583918921
 22
2.4648534900683972
 32
0.0
 13
3.2410449583918921
 23
2.4648534900683972
 33
0.0
  0
SOLID
  5
4491
  8
DIM
 62
     0
 10
3.456044958391892
 20
2.4798534900683982
 30
0.0
 11
3.456044958391892
 21
2.449853490068397
 31
0.0
 12
3.3660449583918921
 22
2.4648534900683972
 32
0.0
 13
3.3660449583918921
 23
2.4648534900683972
 33
0.0
  0
TEXT
  5
4492
  8
OBJECT
 62
     0
 10
3.5910449583918922
 20
2.4336034900683972
 30
0.0
 40
0.0625
  1
0.125
 41
0.75
  7
TXT
  0
POINT
  5
4493
  8
DEFPOINTS
 62
     0
 10
3.2410449583918921
 20
2.168655462849006
 30
0.0
  0
POINT
  5
4494
  8
DEFPOINTS
 62
     0
 10
3.3660449583918921
 20
2.168655462849006
 30
0.0
  0
POINT
  5
4495
  8
DEFPOINTS
 62
     0
 10
3.3660449583918921
 20
2.4648534900683972
 30
0.0
  0
ENDBLK
  5
4496
  8
0
  0
ENDSEC
  0
SECTION
  2
ENTITIES
  0
INSERT
  5
4497
  8
0
  2
ACAD
 10
39.89861532931161
 20
57.325044109629928
 30
0.0
  0
INSERT
  5
4498
  8
0
  2
ACAD
 10
62.407796216388171
 20
107.6704480526458
 30
0.0
  0
INSERT
  5
4499
  8
0
  2
ACAD
 10
24.994417159196839
 20
4.509071918688603
 30
0.0
  0
LINE
  5
449A
  8
CENTER
 10
1.414566489472612
 20
1.7936554628490069
 30
0.0
 11
2.5016947177997428
 21
1.793655462849006
 31
0.0
  0
LINE
  5
449B
  8
CENTER
 10
1.9581306036361781
 20
1.250091348685441
 30
0.0
 11
1.9581306036361781
 21
2.3372195770125721
 31
0.0
  0
CIRCLE
  5
449C
  8
OBJECT
 10
1.9581306036361781
 20
1.7936554628490069
 30
0.0
 40
0.375
  0
LINE
  5
449D
  8
OBJECT
 10
3.2410449583918921
 20
2.168655462849006
 30
0.0
 11
3.2410449583918921
 21
1.418655462849006
 31
0.0
  0
LINE
  5
449E
  8
OBJECT
 10
3.3660449583918921
 20
2.168655462849006
 30
0.0
 11
3.3660449583918921
 21
1.418655462849006
 31
0.0
  0
LINE
  5
449F
  8
OBJECT
 10
3.2410449583918921
 20
2.168655462849006
 30
0.0
 11
3.3660449583918921
 21
2.168655462849006
 31
0.0
  0
LINE
  5
44A0
  8
OBJECT
 10
3.2410449583918921
 20
1.418655462849006
 30
0.0
 11
3.3660449583918921
 21
1.418655462849006
 31
0.0
  0
LINE
  5
44A1
  8
CENTER
 10
3.0731279097683339
 20
1.793655462849006
 30
0.0
 11
3.5339620070154498
 21
1.793655462849006
 31
0.0
  0
TEXT
  5
44A2
  8
TEXT
 10
0.2913619488746599
 20
3.1823368917367851
 30
0.0
 40
0.063
  1
%%UMATERIAL:%%u CLOSED CELL (42/43 FIRM) RUBBER
 41
0.75
  0
TEXT
  5
44A3
  8
TEXT
 10
0.291361948874659
 20
2.9958325253599969
 30
0.0
 40
0.063
  1
%%UFINISH:%%u PRESSURE SENSITIVE, BLACK
 41
0.75
  0
TEXT
  5
44A4
  8
TEXT
 10
2.8059999999999978
 20
3.7500395978200411
 30
0.0
 40
0.0625
  1
No.
  7
TXT
 72
     1
 11
2.8684999999999978
 21
3.7500395978200411
 31
0.0
  0
TEXT
  5
44A5
  8
TEXT
 10
2.7539166666666639
 20
3.8542062644867068
 30
0.0
 40
0.0625
  1
PART
  7
TXT
 72
     1
 11
2.8684999999999978
 21
3.8542062644867068
 31
0.0
  0
LINE
  5
44A6
  8
TITLE
 10
0.0309999999999997
 20
3.73
 30
0.0
 11
5.269000000000001
 21
3.7299999999999991
 31
0.0
  0
LINE
  5
44A7
  8
TITLE
 10
0.0309999999999997
 20
3.9390000000000001
 30
0.0
 11
5.269000000000001
 21
3.9389999999999978
 31
0.0
  0
LINE
  5
44A8
  8
TITLE
 10
0.0000000000000009
 20
3.9700000000000002
 30
0.0
 11
5.2999999999999998
 21
3.9699999999999971
 31
0.0
  0
LINE
  5
44A9
  8
TITLE
 10
0.0
 20
0.0
 30
0.0
 11
-0.0000000000000009
 21
3.9700000000000002
 31
0.0
  0
LINE
  5
44AA
  8
TITLE
 10
0.0309999999999988
 20
0.0310000000000015
 30
0.0
 11
0.0309999999999997
 21
3.9390000000000001
 31
0.0
  0
LINE
  5
44AB
  8
TITLE
 10
0.4060000000000033
 20
3.73
 30
0.0
 11
0.4059999999999997
 21
3.9390000000000001
 31
0.0
  0
TEXT
  5
44AC
  8
TEXT
 10
0.1039166666666699
 20
3.8542062644867068
 30
0.0
 40
0.0625
  1
PART
  7
TXT
 72
     1
 11
0.2185000000000032
 21
3.8542062644867068
 31
0.0
  0
TEXT
  5
44AD
  8
TEXT
 10
0.1039166666666699
 20
3.7500395978200411
 30
0.0
 40
0.0625
  1
NAME
  7
TXT
 72
     1
 11
0.2185000000000032
 21
3.7500395978200411
 31
0.0
  0
LINE
  5
44AE
  8
TITLE
 10
2.6810000000000009
 20
3.9389999999999992
 30
0.0
 11
2.6810000000000009
 21
3.7299999999999991
 31
0.0
  0
LINE
  5
44AF
  8
TITLE
 10
2.649999999999999
 20
3.9389999999999992
 30
0.0
 11
2.649999999999999
 21
3.7299999999999991
 31
0.0
  0
LINE
  5
44B0
  8
TITLE
 10
5.2999999999999998
 20
-0.0000000000000009
 30
0.0
 11
5.2999999999999972
 21
3.9699999999999971
 31
0.0
  0
LINE
  5
44B1
  8
TITLE
 10
5.269000000000001
 20
0.0309999999999997
 30
0.0
 11
5.269000000000001
 21
3.9389999999999978
 31
0.0
  0
LINE
  5
44B2
  8
TITLE
 10
3.0560000000000009
 20
3.9389999999999992
 30
0.0
 11
3.0560000000000009
 21
3.7299999999999991
 31
0.0
  0
LINE
  5
44B3
  8
TITLE
 10
5.269000000000001
 20
0.0309999999999997
 30
0.0
 11
0.0309999999999988
 21
0.0310000000000015
 31
0.0
  0
LINE
  5
44B4
  8
TITLE
 10
5.2999999999999998
 20
-0.0000000000000009
 30
0.0
 11
0.0
 21
0.0
 31
0.0
  0
TEXT
  5
44B5
  8
TEXT
 10
1.080563683857436
 20
3.7788027767274448
 30
0.0
 40
0.094
  1
RUBBER FOOT
 41
0.75
 72
     1
 11
1.4565636838574361
 21
3.7788027767274448
 31
0.0
  0
TEXT
  5
44B6
  8
TEXT
 10
3.9150827682169349
 20
3.7788027767274439
 30
0.0
 40
0.094
  1
F-8038
 41
0.75
 72
     1
 11
4.1089577682169347
 21
3.7788027767274439
 31
0.0
  0
LINE
  5
44B7
  8
DIM
 10
1.5831306036361781
 20
1.8249054628490069
 30
0.0
 11
1.5831306036361781
 21
2.511353490068398
 31
0.0
  0
LINE
  5
44B8
  8
DIM
 10
2.3331306036361781
 20
1.824905462849006
 30
0.0
 11
2.3331306036361781
 21
2.511353490068398
 31
0.0
  0
LINE
  5
44B9
  8
DIM
 10
1.673130603636177
 20
2.464853490068398
 30
0.0
 11
1.7334431036361779
 21
2.464853490068398
 31
0.0
  0
LINE
  5
44BA
  8
DIM
 10
2.2431306036361782
 20
2.464853490068398
 30
0.0
 11
2.182818103636178
 21
2.464853490068398
 31
0.0
  0
SOLID
  5
44BB
  8
DIM
 10
1.673130603636177
 20
2.4798534900683968
 30
0.0
 11
1.673130603636177
 21
2.4498534900683979
 31
0.0
 12
1.5831306036361781
 22
2.464853490068398
 32
0.0
 13
1.5831306036361781
 23
2.464853490068398
 33
0.0
  0
SOLID
  5
44BC
  8
DIM
 10
2.2431306036361782
 20
2.4798534900683968
 30
0.0
 11
2.2431306036361782
 21
2.449853490068397
 31
0.0
 12
2.3331306036361781
 22
2.464853490068398
 32
0.0
 13
2.3331306036361781
 23
2.464853490068398
 33
0.0
  0
TEXT
  5
44BD
  8
OBJECT
 10
1.7784431036361781
 20
2.433603490068398
 30
0.0
 40
0.0625
  1
0.750 DIA.
 41
0.75
  7
TXT
  0
TEXT
  5
44BE
  8
OBJECT
 10
3.8616788789294012
 20
1.1524681482280481
 30
0.0
 40
0.0625
  1
ADHESIVE SURFACE
 41
0.75
  7
TXT
  0
TEXT
  5
44BF
  8
OBJECT
 10
3.8616788789294012
 20
1.0483014815613809
 30
0.0
 40
0.0625
  1
W/ PAPER BACKING
 41
0.75
  7
TXT
  0
SOLID
  5
44C0
  8
DIM
 10
3.4085946227331299
 20
1.5771018463639781
 30
0.0
 11
3.3660449583918939
 21
1.6578144603995071
 31
0.0
 12
3.4324717048883699
 22
1.5952645815035971
 32
0.0
 13
3.4324717048883699
 23
1.5952645815035971
 33
0.0
  0
POLYLINE
  5
44C1
  8
DIM
 66
     1
 10
0.0
 20
0.0
 30
0.0
  0
VERTEX
  5
44D3
  8
DIM
 10
3.4205331638107501
 20
1.5861832139337879
 30
0.0
  0
VERTEX
  5
44D4
  8
DIM
 10
3.726678878929401
 20
1.1837181482280481
 30
0.0
  0
VERTEX
  5
44D5
  8
DIM
 10
3.8166788789294008
 20
1.1837181482280481
 30
0.0
  0
SEQEND
  5
44D6
  8
DIM
  0
LINE
  5
44C6
  8
DIM
 10
3.2410449583918921
 20
2.199905462849006
 30
0.0
 11
3.2410449583918921
 21
2.511353490068398
 31
0.0
  0
LINE
  5
44C7
  8
DIM
 10
3.3660449583918921
 20
2.199905462849006
 30
0.0
 11
3.3660449583918921
 21
2.511353490068398
 31
0.0
  0
LINE
  5
44C8
  8
DIM
 10
3.1510449583918918
 20
2.464853490068398
 30
0.0
 11
3.0610449583918919
 21
2.464853490068398
 31
0.0
  0
LINE
  5
44C9
  8
DIM
 10
3.456044958391892
 20
2.464853490068398
 30
0.0
 11
3.5460449583918918
 21
2.464853490068398
 31
0.0
  0
SOLID
  5
44CA
  8
DIM
 10
3.1510449583918918
 20
2.4798534900683968
 30
0.0
 11
3.1510449583918918
 21
2.449853490068397
 31
0.0
 12
3.2410449583918921
 22
2.464853490068398
 32
0.0
 13
3.2410449583918921
 23
2.464853490068398
 33
0.0
  0
SOLID
  5
44CB
  8
DIM
 10
3.456044958391892
 20
2.4798534900683968
 30
0.0
 11
3.456044958391892
 21
2.449853490068397
 31
0.0
 12
3.3660449583918921
 22
2.464853490068398
 32
0.0
 13
3.3660449583918921
 23
2.464853490068398
 33
0.0
  0
TEXT
  5
44CC
  8
OBJECT
 10
3.59104495839189
 20
2.433603490068398
 30
0.0
 40
0.0625
  1
0.125
 41
0.75
  7
TXT
  0
ENDSEC
  0
EOF
