  0
SECTION
  2
HEADER
  9
$ACADVER
  1
AC1009
  9
$INSBASE
 10
0.0
 20
0.0
 30
0.0
  9
$EXTMIN
 10
-0.0003661829982491
 20
-0.000175565025831
 30
-0.0015258207003583
  9
$EXTMAX
 10
5.3005371295154751
 20
3.9701004533393731
 30
0.0000000349246037
  9
$LIMMIN
 10
0.0
 20
0.0
  9
$LIMMAX
 10
12.0
 20
9.0
  9
$ORTHOMODE
 70
     1
  9
$REGENMODE
 70
     1
  9
$FILLMODE
 70
     1
  9
$QTEXTMODE
 70
     0
  9
$MIRRTEXT
 70
     0
  9
$DRAGMODE
 70
     2
  9
$LTSCALE
 40
0.188
  9
$OSMODE
 70
    37
  9
$ATTMODE
 70
     1
  9
$TEXTSIZE
 40
0.063
  9
$TRACEWID
 40
0.05
  9
$TEXTSTYLE
  7
STANDARD
  9
$CLAYER
  8
OBJECT
  9
$CELTYPE
  6
BYLAYER
  9
$CECOLOR
 62
   256
  9
$DIMSCALE
 40
0.5
  9
$DIMASZ
 40
0.18
  9
$DIMEXO
 40
0.0625
  9
$DIMDLI
 40
0.281
  9
$DIMRND
 40
0.0
  9
$DIMDLE
 40
0.0
  9
$DIMEXE
 40
0.093
  9
$DIMTP
 40
0.0
  9
$DIMTM
 40
0.0
  9
$DIMTXT
 40
0.125
  9
$DIMCEN
 40
0.09
  9
$DIMTSZ
 40
0.0
  9
$DIMTOL
 70
     0
  9
$DIMLIM
 70
     0
  9
$DIMTIH
 70
     1
  9
$DIMTOH
 70
     1
  9
$DIMSE1
 70
     0
  9
$DIMSE2
 70
     0
  9
$DIMTAD
 70
     0
  9
$DIMZIN
 70
     0
  9
$DIMBLK
  1

  9
$DIMASO
 70
     1
  9
$DIMSHO
 70
     1
  9
$DIMPOST
  1

  9
$DIMAPOST
  1

  9
$DIMALT
 70
     0
  9
$DIMALTD
 70
     2
  9
$DIMALTF
 40
25.399999999999999
  9
$DIMLFAC
 40
1.0
  9
$DIMTOFL
 70
     0
  9
$DIMTVP
 40
0.0
  9
$DIMTIX
 70
     1
  9
$DIMSOXD
 70
     0
  9
$DIMSAH
 70
     0
  9
$DIMBLK1
  1

  9
$DIMBLK2
  1

  9
$DIMSTYLE
  2
DIMIN
  9
$DIMCLRD
 70
     0
  9
$DIMCLRE
 70
     0
  9
$DIMCLRT
 70
     0
  9
$DIMTFAC
 40
1.0
  9
$DIMGAP
 40
0.09
  9
$LUNITS
 70
     2
  9
$LUPREC
 70
     4
  9
$SKETCHINC
 40
0.1
  9
$FILLETRAD
 40
0.0
  9
$AUNITS
 70
     0
  9
$AUPREC
 70
     0
  9
$MENU
  1
.
  9
$ELEVATION
 40
0.0
  9
$PELEVATION
 40
0.0
  9
$THICKNESS
 40
0.0
  9
$LIMCHECK
 70
     0
  9
$BLIPMODE
 70
     0
  9
$CHAMFERA
 40
0.5
  9
$CHAMFERB
 40
0.5
  9
$SKPOLY
 70
     0
  9
$TDCREATE
 40
2451570.5889834599
  9
$TDUPDATE
 40
2451802.5809602658
  9
$TDINDWG
 40
0.4898119329
  9
$TDUSRTIMER
 40
0.4898117477
  9
$USRTIMER
 70
     1
  9
$ANGBASE
 50
0.0
  9
$ANGDIR
 70
     0
  9
$PDMODE
 70
     0
  9
$PDSIZE
 40
0.0
  9
$PLINEWID
 40
0.0
  9
$COORDS
 70
     0
  9
$SPLFRAME
 70
     0
  9
$SPLINETYPE
 70
     6
  9
$SPLINESEGS
 70
     8
  9
$ATTDIA
 70
     0
  9
$ATTREQ
 70
     1
  9
$HANDLING
 70
  4097
  9
$HANDSEED
  5
4577
  9
$SURFTAB1
 70
     6
  9
$SURFTAB2
 70
     6
  9
$SURFTYPE
 70
     6
  9
$SURFU
 70
     6
  9
$SURFV
 70
     6
  9
$UCSNAME
  2

  9
$UCSORG
 10
0.0
 20
0.0
 30
0.0
  9
$UCSXDIR
 10
1.0
 20
0.0
 30
0.0
  9
$UCSYDIR
 10
0.0
 20
1.0
 30
0.0
  9
$PUCSNAME
  2

  9
$PUCSORG
 10
0.0
 20
0.0
 30
0.0
  9
$PUCSXDIR
 10
1.0
 20
0.0
 30
0.0
  9
$PUCSYDIR
 10
0.0
 20
1.0
 30
0.0
  9
$USERI1
 70
     0
  9
$USERI2
 70
     0
  9
$USERI3
 70
     0
  9
$USERI4
 70
     0
  9
$USERI5
 70
     0
  9
$USERR1
 40
0.0
  9
$USERR2
 40
0.0
  9
$USERR3
 40
0.0
  9
$USERR4
 40
0.0
  9
$USERR5
 40
0.0
  9
$WORLDVIEW
 70
     1
  9
$SHADEDGE
 70
     3
  9
$SHADEDIF
 70
    70
  9
$TILEMODE
 70
     1
  9
$MAXACTVP
 70
    64
  9
$PLIMCHECK
 70
     0
  9
$PEXTMIN
 10
1.0000000000000000E+020
 20
1.0000000000000000E+020
 30
1.0000000000000000E+020
  9
$PEXTMAX
 10
-1.0000000000000000E+020
 20
-1.0000000000000000E+020
 30
-1.0000000000000000E+020
  9
$PLIMMIN
 10
0.0
 20
0.0
  9
$PLIMMAX
 10
12.0
 20
9.0
  9
$UNITMODE
 70
     0
  9
$VISRETAIN
 70
     1
  9
$PLINEGEN
 70
     0
  9
$PSLTSCALE
 70
     1
  0
ENDSEC
  0
SECTION
  2
TABLES
  0
TABLE
  2
VPORT
 70
     2
  0
VPORT
  2
*ACTIVE
 70
     0
 10
0.0
 20
0.0
 11
1.0
 21
1.0
 12
2.6500854732586139
 22
1.984962444156771
 13
0.0
 23
0.0
 14
0.5
 24
0.5
 15
0.5
 25
0.5
 16
0.0
 26
0.0
 36
1.0
 17
0.0
 27
0.0
 37
0.0
 40
4.0149695570334796
 41
1.8139097744360899
 42
50.0
 43
0.0
 44
0.0
 50
0.0
 51
0.0
 71
     0
 72
   100
 73
     1
 74
     2
 75
     0
 76
     0
 77
     0
 78
     2
  0
ENDTAB
  0
TABLE
  2
LTYPE
 70
     6
  0
LTYPE
  2
CONTINUOUS
 70
     0
  3
Solid line
 72
    65
 73
     0
 40
0.0
  0
LTYPE
  2
HIDDEN
 70
     0
  3
_ _ _ _ _ _ _ _ _ _ _ _ _ _ _ _ _ _ _ _ _ _ _
 72
    65
 73
     2
 40
0.375
 49
0.25
 49
-0.125
  0
LTYPE
  2
PHANTOM
 70
     0
  3
_____ _ _ _____ _ _ _____ _ _ _____ _ _ ____
 72
    65
 73
     6
 40
2.5
 49
1.25
 49
-0.25
 49
0.25
 49
-0.25
 49
0.25
 49
-0.25
  0
LTYPE
  2
CENTER
 70
     0
  3
____ _ ____ _ ____ _ ____ _ ____ _ ____ _ ____
 72
    65
 73
     4
 40
2.0
 49
1.25
 49
-0.25
 49
0.25
 49
-0.25
  0
LTYPE
  2
HIDDEN2
 70
     0
  3
_ _ _ _ _ _ _ _ _ _ _ _ _ _ _ _ _ _ _ _ _ _ _ _
 72
    65
 73
     2
 40
0.1875
 49
0.125
 49
-0.0625
  0
LTYPE
  2
PHANTOM2
 70
     0
  3
___ _ _ ___ _ _ ___ _ _ ___ _ _ ___ _ _ ___ _ _
 72
    65
 73
     6
 40
1.25
 49
0.625
 49
-0.125
 49
0.125
 49
-0.125
 49
0.125
 49
-0.125
  0
ENDTAB
  0
TABLE
  2
LAYER
 70
     9
  0
LAYER
  2
0
 70
     0
 62
     7
  6
CONTINUOUS
  0
LAYER
  2
OBJECT
 70
     0
 62
     7
  6
CONTINUOUS
  0
LAYER
  2
DIM
 70
     0
 62
     7
  6
CONTINUOUS
  0
LAYER
  2
HIDDEN
 70
     0
 62
     7
  6
HIDDEN
  0
LAYER
  2
BEND
 70
     0
 62
     7
  6
PHANTOM
  0
LAYER
  2
TEXT
 70
     0
 62
     7
  6
CONTINUOUS
  0
LAYER
  2
TITLE
 70
     0
 62
     7
  6
CONTINUOUS
  0
LAYER
  2
CENTER
 70
     0
 62
     7
  6
CENTER
  0
LAYER
  2
DEFPOINTS
 70
     0
 62
     7
  6
CONTINUOUS
  0
ENDTAB
  0
TABLE
  2
STYLE
 70
     2
  0
STYLE
  2
STANDARD
 70
     0
 40
0.0
 41
0.75
 50
0.0
 71
     0
 42
0.063
  3
txt.shx
  4

  0
STYLE
  2
TXT
 70
     0
 40
0.0
 41
0.75
 50
0.0
 71
     0
 42
0.125
  3
TXT.shx
  4

  0
ENDTAB
  0
TABLE
  2
VIEW
 70
     0
  0
ENDTAB
  0
TABLE
  2
UCS
 70
     0
  0
ENDTAB
  0
TABLE
  2
APPID
 70
     3
  0
APPID
  2
ACAD
 70
     0
  0
APPID
  2
MCAD_NO_VIS
 70
     0
  0
APPID
  2
AD_SKETCHDIM
 70
     0
  0
ENDTAB
  0
TABLE
  2
DIMSTYLE
 70
     2
  0
DIMSTYLE
  2
DIMIN
 70
     0
  3

  4

  5

  6

  7

 40
0.5
 41
0.18
 42
0.0625
 43
0.281
 44
0.093
 45
0.0
 46
0.0
 47
0.0
 48
0.0
140
0.125
141
0.09
142
0.0
143
25.399999999999999
144
1.0
145
0.0
146
1.0
147
0.09
 71
     0
 72
     0
 73
     1
 74
     1
 75
     0
 76
     0
 77
     0
 78
     0
170
     0
171
     2
172
     0
173
     0
174
     1
175
     0
176
     0
177
     0
178
     0
  0
DIMSTYLE
  2
DIMOUT
 70
     0
  3

  4

  5

  6

  7

 40
0.5
 41
0.18
 42
0.0625
 43
0.281
 44
0.093
 45
0.0
 46
0.0
 47
0.0
 48
0.0
140
0.125
141
0.09
142
0.0
143
25.399999999999999
144
1.0
145
0.0
146
1.0
147
0.09
 71
     0
 72
     0
 73
     1
 74
     1
 75
     0
 76
     0
 77
     0
 78
     0
170
     0
171
     2
172
     0
173
     0
174
     0
175
     0
176
     0
177
     0
178
     0
  0
ENDTAB
  0
ENDSEC
  0
SECTION
  2
BLOCKS
  0
BLOCK
  8
0
  2
$MODEL_SPACE
 70
     0
 10
0.0
 20
0.0
 30
0.0
  3
$MODEL_SPACE
  1

  0
ENDBLK
  5
44A4
  8
0
  0
BLOCK
 67
     1
  8
0
  2
$PAPER_SPACE
 70
     0
 10
0.0
 20
0.0
 30
0.0
  3
$PAPER_SPACE
  1

  0
ENDBLK
  5
44A0
 67
     1
  8
0
  0
BLOCK
  8
0
  2
ACAD
 70
     0
 10
0.0
 20
0.0
 30
0.0
  3
ACAD
  1

  0
ENDBLK
  5
44C2
  8
0
  0
BLOCK
  8
0
  2
*D3
 70
     1
 10
0.0
 20
0.0
 30
0.0
  3
*D3
  1

  0
LINE
  5
44C5
  8
DIM
 62
     0
 10
2.6187496851727721
 20
1.0841411360356641
 30
0.0
 11
2.020999999999999
 21
1.0841411360356641
 31
0.0
  0
LINE
  5
44C6
  8
DIM
 62
     0
 10
2.4477499999999992
 20
1.521641191222538
 30
0.0
 11
2.020999999999999
 21
1.521641191222538
 31
0.0
  0
LINE
  5
44C7
  8
DIM
 62
     0
 10
2.067499999999999
 20
1.1741411360356651
 30
0.0
 11
2.067499999999999
 21
1.226641163629101
 31
0.0
  0
LINE
  5
44C8
  8
DIM
 62
     0
 10
2.067499999999999
 20
1.431641191222538
 30
0.0
 11
2.067499999999999
 21
1.3791411636291011
 31
0.0
  0
SOLID
  5
44C9
  8
DIM
 62
     0
 10
2.0525000000000002
 20
1.1741411360356651
 30
0.0
 11
2.0825
 21
1.1741411360356651
 31
0.0
 12
2.067499999999999
 22
1.0841411360356641
 32
0.0
 13
2.067499999999999
 23
1.0841411360356641
 33
0.0
  0
SOLID
  5
44CA
  8
DIM
 62
     0
 10
2.0525000000000002
 20
1.431641191222538
 30
0.0
 11
2.0825
 21
1.431641191222538
 31
0.0
 12
2.067499999999999
 22
1.521641191222538
 32
0.0
 13
2.067499999999999
 23
1.521641191222538
 33
0.0
  0
TEXT
  5
44CB
  8
OBJECT
 62
     0
 10
1.977656249999999
 20
1.2716411636291021
 30
0.0
 40
0.0625
  1
0.438
 41
0.75
  7
TXT
  0
POINT
  5
44CC
  8
DEFPOINTS
 62
     0
 10
2.6499996851727721
 20
1.0841411360356641
 30
0.0
  0
POINT
  5
44CD
  8
DEFPOINTS
 62
     0
 10
2.4789999999999992
 20
1.521641191222538
 30
0.0
  0
POINT
  5
44CE
  8
DEFPOINTS
 62
     0
 10
2.067499999999999
 20
1.521641191222538
 30
0.0
  0
ENDBLK
  5
44CF
  8
0
  0
BLOCK
  8
0
  2
*D4
 70
     1
 10
0.0
 20
0.0
 30
0.0
  3
*D4
  1

  0
LINE
  5
44D2
  8
DIM
 62
     0
 10
2.993749999999995
 20
1.302891191222538
 30
0.0
 11
3.278999999999995
 21
1.302891191222538
 31
0.0
  0
LINE
  5
44D3
  8
DIM
 62
     0
 10
2.9624999999999981
 20
1.365391191222538
 30
0.0
 11
3.278999999999995
 21
1.365391191222538
 31
0.0
  0
LINE
  5
44D4
  8
DIM
 62
     0
 10
3.232499999999995
 20
1.2128911912225371
 30
0.0
 11
3.232499999999995
 21
1.1228911912225381
 31
0.0
  0
LINE
  5
44D5
  8
DIM
 62
     0
 10
3.232499999999995
 20
1.455391191222537
 30
0.0
 11
3.232499999999995
 21
1.5453911912225371
 31
0.0
  0
LINE
  5
44D6
  8
DIM
 62
     0
 10
3.232499999999995
 20
1.5453911912225371
 30
0.0
 11
3.3224999999999949
 21
1.5453911912225371
 31
0.0
  0
SOLID
  5
44D7
  8
DIM
 62
     0
 10
3.2174999999999949
 20
1.2128911912225371
 30
0.0
 11
3.2474999999999961
 21
1.2128911912225371
 31
0.0
 12
3.232499999999995
 22
1.302891191222538
 32
0.0
 13
3.232499999999995
 23
1.302891191222538
 33
0.0
  0
SOLID
  5
44D8
  8
DIM
 62
     0
 10
3.2174999999999949
 20
1.455391191222537
 30
0.0
 11
3.2474999999999961
 21
1.455391191222537
 31
0.0
 12
3.232499999999995
 22
1.365391191222538
 32
0.0
 13
3.232499999999995
 23
1.365391191222538
 33
0.0
  0
TEXT
  5
44D9
  8
OBJECT
 62
     0
 10
3.3674999999999939
 20
1.5141411912225391
 30
0.0
 40
0.0625
  1
0.063
 41
0.75
  7
TXT
  0
POINT
  5
44DA
  8
DEFPOINTS
 62
     0
 10
2.962499999999995
 20
1.302891191222538
 30
0.0
  0
POINT
  5
44DB
  8
DEFPOINTS
 62
     0
 10
2.9312499999999981
 20
1.365391191222538
 30
0.0
  0
POINT
  5
44DC
  8
DEFPOINTS
 62
     0
 10
3.232499999999995
 20
1.365391191222538
 30
0.0
  0
ENDBLK
  5
44DD
  8
0
  0
BLOCK
  8
0
  2
*D5
 70
     1
 10
0.0
 20
0.0
 30
0.0
  3
*D5
  1

  0
LINE
  5
44E0
  8
DIM
 62
     0
 10
2.6812499999999981
 20
1.0841411912225369
 30
0.0
 11
3.6897247795690191
 21
1.0841411912225369
 31
0.0
  0
LINE
  5
44E1
  8
DIM
 62
     0
 10
2.993749999999995
 20
1.302891191222538
 30
0.0
 11
3.6897247795690191
 21
1.302891191222538
 31
0.0
  0
LINE
  5
44E2
  8
DIM
 62
     0
 10
3.6432247795690169
 20
0.9941411912225387
 30
0.0
 11
3.6432247795690169
 21
0.9041411912225388
 31
0.0
  0
LINE
  5
44E3
  8
DIM
 62
     0
 10
3.6432247795690191
 20
1.392891191222537
 30
0.0
 11
3.6432247795690191
 21
1.4828911912225371
 31
0.0
  0
SOLID
  5
44E4
  8
DIM
 62
     0
 10
3.6282247795690168
 20
0.9941411912225387
 30
0.0
 11
3.658224779569017
 21
0.9941411912225387
 31
0.0
 12
3.6432247795690191
 22
1.0841411912225369
 32
0.0
 13
3.6432247795690191
 23
1.0841411912225369
 33
0.0
  0
SOLID
  5
44E5
  8
DIM
 62
     0
 10
3.6282247795690181
 20
1.392891191222537
 30
0.0
 11
3.6582247795690179
 21
1.392891191222537
 31
0.0
 12
3.6432247795690191
 22
1.302891191222538
 32
0.0
 13
3.6432247795690191
 23
1.302891191222538
 33
0.0
  0
TEXT
  5
44E6
  8
OBJECT
 62
     0
 10
3.5611935295690169
 20
1.162266191222538
 30
0.0
 40
0.0625
  1
0.219
 41
0.75
  7
TXT
  0
POINT
  5
44E7
  8
DEFPOINTS
 62
     0
 10
2.6499999999999981
 20
1.0841411912225369
 30
0.0
  0
POINT
  5
44E8
  8
DEFPOINTS
 62
     0
 10
2.962499999999995
 20
1.302891191222538
 30
0.0
  0
POINT
  5
44E9
  8
DEFPOINTS
 62
     0
 10
3.6432247795690191
 20
1.302891191222538
 30
0.0
  0
ENDBLK
  5
44EA
  8
0
  0
BLOCK
  8
0
  2
*D6
 70
     1
 10
0.0
 20
0.0
 30
0.0
  3
*D6
  1

  0
LINE
  5
44ED
  8
DIM
 62
     0
 10
2.337499999999999
 20
1.271641191222538
 30
0.0
 11
2.337499999999999
 21
0.8282095999961872
 31
0.0
  0
LINE
  5
44EE
  8
DIM
 62
     0
 10
2.962499999999995
 20
1.271641191222538
 30
0.0
 11
2.962499999999995
 21
0.8282095999961872
 31
0.0
  0
LINE
  5
44EF
  8
DIM
 62
     0
 10
2.4275000000000002
 20
0.8747095999961871
 30
0.0
 11
2.5151562499999982
 21
0.8747095999961871
 31
0.0
  0
LINE
  5
44F0
  8
DIM
 62
     0
 10
2.8724999999999961
 20
0.8747095999961871
 30
0.0
 11
2.7848437499999981
 21
0.8747095999961871
 31
0.0
  0
SOLID
  5
44F1
  8
DIM
 62
     0
 10
2.4275000000000002
 20
0.8897095999961872
 30
0.0
 11
2.4275000000000002
 21
0.8597095999961871
 31
0.0
 12
2.337499999999999
 22
0.8747095999961871
 32
0.0
 13
2.337499999999999
 23
0.8747095999961871
 33
0.0
  0
SOLID
  5
44F2
  8
DIM
 62
     0
 10
2.8724999999999961
 20
0.8897095999961872
 30
0.0
 11
2.8724999999999961
 21
0.8597095999961871
 31
0.0
 12
2.962499999999995
 22
0.8747095999961871
 32
0.0
 13
2.962499999999995
 23
0.8747095999961871
 33
0.0
  0
TEXT
  5
44F3
  8
OBJECT
 62
     0
 10
2.5601562499999981
 20
0.8434595999961871
 30
0.0
 40
0.0625
  1
0.625
 41
0.75
  7
TXT
  0
POINT
  5
44F4
  8
DEFPOINTS
 62
     0
 10
2.337499999999999
 20
1.302891191222538
 30
0.0
  0
POINT
  5
44F5
  8
DEFPOINTS
 62
     0
 10
2.962499999999995
 20
1.302891191222538
 30
0.0
  0
POINT
  5
44F6
  8
DEFPOINTS
 62
     0
 10
2.962499999999995
 20
0.8747095999961871
 30
0.0
  0
ENDBLK
  5
44F7
  8
0
  0
BLOCK
  8
0
  2
*D7
 70
     1
 10
0.0
 20
0.0
 30
0.0
  3
*D7
  1

  0
LINE
  5
44FA
  8
DIM
 62
     0
 10
2.8687499999999981
 20
1.396641191222538
 30
0.0
 11
2.8687499999999981
 21
1.8381411912225381
 31
0.0
  0
LINE
  5
44FB
  8
DIM
 62
     0
 10
2.4312499999999981
 20
1.396641191222538
 30
0.0
 11
2.4312499999999981
 21
1.8381411912225381
 31
0.0
  0
LINE
  5
44FC
  8
DIM
 62
     0
 10
2.958749999999998
 20
1.7916411912225381
 30
0.0
 11
3.048749999999997
 21
1.7916411912225381
 31
0.0
  0
LINE
  5
44FD
  8
DIM
 62
     0
 10
2.3412499999999969
 20
1.7916411912225381
 30
0.0
 11
2.2512499999999971
 21
1.7916411912225381
 31
0.0
  0
SOLID
  5
44FE
  8
DIM
 62
     0
 10
2.958749999999998
 20
1.806641191222538
 30
0.0
 11
2.958749999999998
 21
1.7766411912225371
 31
0.0
 12
2.8687499999999981
 22
1.7916411912225381
 32
0.0
 13
2.8687499999999981
 23
1.7916411912225381
 33
0.0
  0
SOLID
  5
44FF
  8
DIM
 62
     0
 10
2.3412499999999969
 20
1.806641191222538
 30
0.0
 11
2.3412499999999969
 21
1.7766411912225371
 31
0.0
 12
2.4312499999999981
 22
1.7916411912225381
 32
0.0
 13
2.4312499999999981
 23
1.7916411912225381
 33
0.0
  0
TEXT
  5
4500
  8
OBJECT
 62
     0
 10
2.5601562499999981
 20
1.7603911912225381
 30
0.0
 40
0.0625
  1
0.438
 41
0.75
  7
TXT
  0
POINT
  5
4501
  8
DEFPOINTS
 62
     0
 10
2.8687499999999981
 20
1.365391191222538
 30
0.0
  0
POINT
  5
4502
  8
DEFPOINTS
 62
     0
 10
2.4312499999999981
 20
1.365391191222538
 30
0.0
  0
POINT
  5
4503
  8
DEFPOINTS
 62
     0
 10
2.4312499999999981
 20
1.7916411912225381
 30
0.0
  0
ENDBLK
  5
4504
  8
0
  0
BLOCK
  8
0
  2
*D8
 70
     1
 10
0.0
 20
0.0
 30
0.0
  3
*D8
  1

  0
LINE
  5
4507
  8
DIM
 62
     0
 10
2.3687499999999981
 20
1.396641191222538
 30
0.0
 11
2.3687499999999981
 21
2.048891191222538
 31
0.0
  0
LINE
  5
4508
  8
DIM
 62
     0
 10
2.9312499999999981
 20
1.396641191222538
 30
0.0
 11
2.9312499999999981
 21
2.048891191222538
 31
0.0
  0
LINE
  5
4509
  8
DIM
 62
     0
 10
2.4587499999999971
 20
2.0023911912225381
 30
0.0
 11
2.5151562499999982
 21
2.0023911912225381
 31
0.0
  0
LINE
  5
450A
  8
DIM
 62
     0
 10
2.8412499999999969
 20
2.0023911912225381
 30
0.0
 11
2.7848437499999981
 21
2.0023911912225381
 31
0.0
  0
SOLID
  5
450B
  8
DIM
 62
     0
 10
2.4587499999999971
 20
2.0173911912225391
 30
0.0
 11
2.4587499999999971
 21
1.9873911912225379
 31
0.0
 12
2.3687499999999981
 22
2.0023911912225381
 32
0.0
 13
2.3687499999999981
 23
2.0023911912225381
 33
0.0
  0
SOLID
  5
450C
  8
DIM
 62
     0
 10
2.8412499999999969
 20
2.0173911912225391
 30
0.0
 11
2.8412499999999969
 21
1.9873911912225379
 31
0.0
 12
2.9312499999999981
 22
2.0023911912225381
 32
0.0
 13
2.9312499999999981
 23
2.0023911912225381
 33
0.0
  0
TEXT
  5
450D
  8
OBJECT
 62
     0
 10
2.5601562499999981
 20
1.9711411912225381
 30
0.0
 40
0.0625
  1
0.563
 41
0.75
  7
TXT
  0
POINT
  5
450E
  8
DEFPOINTS
 62
     0
 10
2.3687499999999981
 20
1.365391191222538
 30
0.0
  0
POINT
  5
450F
  8
DEFPOINTS
 62
     0
 10
2.9312499999999981
 20
1.365391191222538
 30
0.0
  0
POINT
  5
4510
  8
DEFPOINTS
 62
     0
 10
2.9312499999999981
 20
2.0023911912225381
 30
0.0
  0
ENDBLK
  5
4511
  8
0
  0
ENDSEC
  0
SECTION
  2
ENTITIES
  0
INSERT
  5
4512
  8
0
  2
ACAD
 10
39.89861532931161
 20
57.325044109629928
 30
0.0
  0
INSERT
  5
4513
  8
0
  2
ACAD
 10
62.407796216388171
 20
107.6704480526458
 30
0.0
  0
LINE
  5
4514
  8
OBJECT
 10
2.4312499999999968
 20
1.4751411912225381
 30
0.0
 11
2.3687499999999968
 21
1.365391191222538
 31
0.0
  0
LINE
  5
4515
  8
OBJECT
 10
2.9312499999999981
 20
1.365391191222538
 30
0.0
 11
2.8687499999999981
 21
1.4751411912225381
 31
0.0
  0
LINE
  5
4516
  8
OBJECT
 10
2.4790000000000001
 20
1.521641191222538
 30
0.0
 11
2.4312499999999968
 21
1.4751411912225381
 31
0.0
  0
CIRCLE
  5
4517
  8
OBJECT
 10
2.649999999999999
 20
2.7507629575093642
 30
0.0
 40
0.28125
  0
CIRCLE
  5
4518
  8
OBJECT
 10
2.649999999999999
 20
2.7507629575093642
 30
0.0
 40
0.171875
  0
CIRCLE
  5
4519
  8
OBJECT
 10
2.649999999999999
 20
2.7507629575093642
 30
0.0
 40
0.3125
  0
TEXT
  5
451A
  8
TEXT
 10
0.2709161093483772
 20
2.8947170311874011
 30
0.0
 40
0.063
  1
%%UMATERIAL%%U: TOP GRADE RUBBER
 41
0.75
  0
TEXT
  5
451B
  8
TEXT
 10
0.2709161093483772
 20
2.7213777143295901
 30
0.0
 40
0.063
  1
%%UFINISH%%U: NATURAL BLACK
 41
0.75
  0
LINE
  5
451C
  8
OBJECT
 10
2.8687499999999981
 20
1.4751411912225381
 30
0.0
 11
2.4312499999999968
 21
1.4751411912225381
 31
0.0
  0
ARC
  5
451D
  8
OBJECT
 10
2.6499999999999968
 20
1.41666297529328
 30
0.0
 40
0.3325661871727785
 50
200.0050326100498
 51
339.99496738995032
  0
LINE
  5
451E
  8
OBJECT
 10
2.962499999999995
 20
1.302891191222538
 30
0.0
 11
2.3374999999999999
 21
1.302891191222538
 31
0.0
  0
LINE
  5
451F
  8
OBJECT
 10
2.9312499999999981
 20
1.365391191222538
 30
0.0
 11
2.3687499999999968
 21
1.365391191222538
 31
0.0
  0
LINE
  5
4520
  8
OBJECT
 10
2.8209999999999988
 20
1.521641191222538
 30
0.0
 11
2.4790000000000001
 21
1.521641191222538
 31
0.0
  0
LINE
  5
4521
  8
OBJECT
 10
2.4312499999999968
 20
1.365391191222538
 30
0.0
 11
2.4312499999999968
 21
1.302891191222538
 31
0.0
  0
LINE
  5
4522
  8
OBJECT
 10
2.8687499999999981
 20
1.365391191222538
 30
0.0
 11
2.8687499999999981
 21
1.302891191222538
 31
0.0
  0
LINE
  5
4523
  8
OBJECT
 10
2.8209999999999988
 20
1.521641191222538
 30
0.0
 11
2.8687499999999981
 21
1.4751411912225381
 31
0.0
  0
CIRCLE
  5
4524
  8
OBJECT
 10
2.649999999999999
 20
2.7507629575093642
 30
0.0
 40
0.21875
  0
INSERT
  5
4525
  8
0
  2
ACAD
 10
24.994417159196839
 20
4.509071918688603
 30
0.0
  0
LINE
  5
4526
  8
TITLE
 10
0.0
 20
0.0
 30
0.0
 11
-0.0000000000000009
 21
3.9699999999999989
 31
0.0
  0
LINE
  5
4527
  8
TITLE
 10
0.0309999999999988
 20
0.0309999999999997
 30
0.0
 11
0.0309999999999997
 21
3.9389999999999992
 31
0.0
  0
LINE
  5
4528
  8
TITLE
 10
5.2999999999999989
 20
-0.0000000000000018
 30
0.0
 11
0.0
 21
0.0
 31
0.0
  0
LINE
  5
4529
  8
TITLE
 10
5.269000000000001
 20
0.0309999999999988
 30
0.0
 11
0.0309999999999988
 21
0.0309999999999997
 31
0.0
  0
LINE
  5
452A
  8
TITLE
 10
0.0000000000000009
 20
3.9699999999999989
 30
0.0
 11
5.3000000000000007
 21
3.9699999999999962
 31
0.0
  0
LINE
  5
452B
  8
TITLE
 10
0.0309999999999997
 20
3.9389999999999992
 30
0.0
 11
5.2690000000000019
 21
3.9389999999999969
 31
0.0
  0
LINE
  5
452C
  8
TITLE
 10
0.0309999999999997
 20
3.7299999999999991
 30
0.0
 11
5.2690000000000019
 21
3.7299999999999982
 31
0.0
  0
TEXT
  5
452D
  8
TEXT
 10
0.1039166666666708
 20
3.8542062644867059
 30
0.0
 40
0.0625
  1
PART
  7
TXT
 72
     1
 11
0.2185000000000041
 21
3.8542062644867059
 31
0.0
  0
TEXT
  5
452E
  8
TEXT
 10
0.1039166666666708
 20
3.7500395978200398
 30
0.0
 40
0.0625
  1
NAME
  7
TXT
 72
     1
 11
0.2185000000000041
 21
3.7500395978200398
 31
0.0
  0
LINE
  5
452F
  8
TITLE
 10
0.4060000000000033
 20
3.7299999999999991
 30
0.0
 11
0.4059999999999997
 21
3.9389999999999992
 31
0.0
  0
LINE
  5
4530
  8
TITLE
 10
2.649999999999999
 20
3.9389999999999978
 30
0.0
 11
2.649999999999999
 21
3.7299999999999991
 31
0.0
  0
LINE
  5
4531
  8
TITLE
 10
2.6810000000000009
 20
3.9389999999999978
 30
0.0
 11
2.6810000000000009
 21
3.7299999999999991
 31
0.0
  0
LINE
  5
4532
  8
TITLE
 10
3.0560000000000009
 20
3.9389999999999978
 30
0.0
 11
3.0560000000000009
 21
3.7299999999999991
 31
0.0
  0
TEXT
  5
4533
  8
TEXT
 10
2.7539166666666639
 20
3.8542062644867059
 30
0.0
 40
0.0625
  1
PART
  7
TXT
 72
     1
 11
2.8684999999999978
 21
3.8542062644867059
 31
0.0
  0
TEXT
  5
4534
  8
TEXT
 10
2.8059999999999978
 20
3.7500395978200398
 30
0.0
 40
0.0625
  1
No.
  7
TXT
 72
     1
 11
2.8684999999999978
 21
3.7500395978200398
 31
0.0
  0
LINE
  5
4535
  8
TITLE
 10
5.2999999999999989
 20
-0.0000000000000018
 30
0.0
 11
5.299999999999998
 21
3.9699999999999962
 31
0.0
  0
LINE
  5
4536
  8
TITLE
 10
5.269000000000001
 20
0.0309999999999988
 30
0.0
 11
5.2690000000000019
 21
3.9389999999999969
 31
0.0
  0
LINE
  5
4537
  8
CENTER
 10
2.6499999999999999
 20
2.207198843345799
 30
0.0
 11
2.6499999999999999
 21
3.2943270716729298
 31
0.0
  0
LINE
  5
4538
  8
CENTER
 10
2.1064358858364338
 20
2.7507629575093651
 30
0.0
 11
3.1935641141635651
 21
2.7507629575093651
 31
0.0
  0
TEXT
  5
4539
  8
TEXT
 10
1.0805636838574391
 20
3.7788027767274439
 30
0.0
 40
0.094
  1
RUBBER FOOT
 41
0.75
 72
     1
 11
1.4565636838574401
 21
3.7788027767274439
 31
0.0
  0
TEXT
  5
453A
  8
TEXT
 10
3.9092077682169379
 20
3.778802776727443
 30
0.0
 40
0.094
  1
F-9653
 41
0.75
 72
     1
 11
4.1089577682169383
 21
3.778802776727443
 31
0.0
  0
LINE
  5
453B
  8
DIM
 10
2.6187496851727721
 20
1.0841411360356641
 30
0.0
 11
2.020999999999999
 21
1.0841411360356641
 31
0.0
  0
LINE
  5
453C
  8
DIM
 10
2.4477500000000001
 20
1.521641191222538
 30
0.0
 11
2.020999999999999
 21
1.521641191222538
 31
0.0
  0
LINE
  5
453D
  8
DIM
 10
2.067499999999999
 20
1.1741411360356639
 30
0.0
 11
2.067499999999999
 21
1.226641163629101
 31
0.0
  0
LINE
  5
453E
  8
DIM
 10
2.067499999999999
 20
1.4316411912225371
 30
0.0
 11
2.067499999999999
 21
1.3791411636291011
 31
0.0
  0
SOLID
  5
453F
  8
DIM
 10
2.0525000000000002
 20
1.1741411360356639
 30
0.0
 11
2.0825
 21
1.1741411360356639
 31
0.0
 12
2.067499999999999
 22
1.0841411360356641
 32
0.0
 13
2.067499999999999
 23
1.0841411360356641
 33
0.0
  0
SOLID
  5
4540
  8
DIM
 10
2.0525000000000002
 20
1.431641191222538
 30
0.0
 11
2.0825
 21
1.431641191222538
 31
0.0
 12
2.067499999999999
 22
1.521641191222538
 32
0.0
 13
2.067499999999999
 23
1.521641191222538
 33
0.0
  0
TEXT
  5
4541
  8
OBJECT
 10
1.977656249999999
 20
1.271641163629101
 30
0.0
 40
0.0625
  1
0.438
 41
0.75
  7
TXT
  0
LINE
  5
4542
  8
DIM
 10
2.3687499999999968
 20
1.396641191222538
 30
0.0
 11
2.3687499999999981
 21
2.048891191222538
 31
0.0
  0
LINE
  5
4543
  8
DIM
 10
2.9312499999999981
 20
1.396641191222538
 30
0.0
 11
2.9312499999999981
 21
2.048891191222538
 31
0.0
  0
LINE
  5
4544
  8
DIM
 10
2.458749999999998
 20
2.0023911912225381
 30
0.0
 11
2.5151562499999982
 21
2.0023911912225381
 31
0.0
  0
LINE
  5
4545
  8
DIM
 10
2.8412499999999978
 20
2.0023911912225381
 30
0.0
 11
2.7848437499999981
 21
2.0023911912225381
 31
0.0
  0
SOLID
  5
4546
  8
DIM
 10
2.458749999999998
 20
2.0173911912225382
 30
0.0
 11
2.458749999999998
 21
1.9873911912225379
 31
0.0
 12
2.3687499999999968
 22
2.0023911912225381
 32
0.0
 13
2.3687499999999968
 23
2.0023911912225381
 33
0.0
  0
SOLID
  5
4547
  8
DIM
 10
2.8412499999999969
 20
2.0173911912225382
 30
0.0
 11
2.8412499999999969
 21
1.9873911912225379
 31
0.0
 12
2.9312499999999968
 22
2.0023911912225381
 32
0.0
 13
2.9312499999999968
 23
2.0023911912225381
 33
0.0
  0
TEXT
  5
4548
  8
OBJECT
 10
2.5601562499999968
 20
1.9711411912225381
 30
0.0
 40
0.0625
  1
0.563
 41
0.75
  7
TXT
  0
LINE
  5
4549
  8
DIM
 10
2.8687499999999981
 20
1.396641191222538
 30
0.0
 11
2.8687499999999981
 21
1.8381411912225381
 31
0.0
  0
LINE
  5
454A
  8
DIM
 10
2.4312499999999968
 20
1.396641191222538
 30
0.0
 11
2.4312499999999981
 21
1.8381411912225381
 31
0.0
  0
LINE
  5
454B
  8
DIM
 10
2.958749999999998
 20
1.791641191222537
 30
0.0
 11
3.0487499999999992
 21
1.791641191222537
 31
0.0
  0
LINE
  5
454C
  8
DIM
 10
2.3412499999999978
 20
1.791641191222537
 30
0.0
 11
2.251249999999998
 21
1.791641191222537
 31
0.0
  0
SOLID
  5
454D
  8
DIM
 10
2.9587499999999971
 20
1.8066411912225371
 30
0.0
 11
2.9587499999999971
 21
1.7766411912225371
 31
0.0
 12
2.8687499999999968
 22
1.791641191222537
 32
0.0
 13
2.8687499999999968
 23
1.791641191222537
 33
0.0
  0
SOLID
  5
454E
  8
DIM
 10
2.3412499999999978
 20
1.8066411912225371
 30
0.0
 11
2.3412499999999978
 21
1.7766411912225371
 31
0.0
 12
2.4312499999999968
 22
1.791641191222537
 32
0.0
 13
2.4312499999999968
 23
1.791641191222537
 33
0.0
  0
TEXT
  5
454F
  8
OBJECT
 10
2.5601562499999968
 20
1.760391191222537
 30
0.0
 40
0.0625
  1
0.438
 41
0.75
  7
TXT
  0
SOLID
  5
4550
  8
DIM
 10
2.8541908947305701
 20
1.0462750638491449
 30
0.0
 11
2.8149605116590442
 21
1.1286521058211729
 31
0.0
 12
2.8787872119608751
 22
1.0634512444113711
 32
0.0
 13
2.8787872119608751
 23
1.0634512444113711
 33
0.0
  0
POLYLINE
  5
4551
  8
DIM
 66
     1
 10
0.0
 20
0.0
 30
0.0
  0
VERTEX
  5
4573
  8
DIM
 10
2.866489053345723
 20
1.0548631541302571
 30
0.0
  0
VERTEX
  5
4574
  8
DIM
 10
3.1594936341164321
 20
0.6352801395910311
 30
0.0
  0
VERTEX
  5
4575
  8
DIM
 10
3.2494936341164329
 20
0.6352801395910311
 30
0.0
  0
SEQEND
  5
4576
  8
DIM
  0
LINE
  5
4556
  8
DIM
 10
2.6812499999999981
 20
1.084141191222538
 30
0.0
 11
3.6897247795690178
 21
1.084141191222538
 31
0.0
  0
LINE
  5
4557
  8
DIM
 10
2.993749999999995
 20
1.302891191222538
 30
0.0
 11
3.6897247795690178
 21
1.302891191222538
 31
0.0
  0
LINE
  5
4558
  8
DIM
 10
3.6432247795690178
 20
0.9941411912225373
 30
0.0
 11
3.6432247795690178
 21
0.9041411912225374
 31
0.0
  0
LINE
  5
4559
  8
DIM
 10
3.6432247795690178
 20
1.392891191222537
 30
0.0
 11
3.6432247795690178
 21
1.4828911912225371
 31
0.0
  0
SOLID
  5
455A
  8
DIM
 10
3.6282247795690168
 20
0.9941411912225383
 30
0.0
 11
3.6582247795690179
 21
0.9941411912225383
 31
0.0
 12
3.6432247795690178
 22
1.0841411912225369
 32
0.0
 13
3.6432247795690178
 23
1.0841411912225369
 33
0.0
  0
SOLID
  5
455B
  8
DIM
 10
3.628224779569019
 20
1.392891191222537
 30
0.0
 11
3.6582247795690179
 21
1.392891191222537
 31
0.0
 12
3.6432247795690178
 22
1.3028911912225369
 32
0.0
 13
3.6432247795690178
 23
1.3028911912225369
 33
0.0
  0
TEXT
  5
455C
  8
OBJECT
 10
3.5611935295690178
 20
1.1622661912225369
 30
0.0
 40
0.0625
  1
0.219
 41
0.75
  7
TXT
  0
LINE
  5
455D
  8
DIM
 10
2.993749999999995
 20
1.302891191222538
 30
0.0
 11
3.2789999999999959
 21
1.302891191222538
 31
0.0
  0
LINE
  5
455E
  8
DIM
 10
2.9624999999999981
 20
1.365391191222538
 30
0.0
 11
3.2789999999999959
 21
1.365391191222538
 31
0.0
  0
LINE
  5
455F
  8
DIM
 10
3.2324999999999959
 20
1.2128911912225371
 30
0.0
 11
3.2324999999999959
 21
1.122891191222537
 31
0.0
  0
LINE
  5
4560
  8
DIM
 10
3.2324999999999959
 20
1.455391191222537
 30
0.0
 11
3.2324999999999959
 21
1.5453911912225371
 31
0.0
  0
LINE
  5
4561
  8
DIM
 10
3.2324999999999959
 20
1.5453911912225371
 30
0.0
 11
3.3224999999999971
 21
1.5453911912225371
 31
0.0
  0
SOLID
  5
4562
  8
DIM
 10
3.2174999999999949
 20
1.212891191222538
 30
0.0
 11
3.2474999999999961
 21
1.212891191222538
 31
0.0
 12
3.232499999999995
 22
1.302891191222538
 32
0.0
 13
3.232499999999995
 23
1.302891191222538
 33
0.0
  0
SOLID
  5
4563
  8
DIM
 10
3.2174999999999949
 20
1.455391191222537
 30
0.0
 11
3.2474999999999961
 21
1.455391191222537
 31
0.0
 12
3.232499999999995
 22
1.365391191222538
 32
0.0
 13
3.232499999999995
 23
1.365391191222538
 33
0.0
  0
TEXT
  5
4564
  8
OBJECT
 10
3.3674999999999948
 20
1.514141191222538
 30
0.0
 40
0.0625
  1
0.063
 41
0.75
  7
TXT
  0
LINE
  5
4565
  8
DIM
 10
2.3374999999999999
 20
1.271641191222538
 30
0.0
 11
2.3374999999999999
 21
0.8282095999961872
 31
0.0
  0
LINE
  5
4566
  8
DIM
 10
2.962499999999995
 20
1.271641191222538
 30
0.0
 11
2.962499999999995
 21
0.8282095999961872
 31
0.0
  0
LINE
  5
4567
  8
DIM
 10
2.4275000000000002
 20
0.8747095999961871
 30
0.0
 11
2.5151562499999982
 21
0.8747095999961871
 31
0.0
  0
LINE
  5
4568
  8
DIM
 10
2.8724999999999961
 20
0.8747095999961871
 30
0.0
 11
2.7848437499999972
 21
0.8747095999961871
 31
0.0
  0
SOLID
  5
4569
  8
DIM
 10
2.4275000000000002
 20
0.8897095999961868
 30
0.0
 11
2.4275000000000002
 21
0.8597095999961862
 31
0.0
 12
2.337499999999999
 22
0.8747095999961871
 32
0.0
 13
2.337499999999999
 23
0.8747095999961871
 33
0.0
  0
SOLID
  5
456A
  8
DIM
 10
2.8724999999999961
 20
0.8897095999961868
 30
0.0
 11
2.8724999999999961
 21
0.8597095999961862
 31
0.0
 12
2.962499999999995
 22
0.8747095999961871
 32
0.0
 13
2.962499999999995
 23
0.8747095999961871
 33
0.0
  0
TEXT
  5
456B
  8
OBJECT
 10
2.5601562499999968
 20
0.8434595999961871
 30
0.0
 40
0.0625
  1
0.625
 41
0.75
  7
TXT
  0
TEXT
  5
456C
  8
OBJECT
 10
3.2944936341164328
 20
0.6040301395910314
 30
0.0
 40
0.0625
  1
SPHERICAL R0.344
 41
0.75
  7
TXT
  0
ENDSEC
  0
EOF
