  0
SECTION
  2
HEADER
  9
$ACADVER
  1
AC1015
  9
$ACADMAINTVER
 70
     6
  9
$DWGCODEPAGE
  3
ANSI_1252
  9
$INSBASE
 10
0.0
 20
0.0
 30
0.0
  9
$EXTMIN
 10
-0.002470514628186
 20
-0.0037838909819072
 30
-0.0015258207003583
  9
$EXTMAX
 10
80.96247089162753
 20
124.0037844684018
 30
0.0000000349246037
  9
$LIMMIN
 10
0.0
 20
0.0
  9
$LIMMAX
 10
11.0
 20
8.5
  9
$ORTHOMODE
 70
     1
  9
$REGENMODE
 70
     1
  9
$FILLMODE
 70
     1
  9
$QTEXTMODE
 70
     0
  9
$MIRRTEXT
 70
     0
  9
$LTSCALE
 40
1.0
  9
$ATTMODE
 70
     1
  9
$TEXTSIZE
 40
0.125
  9
$TRACEWID
 40
0.05
  9
$TEXTSTYLE
  7
TXT
  9
$CLAYER
  8
OBJECT
  9
$CELTYPE
  6
ByLayer
  9
$CECOLOR
 62
   256
  9
$CELTSCALE
 40
1.0
  9
$DISPSILH
 70
     0
  9
$DIMSCALE
 40
8.0
  9
$DIMASZ
 40
0.18
  9
$DIMEXO
 40
0.063
  9
$DIMDLI
 40
0.281
  9
$DIMRND
 40
0.0
  9
$DIMDLE
 40
0.0
  9
$DIMEXE
 40
0.093
  9
$DIMTP
 40
0.0
  9
$DIMTM
 40
0.0
  9
$DIMTXT
 40
0.125
  9
$DIMCEN
 40
0.09
  9
$DIMTSZ
 40
0.0
  9
$DIMTOL
 70
     0
  9
$DIMLIM
 70
     0
  9
$DIMTIH
 70
     1
  9
$DIMTOH
 70
     1
  9
$DIMSE1
 70
     0
  9
$DIMSE2
 70
     0
  9
$DIMTAD
 70
     0
  9
$DIMZIN
 70
     0
  9
$DIMBLK
  1

  9
$DIMASO
 70
     1
  9
$DIMSHO
 70
     1
  9
$DIMPOST
  1

  9
$DIMAPOST
  1

  9
$DIMALT
 70
     0
  9
$DIMALTD
 70
     2
  9
$DIMALTF
 40
25.4
  9
$DIMLFAC
 40
1.0
  9
$DIMTOFL
 70
     0
  9
$DIMTVP
 40
0.0
  9
$DIMTIX
 70
     0
  9
$DIMSOXD
 70
     0
  9
$DIMSAH
 70
     0
  9
$DIMBLK1
  1

  9
$DIMBLK2
  1

  9
$DIMSTYLE
  2
23NSTD
  9
$DIMCLRD
 70
     0
  9
$DIMCLRE
 70
     0
  9
$DIMCLRT
 70
     0
  9
$DIMTFAC
 40
1.0
  9
$DIMGAP
 40
0.09
  9
$DIMJUST
 70
     0
  9
$DIMSD1
 70
     0
  9
$DIMSD2
 70
     0
  9
$DIMTOLJ
 70
     1
  9
$DIMTZIN
 70
     0
  9
$DIMALTZ
 70
     0
  9
$DIMALTTZ
 70
     0
  9
$DIMUPT
 70
     0
  9
$DIMDEC
 70
     3
  9
$DIMTDEC
 70
     3
  9
$DIMALTU
 70
     2
  9
$DIMALTTD
 70
     2
  9
$DIMTXSTY
  7
TXT
  9
$DIMAUNIT
 70
     0
  9
$DIMADEC
 70
     0
  9
$DIMALTRND
 40
0.0
  9
$DIMAZIN
 70
     0
  9
$DIMDSEP
 70
    46
  9
$DIMATFIT
 70
     0
  9
$DIMFRAC
 70
     0
  9
$DIMLDRBLK
  1

  9
$DIMLUNIT
 70
     2
  9
$DIMLWD
 70
    -2
  9
$DIMLWE
 70
    -2
  9
$DIMTMOVE
 70
     0
  9
$LUNITS
 70
     2
  9
$LUPREC
 70
     3
  9
$SKETCHINC
 40
0.1
  9
$FILLETRAD
 40
0.0
  9
$AUNITS
 70
     0
  9
$AUPREC
 70
     0
  9
$MENU
  1
acad
  9
$ELEVATION
 40
0.0
  9
$PELEVATION
 40
0.0
  9
$THICKNESS
 40
0.0
  9
$LIMCHECK
 70
     0
  9
$CHAMFERA
 40
0.0
  9
$CHAMFERB
 40
0.0
  9
$CHAMFERC
 40
0.0
  9
$CHAMFERD
 40
0.0
  9
$SKPOLY
 70
     0
  9
$TDCREATE
 40
2454538.318759039
  9
$TDUCREATE
 40
2454538.485425706
  9
$TDUPDATE
 40
2454538.572199432
  9
$TDUUPDATE
 40
2454538.738866099
  9
$TDINDWG
 40
0.0215586921
  9
$TDUSRTIMER
 40
0.0215586921
  9
$USRTIMER
 70
     1
  9
$ANGBASE
 50
0.0
  9
$ANGDIR
 70
     0
  9
$PDMODE
 70
     0
  9
$PDSIZE
 40
0.0
  9
$PLINEWID
 40
0.0
  9
$SPLFRAME
 70
     0
  9
$SPLINETYPE
 70
     6
  9
$SPLINESEGS
 70
     8
  9
$HANDSEED
  5
1C6C
  9
$SURFTAB1
 70
     6
  9
$SURFTAB2
 70
     6
  9
$SURFTYPE
 70
     6
  9
$SURFU
 70
     6
  9
$SURFV
 70
     6
  9
$UCSBASE
  2

  9
$UCSNAME
  2

  9
$UCSORG
 10
0.0
 20
0.0
 30
0.0
  9
$UCSXDIR
 10
1.0
 20
0.0
 30
0.0
  9
$UCSYDIR
 10
0.0
 20
1.0
 30
0.0
  9
$UCSORTHOREF
  2

  9
$UCSORTHOVIEW
 70
     0
  9
$UCSORGTOP
 10
0.0
 20
0.0
 30
0.0
  9
$UCSORGBOTTOM
 10
0.0
 20
0.0
 30
0.0
  9
$UCSORGLEFT
 10
0.0
 20
0.0
 30
0.0
  9
$UCSORGRIGHT
 10
0.0
 20
0.0
 30
0.0
  9
$UCSORGFRONT
 10
0.0
 20
0.0
 30
0.0
  9
$UCSORGBACK
 10
0.0
 20
0.0
 30
0.0
  9
$PUCSBASE
  2

  9
$PUCSNAME
  2

  9
$PUCSORG
 10
0.0
 20
0.0
 30
0.0
  9
$PUCSXDIR
 10
1.0
 20
0.0
 30
0.0
  9
$PUCSYDIR
 10
0.0
 20
1.0
 30
0.0
  9
$PUCSORTHOREF
  2

  9
$PUCSORTHOVIEW
 70
     0
  9
$PUCSORGTOP
 10
0.0
 20
0.0
 30
0.0
  9
$PUCSORGBOTTOM
 10
0.0
 20
0.0
 30
0.0
  9
$PUCSORGLEFT
 10
0.0
 20
0.0
 30
0.0
  9
$PUCSORGRIGHT
 10
0.0
 20
0.0
 30
0.0
  9
$PUCSORGFRONT
 10
0.0
 20
0.0
 30
0.0
  9
$PUCSORGBACK
 10
0.0
 20
0.0
 30
0.0
  9
$USERI1
 70
     0
  9
$USERI2
 70
     0
  9
$USERI3
 70
     0
  9
$USERI4
 70
     0
  9
$USERI5
 70
     0
  9
$USERR1
 40
0.0
  9
$USERR2
 40
0.0
  9
$USERR3
 40
0.0
  9
$USERR4
 40
0.0
  9
$USERR5
 40
0.0
  9
$WORLDVIEW
 70
     1
  9
$SHADEDGE
 70
     3
  9
$SHADEDIF
 70
    70
  9
$TILEMODE
 70
     1
  9
$MAXACTVP
 70
    16
  9
$PINSBASE
 10
0.0
 20
0.0
 30
0.0
  9
$PLIMCHECK
 70
     0
  9
$PEXTMIN
 10
1.000000000000000E+20
 20
1.000000000000000E+20
 30
1.000000000000000E+20
  9
$PEXTMAX
 10
-1.000000000000000E+20
 20
-1.000000000000000E+20
 30
-1.000000000000000E+20
  9
$PLIMMIN
 10
0.0
 20
0.0
  9
$PLIMMAX
 10
12.0
 20
9.0
  9
$UNITMODE
 70
     0
  9
$VISRETAIN
 70
     0
  9
$PLINEGEN
 70
     0
  9
$PSLTSCALE
 70
     1
  9
$TREEDEPTH
 70
  3020
  9
$CMLSTYLE
  2
Standard
  9
$CMLJUST
 70
     0
  9
$CMLSCALE
 40
1.0
  9
$PROXYGRAPHICS
 70
     1
  9
$MEASUREMENT
 70
     0
  9
$CELWEIGHT
370
    -1
  9
$ENDCAPS
280
     0
  9
$JOINSTYLE
280
     0
  9
$LWDISPLAY
290
     0
  9
$INSUNITS
 70
     0
  9
$HYPERLINKBASE
  1

  9
$STYLESHEET
  1
monochrome.ctb
  9
$XEDIT
290
     1
  9
$CEPSNTYPE
380
     0
  9
$PSTYLEMODE
290
     1
  9
$FINGERPRINTGUID
  2
{5F9F434B-8232-11D3-80AD-00C04F604D1B}
  9
$VERSIONGUID
  2
{72BA93D8-AD5A-4C41-968C-E115F7ACAFF3}
  9
$EXTNAMES
290
     1
  9
$PSVPSCALE
 40
0.0
  9
$OLESTARTUP
290
     0
  0
ENDSEC
  0
SECTION
  2
CLASSES
  0
CLASS
  1
ACDBDICTIONARYWDFLT
  2
AcDbDictionaryWithDefault
  3
AutoCAD 2000
 90
        0
280
     0
281
     0
  0
CLASS
  1
ACDBPLACEHOLDER
  2
AcDbPlaceHolder
  3
AutoCAD 2000
 90
        0
280
     0
281
     0
  0
CLASS
  1
LAYOUT
  2
AcDbLayout
  3
AutoCAD 2000
 90
        0
280
     0
281
     0
  0
ENDSEC
  0
SECTION
  2
TABLES
  0
TABLE
  2
VPORT
  5
8
330
0
100
AcDbSymbolTable
 70
     2
  0
VPORT
  5
1C6B
330
8
100
AcDbSymbolTableRecord
100
AcDbViewportTableRecord
  2
*Active
 70
     0
 10
0.0
 20
0.0
 11
1.0
 21
1.0
 12
40.48000037701086
 22
62.00000057743756
 13
0.0
 23
0.0
 14
0.125
 24
0.125
 15
0.125
 25
0.125
 16
0.0
 26
0.0
 36
1.0
 17
0.0
 27
0.0
 37
0.0
 40
125.2552885525106
 41
1.824707846410684
 42
50.0
 43
0.0
 44
0.0
 50
0.0
 51
0.0
 71
     0
 72
   100
 73
     1
 74
     0
 75
     0
 76
     0
 77
     0
 78
     0
281
     0
 65
     1
110
0.0
120
0.0
130
0.0
111
1.0
121
0.0
131
0.0
112
0.0
122
1.0
132
0.0
 79
     0
146
0.0
  0
ENDTAB
  0
TABLE
  2
LTYPE
  5
5
330
0
100
AcDbSymbolTable
 70
     6
  0
LTYPE
  5
13
330
5
100
AcDbSymbolTableRecord
100
AcDbLinetypeTableRecord
  2
ByBlock
 70
     0
  3

 72
    65
 73
     0
 40
0.0
  0
LTYPE
  5
14
330
5
100
AcDbSymbolTableRecord
100
AcDbLinetypeTableRecord
  2
ByLayer
 70
     0
  3

 72
    65
 73
     0
 40
0.0
  0
LTYPE
  5
15
330
5
100
AcDbSymbolTableRecord
100
AcDbLinetypeTableRecord
  2
CONTINUOUS
 70
     0
  3
Solid line
 72
    65
 73
     0
 40
0.0
  0
LTYPE
  5
22
330
5
100
AcDbSymbolTableRecord
100
AcDbLinetypeTableRecord
  2
HIDDEN
 70
     0
  3
_ _ _ _ _ _ _ _ _ _ _ _ _ _ _ _ _ _ _ _ _ _ _
 72
    65
 73
     2
 40
0.375
 49
0.25
 74
     0
 49
-0.125
 74
     0
  0
LTYPE
  5
23
330
5
100
AcDbSymbolTableRecord
100
AcDbLinetypeTableRecord
  2
PHANTOM
 70
     0
  3
_____ _ _ _____ _ _ _____ _ _ _____ _ _ ____
 72
    65
 73
     6
 40
2.5
 49
1.25
 74
     0
 49
-0.25
 74
     0
 49
0.25
 74
     0
 49
-0.25
 74
     0
 49
0.25
 74
     0
 49
-0.25
 74
     0
  0
LTYPE
  5
24
330
5
100
AcDbSymbolTableRecord
100
AcDbLinetypeTableRecord
  2
CENTER
 70
     0
  3
____ _ ____ _ ____ _ ____ _ ____ _ ____ _ ____
 72
    65
 73
     4
 40
2.0
 49
1.25
 74
     0
 49
-0.25
 74
     0
 49
0.25
 74
     0
 49
-0.25
 74
     0
  0
LTYPE
  5
25
330
5
100
AcDbSymbolTableRecord
100
AcDbLinetypeTableRecord
  2
HIDDEN2
 70
     0
  3
_ _ _ _ _ _ _ _ _ _ _ _ _ _ _ _ _ _ _ _ _ _ _ _
 72
    65
 73
     2
 40
0.1875
 49
0.125
 74
     0
 49
-0.0625
 74
     0
  0
LTYPE
  5
26
330
5
100
AcDbSymbolTableRecord
100
AcDbLinetypeTableRecord
  2
PHANTOM2
 70
     0
  3
___ _ _ ___ _ _ ___ _ _ ___ _ _ ___ _ _ ___ _ _
 72
    65
 73
     6
 40
1.25
 49
0.625
 74
     0
 49
-0.125
 74
     0
 49
0.125
 74
     0
 49
-0.125
 74
     0
 49
0.125
 74
     0
 49
-0.125
 74
     0
  0
ENDTAB
  0
TABLE
  2
LAYER
  5
2
330
0
100
AcDbSymbolTable
 70
     9
  0
LAYER
  5
10
330
2
100
AcDbSymbolTableRecord
100
AcDbLayerTableRecord
  2
0
 70
     0
 62
     7
  6
CONTINUOUS
370
    -3
390
F
  0
LAYER
  5
29
330
2
100
AcDbSymbolTableRecord
100
AcDbLayerTableRecord
  2
OBJECT
 70
     0
 62
     7
  6
CONTINUOUS
370
    -3
390
F
  0
LAYER
  5
2A
330
2
100
AcDbSymbolTableRecord
100
AcDbLayerTableRecord
  2
DIM
 70
     0
 62
     2
  6
CONTINUOUS
370
    -3
390
F
  0
LAYER
  5
2B
330
2
100
AcDbSymbolTableRecord
100
AcDbLayerTableRecord
  2
HIDDEN
 70
     0
 62
     6
  6
HIDDEN
370
    -3
390
F
  0
LAYER
  5
2C
330
2
100
AcDbSymbolTableRecord
100
AcDbLayerTableRecord
  2
BEND
 70
     0
 62
     4
  6
PHANTOM
370
    -3
390
F
  0
LAYER
  5
2D
330
2
100
AcDbSymbolTableRecord
100
AcDbLayerTableRecord
  2
TEXT
 70
     0
 62
     1
  6
CONTINUOUS
370
    -3
390
F
  0
LAYER
  5
2E
330
2
100
AcDbSymbolTableRecord
100
AcDbLayerTableRecord
  2
TITLE
 70
     0
 62
     8
  6
CONTINUOUS
370
    -3
390
F
  0
LAYER
  5
2F
330
2
100
AcDbSymbolTableRecord
100
AcDbLayerTableRecord
  2
CENTER
 70
     0
 62
     3
  6
CENTER
370
    -3
390
F
  0
LAYER
  5
73
330
2
100
AcDbSymbolTableRecord
100
AcDbLayerTableRecord
  2
DEFPOINTS
 70
     0
 62
     7
  6
CONTINUOUS
290
     0
370
    -3
390
F
  0
ENDTAB
  0
TABLE
  2
STYLE
  5
3
330
0
100
AcDbSymbolTable
 70
     2
  0
STYLE
  5
11
330
3
100
AcDbSymbolTableRecord
100
AcDbTextStyleTableRecord
  2
TXT
 70
     0
 40
0.0
 41
0.75
 50
0.0
 71
     0
 42
0.125
  3
TXT.shx
  4

  0
STYLE
  5
74
330
3
100
AcDbSymbolTableRecord
100
AcDbTextStyleTableRecord
  2
STANDARD
 70
     0
 40
0.0
 41
0.75
 50
0.0
 71
     0
 42
1.25
  3
TXT.shx
  4

  0
ENDTAB
  0
TABLE
  2
VIEW
  5
6
330
0
100
AcDbSymbolTable
 70
     0
  0
ENDTAB
  0
TABLE
  2
UCS
  5
7
330
0
100
AcDbSymbolTable
 70
     0
  0
ENDTAB
  0
TABLE
  2
APPID
  5
9
330
0
100
AcDbSymbolTable
 70
     1
  0
APPID
  5
12
330
9
100
AcDbSymbolTableRecord
100
AcDbRegAppTableRecord
  2
ACAD
 70
     0
  0
ENDTAB
  0
TABLE
  2
DIMSTYLE
  5
A
330
0
100
AcDbSymbolTable
 70
     2
100
AcDbDimStyleTable
 71
     2
340
38
340
39
  0
DIMSTYLE
105
38
330
A
100
AcDbSymbolTableRecord
100
AcDbDimStyleTableRecord
  2
23NSTD
 70
     0
 40
8.0
 42
0.063
 43
0.281
 44
0.093
140
0.125
271
     3
272
     3
289
     0
340
11
  0
DIMSTYLE
105
39
330
A
100
AcDbSymbolTableRecord
100
AcDbDimStyleTableRecord
  2
23NSTDI
 70
     0
 40
8.0
 42
0.063
 43
0.281
 44
0.093
140
0.125
174
     1
271
     3
272
     3
289
     0
340
11
  0
ENDTAB
  0
TABLE
  2
BLOCK_RECORD
  5
1
330
0
100
AcDbSymbolTable
 70
     2
  0
BLOCK_RECORD
  5
1E
330
1
100
AcDbSymbolTableRecord
100
AcDbBlockTableRecord
  2
*Model_Space
340
21
  0
BLOCK_RECORD
  5
1A
330
1
100
AcDbSymbolTableRecord
100
AcDbBlockTableRecord
  2
*Paper_Space
340
1D
  0
BLOCK_RECORD
  5
5F
330
1
100
AcDbSymbolTableRecord
100
AcDbBlockTableRecord
  2
HB
340
0
102
{BLKREFS
331
104B
102
}
  0
BLOCK_RECORD
  5
125D
330
1
100
AcDbSymbolTableRecord
100
AcDbBlockTableRecord
  2
MB
340
0
102
{BLKREFS
331
1C3E
331
1C42
102
}
  0
ENDTAB
  0
ENDSEC
  0
SECTION
  2
BLOCKS
  0
BLOCK
  5
33
330
1E
100
AcDbEntity
  8
0
100
AcDbBlockBegin
  2
*Model_Space
 70
     0
 10
0.0
 20
0.0
 30
0.0
  3
*Model_Space
  1

  0
ENDBLK
  5
34
330
1E
100
AcDbEntity
  8
0
100
AcDbBlockEnd
  0
BLOCK
  5
31
330
1A
100
AcDbEntity
 67
     1
  8
0
100
AcDbBlockBegin
  2
*Paper_Space
 70
     0
 10
0.0
 20
0.0
 30
0.0
  3
*Paper_Space
  1

  0
ENDBLK
  5
32
330
1A
100
AcDbEntity
 67
     1
  8
0
100
AcDbBlockEnd
  0
BLOCK
  5
71
330
5F
100
AcDbEntity
  8
0
100
AcDbBlockBegin
  2
HB
 70
     0
 10
0.0
 20
0.0
 30
0.0
  3
HB
  1

  0
TEXT
  5
60
330
5F
100
AcDbEntity
  8
TEXT
100
AcDbText
 10
0.2078333333333334
 20
15.060079
 30
0.0
 40
0.125
  1
NAME
  7
STANDARD
 72
     1
 11
0.4370000000000001
 21
15.060079
 31
0.0
100
AcDbText
  0
TEXT
  5
61
330
5F
100
AcDbEntity
  8
TEXT
100
AcDbText
 10
0.2078333333333334
 20
15.268413
 30
0.0
 40
0.125
  1
PART
  7
STANDARD
 72
     1
 11
0.4370000000000001
 21
15.268413
 31
0.0
100
AcDbText
  0
TEXT
  5
62
330
5F
100
AcDbEntity
  8
TEXT
100
AcDbText
 10
5.372
 20
15.060079
 30
0.0
 40
0.125
  1
No.
  7
STANDARD
 72
     1
 11
5.497
 21
15.060079
 31
0.0
100
AcDbText
  0
TEXT
  5
63
330
5F
100
AcDbEntity
  8
TEXT
100
AcDbText
 10
5.267833333333333
 20
15.268413
 30
0.0
 40
0.125
  1
PART
  7
STANDARD
 72
     1
 11
5.497
 21
15.268413
 31
0.0
100
AcDbText
  0
LINE
  5
64
330
5F
100
AcDbEntity
  8
TITLE
100
AcDbLine
 10
5.872
 20
15.438
 30
0.0
 11
5.872
 21
15.01999999999999
 31
0.0
  0
LINE
  5
65
330
5F
100
AcDbEntity
  8
TITLE
100
AcDbLine
 10
5.122
 20
15.438
 30
0.0
 11
5.122
 21
15.01999999999999
 31
0.0
  0
LINE
  5
66
330
5F
100
AcDbEntity
  8
TITLE
100
AcDbLine
 10
5.059999999999999
 20
15.438
 30
0.0
 11
5.059999999999999
 21
15.01999999999999
 31
0.0
  0
LINE
  5
67
330
5F
100
AcDbEntity
  8
TITLE
100
AcDbLine
 10
0.812
 20
15.01999999999999
 30
0.0
 11
0.812
 21
15.438
 31
0.0
  0
LINE
  5
68
330
5F
100
AcDbEntity
  8
TITLE
100
AcDbLine
 10
0.062
 20
15.01999999999999
 30
0.0
 11
10.058
 21
15.01999999999999
 31
0.0
  0
LINE
  5
69
330
5F
100
AcDbEntity
  8
TITLE
100
AcDbLine
 10
10.058
 20
0.062
 30
0.0
 11
0.062
 21
0.062
 31
0.0
  0
LINE
  5
6A
330
5F
100
AcDbEntity
  8
TITLE
100
AcDbLine
 10
10.058
 20
15.438
 30
0.0
 11
10.058
 21
0.062
 31
0.0
  0
LINE
  5
6B
330
5F
100
AcDbEntity
  8
TITLE
100
AcDbLine
 10
0.062
 20
15.438
 30
0.0
 11
10.058
 21
15.438
 31
0.0
  0
LINE
  5
6C
330
5F
100
AcDbEntity
  8
TITLE
100
AcDbLine
 10
0.062
 20
0.062
 30
0.0
 11
0.062
 21
15.438
 31
0.0
  0
LINE
  5
6D
330
5F
100
AcDbEntity
  8
TITLE
100
AcDbLine
 10
0.0
 20
0.0
 30
0.0
 11
0.0
 21
15.5
 31
0.0
  0
LINE
  5
6E
330
5F
100
AcDbEntity
  8
TITLE
100
AcDbLine
 10
10.12
 20
0.0
 30
0.0
 11
0.0
 21
0.0
 31
0.0
  0
LINE
  5
6F
330
5F
100
AcDbEntity
  8
TITLE
100
AcDbLine
 10
10.12
 20
15.5
 30
0.0
 11
10.12
 21
0.0
 31
0.0
  0
LINE
  5
70
330
5F
100
AcDbEntity
  8
TITLE
100
AcDbLine
 10
0.0
 20
15.5
 30
0.0
 11
10.12
 21
15.5
 31
0.0
  0
ENDBLK
  5
72
330
5F
100
AcDbEntity
  8
0
100
AcDbBlockEnd
  0
BLOCK
  5
1275
330
125D
100
AcDbEntity
  8
0
100
AcDbBlockBegin
  2
MB
 70
     0
 10
0.0
 20
0.0
 30
0.0
  3
MB
  1

  0
LWPOLYLINE
  5
125E
330
125D
100
AcDbEntity
  8
OBJECT
100
AcDbPolyline
 90
        4
 70
     1
 43
0.0
 10
1.286499999999996
 20
-1.375
 42
-1.0
 10
1.286499999999996
 20
-1.625
 10
0.1664999999999992
 20
-1.625
 42
-1.0
 10
0.1664999999999992
 20
-1.375
  0
LWPOLYLINE
  5
125F
330
125D
100
AcDbEntity
  8
OBJECT
100
AcDbPolyline
 90
        4
 70
     1
 43
0.0
 10
1.286499999999996
 20
1.375
 42
1.0
 10
1.286499999999996
 20
1.625
 10
0.1664999999999992
 20
1.625
 42
1.0
 10
0.1664999999999992
 20
1.375
  0
LWPOLYLINE
  5
1260
330
125D
100
AcDbEntity
  8
OBJECT
100
AcDbPolyline
 90
        4
 70
     1
 43
0.0
 10
0.0
 20
-0.0934999999999988
 42
-1.0
 10
0.0
 20
0.0934999999999917
 10
6.202999999999995
 20
0.0934999999999917
 42
-1.0
 10
6.202999999999995
 20
-0.0934999999999988
  0
LWPOLYLINE
  5
1261
330
125D
100
AcDbEntity
  8
OBJECT
100
AcDbPolyline
 90
       10
 70
     1
 43
0.0
 10
-0.7705000000000056
 20
-1.375
 10
-0.5195000000000008
 20
-1.375
 10
-0.1445000000000007
 20
-1.75
 10
6.289499999999996
 20
-1.750000000000007
 42
0.4142135623730951
 10
6.476500000000001
 20
-1.563000000000002
 10
6.476500000000001
 20
1.562999999999995
 42
0.4142135623730951
 10
6.289499999999996
 20
1.749999999999992
 10
-0.1445000000000007
 20
1.75
 10
-0.5195000000000008
 20
1.374999999999992
 10
-0.7705000000000056
 20
1.374999999999992
  0
LINE
  5
1262
330
125D
100
AcDbEntity
  8
OBJECT
100
AcDbLine
 10
-0.7085000000000079
 20
-1.375000000000007
 30
0.0
 11
-0.7085000000000079
 21
1.374999999999992
 31
0.0
  0
LWPOLYLINE
  5
1263
330
125D
100
AcDbEntity
  8
OBJECT
100
AcDbPolyline
 90
        4
 70
     0
 43
0.0
 10
-0.7085000000000079
 20
-0.9840000000000017
 10
-0.5685000000000074
 20
-0.9840000000000017
 42
1.0
 10
-0.5685000000000074
 20
-0.7660000000000054
 10
-0.7085000000000079
 20
-0.7660000000000054
  0
LWPOLYLINE
  5
1264
330
125D
100
AcDbEntity
  8
OBJECT
100
AcDbPolyline
 90
        4
 70
     0
 43
0.0
 10
-0.7085000000000079
 20
-0.3590000000000089
 10
-0.5685000000000074
 20
-0.3590000000000018
 42
1.0
 10
-0.5685000000000074
 20
-0.1410000000000053
 10
-0.7085000000000079
 20
-0.1410000000000053
  0
LWPOLYLINE
  5
1265
330
125D
100
AcDbEntity
  8
OBJECT
100
AcDbPolyline
 90
        4
 70
     0
 43
0.0
 10
-0.7085000000000079
 20
0.7659999999999983
 10
-0.5685000000000074
 20
0.7659999999999983
 42
1.0
 10
-0.5685000000000074
 20
0.9839999999999946
 10
-0.7085000000000079
 20
0.9839999999999946
  0
LWPOLYLINE
  5
1266
330
125D
100
AcDbEntity
  8
OBJECT
100
AcDbPolyline
 90
        4
 70
     0
 43
0.0
 10
-0.7085000000000079
 20
0.1409999999999911
 10
-0.5685000000000074
 20
0.1409999999999911
 42
1.0
 10
-0.5685000000000074
 20
0.3589999999999947
 10
-0.7085000000000079
 20
0.3589999999999947
  0
LWPOLYLINE
  5
1267
330
125D
100
AcDbEntity
  8
OBJECT
100
AcDbPolyline
 90
        4
 70
     1
 43
0.0
 10
4.526499999999998
 20
-1.375
 42
-1.0
 10
4.526499999999998
 20
-1.625
 10
3.406499999999997
 20
-1.625
 42
-1.0
 10
3.406499999999997
 20
-1.375
  0
LWPOLYLINE
  5
1268
330
125D
100
AcDbEntity
  8
OBJECT
100
AcDbPolyline
 90
        4
 70
     1
 43
0.0
 10
4.526499999999998
 20
1.375
 42
1.0
 10
4.526499999999998
 20
1.625
 10
3.406499999999997
 20
1.625
 42
1.0
 10
3.406499999999997
 20
1.375
  0
LWPOLYLINE
  5
1269
330
125D
100
AcDbEntity
  8
OBJECT
100
AcDbPolyline
 90
        4
 70
     1
 43
0.0
 10
5.214209790620273
 20
-1.080000000000005
 42
0.3740304065648548
 10
5.585586957392798
 20
-0.757000000000005
 10
3.727832623847952
 20
-0.757000000000005
 42
0.3740304065648328
 10
4.099209790620271
 20
-1.080000000000005
  0
LWPOLYLINE
  5
126A
330
125D
100
AcDbEntity
  8
OBJECT
100
AcDbPolyline
 90
        4
 70
     1
 43
0.0
 10
5.214209790620273
 20
1.079999999999998
 42
-0.3740304065648548
 10
5.585586957392798
 20
0.7569999999999979
 10
3.727832623847952
 20
0.7569999999999979
 42
-0.3740304065648328
 10
4.099209790620271
 20
1.079999999999998
  0
LWPOLYLINE
  5
126B
330
125D
100
AcDbEntity
  8
OBJECT
100
AcDbPolyline
 90
        4
 70
     1
 43
0.0
 10
2.906499999999997
 20
-1.375
 42
-1.0
 10
2.906499999999997
 20
-1.625
 10
1.786499999999996
 20
-1.625
 42
-1.0
 10
1.786499999999996
 20
-1.375
  0
LWPOLYLINE
  5
126C
330
125D
100
AcDbEntity
  8
OBJECT
100
AcDbPolyline
 90
        4
 70
     1
 43
0.0
 10
1.109209790620276
 20
-1.080000000000005
 42
-0.3740304065648548
 10
0.7378326238477442
 20
-0.757000000000005
 10
2.59558695739259
 20
-0.757000000000005
 42
-0.3740304065648328
 10
2.224209790620271
 20
-1.080000000000005
  0
LINE
  5
126D
330
125D
100
AcDbEntity
  8
CENTER
100
AcDbLine
 10
0.7264999999999944
 20
-1.410000000000003
 30
0.0
 11
0.7264999999999944
 21
-1.590000000000003
 31
0.0
  0
LINE
  5
126E
330
125D
100
AcDbEntity
  8
CENTER
100
AcDbLine
 10
0.8164999999999977
 20
-1.5
 30
0.0
 11
0.6364999999999981
 21
-1.5
 31
0.0
  0
LWPOLYLINE
  5
126F
330
125D
100
AcDbEntity
  8
OBJECT
100
AcDbPolyline
 90
        4
 70
     1
 43
0.0
 10
1.109209790620276
 20
1.079999999999998
 42
0.3740304065648548
 10
0.7378326238477442
 20
0.7569999999999979
 10
2.59558695739259
 20
0.7569999999999979
 42
0.3740304065648328
 10
2.224209790620271
 20
1.079999999999998
  0
LWPOLYLINE
  5
1270
330
125D
100
AcDbEntity
  8
OBJECT
100
AcDbPolyline
 90
        4
 70
     1
 43
0.0
 10
2.906499999999997
 20
1.375
 42
1.0
 10
2.906499999999997
 20
1.625
 10
1.786499999999996
 20
1.625
 42
1.0
 10
1.786499999999996
 20
1.375
  0
LINE
  5
1271
330
125D
100
AcDbEntity
  8
CENTER
100
AcDbLine
 10
0.8164999999999977
 20
1.499999999999992
 30
0.0
 11
0.6364999999999981
 21
1.499999999999992
 31
0.0
  0
LINE
  5
1272
330
125D
100
AcDbEntity
  8
CENTER
100
AcDbLine
 10
0.7264999999999944
 20
1.409999999999996
 30
0.0
 11
0.7264999999999944
 21
1.589999999999996
 31
0.0
  0
LWPOLYLINE
  5
1273
330
125D
100
AcDbEntity
  8
OBJECT
100
AcDbPolyline
 90
        4
 70
     1
 43
0.0
 10
5.026499999999998
 20
-1.625
 42
-1.0
 10
5.026499999999998
 20
-1.375
 10
6.146499999999996
 20
-1.375
 42
-1.0
 10
6.146499999999996
 20
-1.625
  0
LWPOLYLINE
  5
1274
330
125D
100
AcDbEntity
  8
OBJECT
100
AcDbPolyline
 90
        4
 70
     1
 43
0.0
 10
5.026499999999998
 20
1.625
 42
1.0
 10
5.026499999999998
 20
1.375
 10
6.146499999999996
 20
1.375
 42
1.0
 10
6.146499999999996
 20
1.625
  0
ENDBLK
  5
1276
330
125D
100
AcDbEntity
  8
0
100
AcDbBlockEnd
  0
ENDSEC
  0
SECTION
  2
ENTITIES
  0
LINE
  5
8E6
330
1E
100
AcDbEntity
  8
OBJECT
100
AcDbLine
 10
42.20897599999999
 20
83.870301
 30
0.0
 11
42.708976
 21
84.73632700000001
 31
0.0
  0
LINE
  5
8E7
330
1E
100
AcDbEntity
  8
OBJECT
100
AcDbLine
 10
41.691338
 20
85.60235199999999
 30
0.0
 11
42.20897599999999
 21
83.870301
 31
0.0
  0
LINE
  5
8E8
330
1E
100
AcDbEntity
  8
OBJECT
100
AcDbLine
 10
41.191338
 20
84.73632700000001
 30
0.0
 11
41.691338
 21
85.60235199999999
 31
0.0
  0
LINE
  5
8E9
330
1E
100
AcDbEntity
  8
OBJECT
100
AcDbLine
 10
65.70897600000001
 20
83.870301
 30
0.0
 11
66.20897600000001
 21
84.73632700000001
 31
0.0
  0
LINE
  5
8EA
330
1E
100
AcDbEntity
  8
OBJECT
100
AcDbLine
 10
65.191338
 20
85.60235199999999
 30
0.0
 11
65.70897600000001
 21
83.870301
 31
0.0
  0
LINE
  5
8EB
330
1E
100
AcDbEntity
  8
OBJECT
100
AcDbLine
 10
64.691338
 20
84.73632700000001
 30
0.0
 11
65.191338
 21
85.60235199999999
 31
0.0
  0
LINE
  5
8EC
330
1E
100
AcDbEntity
  8
OBJECT
100
AcDbLine
 10
42.708976
 20
84.73632700000001
 30
0.0
 11
64.691338
 21
84.73632700000001
 31
0.0
  0
LINE
  5
8ED
330
1E
100
AcDbEntity
  8
OBJECT
100
AcDbLine
 10
31.700157
 20
84.73632700000001
 30
0.0
 11
41.191338
 21
84.73632700000001
 31
0.0
  0
LINE
  5
8EE
330
1E
100
AcDbEntity
  8
OBJECT
100
AcDbLine
 10
66.20897600000001
 20
84.73632700000001
 30
0.0
 11
77.20015699999999
 21
84.73632700000001
 31
0.0
  0
TEXT
  5
8EF
330
1E
100
AcDbEntity
  8
TEXT
100
AcDbText
 10
35.08549
 20
27.113983
 30
0.0
 40
1.25
  1
%%uDETAIL "A"
 41
0.75
  7
STANDARD
100
AcDbText
  0
TEXT
  5
8F0
330
1E
100
AcDbEntity
  8
DIM
100
AcDbText
 10
50.875
 20
34.857439
 30
0.0
 40
0.5
  1

  7
STANDARD
100
AcDbText
  0
TEXT
  5
8F1
330
1E
100
AcDbEntity
  8
DIM
100
AcDbText
 10
33.453
 20
52.75413199999999
 30
0.0
 40
0.5
  1

  7
STANDARD
100
AcDbText
  0
TEXT
  5
8F2
330
1E
100
AcDbEntity
  8
DIM
100
AcDbText
 10
66.52217900000001
 20
47.272419
 30
0.0
 40
0.5
  1

  7
STANDARD
100
AcDbText
  0
TEXT
  5
8F3
330
1E
100
AcDbEntity
  8
TEXT
100
AcDbText
 10
2.378575
 20
117.5863239999999
 30
0.0
 40
1.0
  1
%%UMATERIAL:
 41
0.75
  7
STANDARD
100
AcDbText
  0
TEXT
  5
8F4
330
1E
100
AcDbEntity
  8
TEXT
100
AcDbText
 10
3.395268
 20
115.707599
 30
0.0
 40
1.0
  1
SHELF & MOUNTING BRACKETS
 41
0.75
  7
STANDARD
100
AcDbText
  0
TEXT
  5
8F5
330
1E
100
AcDbEntity
  8
TEXT
100
AcDbText
 10
2.484593999999999
 20
113.4846239999999
 30
0.0
 40
1.0
  1
%%UFINISH:
 41
0.75
  7
STANDARD
100
AcDbText
  0
TEXT
  5
8F6
330
1E
100
AcDbEntity
  8
DIM
100
AcDbText
 10
69.049458
 20
45.52893599999999
 30
0.0
 40
0.5
  1

  7
STANDARD
100
AcDbText
  0
CIRCLE
  5
8F7
330
1E
100
AcDbEntity
  8
OBJECT
100
AcDbCircle
 10
76.32515699999999
 20
57.870787
 30
0.0
 40
0.082
  0
LWPOLYLINE
  5
8F8
330
1E
100
AcDbEntity
  8
OBJECT
100
AcDbPolyline
 90
        6
 70
     1
 43
0.0
 10
76.42446099999999
 20
58.042787
 10
76.52376600000001
 20
57.870787
 10
76.42446099999999
 20
57.698787
 10
76.225853
 20
57.698787
 10
76.12654899999999
 20
57.870787
 10
76.225853
 20
58.042787
  0
CIRCLE
  5
8F9
330
1E
100
AcDbEntity
  8
OBJECT
100
AcDbCircle
 10
76.32515699999999
 20
57.870787
 30
0.0
 40
0.172
  0
CIRCLE
  5
8FA
330
1E
100
AcDbEntity
  8
OBJECT
100
AcDbCircle
 10
51.575157
 20
57.870787
 30
0.0
 40
0.172
  0
LWPOLYLINE
  5
8FB
330
1E
100
AcDbEntity
  8
OBJECT
100
AcDbPolyline
 90
        6
 70
     1
 43
0.0
 10
51.475853
 20
58.042787
 10
51.376549
 20
57.870787
 10
51.475853
 20
57.698787
 10
51.674461
 20
57.698787
 10
51.77376599999999
 20
57.870787
 10
51.674461
 20
58.042787
  0
CIRCLE
  5
8FC
330
1E
100
AcDbEntity
  8
OBJECT
100
AcDbCircle
 10
51.575157
 20
57.870787
 30
0.0
 40
0.082
  0
CIRCLE
  5
8FD
330
1E
100
AcDbEntity
  8
OBJECT
100
AcDbCircle
 10
55.950157
 20
57.870787
 30
0.0
 40
0.172
  0
LWPOLYLINE
  5
8FE
330
1E
100
AcDbEntity
  8
OBJECT
100
AcDbPolyline
 90
        6
 70
     1
 43
0.0
 10
55.850853
 20
58.042787
 10
55.751549
 20
57.870787
 10
55.850853
 20
57.698787
 10
56.049461
 20
57.698787
 10
56.148766
 20
57.870787
 10
56.049461
 20
58.042787
  0
CIRCLE
  5
8FF
330
1E
100
AcDbEntity
  8
OBJECT
100
AcDbCircle
 10
55.950157
 20
57.870787
 30
0.0
 40
0.082
  0
ARC
  5
900
330
1E
100
AcDbEntity
  8
OBJECT
100
AcDbCircle
 10
52.59015699999999
 20
57.870787
 30
0.0
 40
0.09
100
AcDbArc
 50
270.0
 51
90.0
  0
ARC
  5
901
330
1E
100
AcDbEntity
  8
OBJECT
100
AcDbCircle
 10
52.56015699999999
 20
57.870787
 30
0.0
 40
0.09
100
AcDbArc
 50
90.0
 51
270.0
  0
LINE
  5
902
330
1E
100
AcDbEntity
  8
OBJECT
100
AcDbLine
 10
52.59015699999999
 20
57.96078699999999
 30
0.0
 11
52.56015699999999
 21
57.96078699999999
 31
0.0
  0
LINE
  5
903
330
1E
100
AcDbEntity
  8
OBJECT
100
AcDbLine
 10
52.56015699999999
 20
57.780787
 30
0.0
 11
52.59015699999999
 21
57.780787
 31
0.0
  0
LINE
  5
904
330
1E
100
AcDbEntity
  8
HIDDEN
100
AcDbLine
 10
50.70015699999999
 20
57.121287
 30
0.0
 11
57.83715700000001
 21
57.121287
 31
0.0
  0
TEXT
  5
905
330
1E
100
AcDbEntity
  8
DIM
100
AcDbText
 10
10.81643499999999
 20
25.903762
 30
0.0
 40
0.5
  1

  7
STANDARD
100
AcDbText
  0
LINE
  5
906
330
1E
100
AcDbEntity
  8
OBJECT
100
AcDbLine
 10
32.30644799999999
 20
58.042787
 30
0.0
 11
32.30644799999999
 21
57.698787
 31
0.0
  0
LINE
  5
907
330
1E
100
AcDbEntity
  8
OBJECT
100
AcDbLine
 10
32.447448
 20
58.042787
 30
0.0
 11
32.30644799999999
 21
58.042787
 31
0.0
  0
LINE
  5
908
330
1E
100
AcDbEntity
  8
OBJECT
100
AcDbLine
 10
32.447448
 20
57.698787
 30
0.0
 11
32.30644799999999
 21
57.698787
 31
0.0
  0
LINE
  5
909
330
1E
100
AcDbEntity
  8
OBJECT
100
AcDbLine
 10
32.41544799999999
 20
58.042787
 30
0.0
 11
32.41544799999999
 21
57.698787
 31
0.0
  0
LINE
  5
90A
330
1E
100
AcDbEntity
  8
OBJECT
100
AcDbLine
 10
32.30644799999999
 20
57.952787
 30
0.0
 11
32.19644799999999
 21
57.952787
 31
0.0
  0
LINE
  5
90B
330
1E
100
AcDbEntity
  8
OBJECT
100
AcDbLine
 10
32.30644799999999
 20
57.78878699999999
 30
0.0
 11
32.19644799999999
 21
57.78878699999999
 31
0.0
  0
LINE
  5
90C
330
1E
100
AcDbEntity
  8
OBJECT
100
AcDbLine
 10
32.19644799999999
 20
57.78878699999999
 30
0.0
 11
32.19644799999999
 21
57.952787
 31
0.0
  0
LINE
  5
90D
330
1E
100
AcDbEntity
  8
OBJECT
100
AcDbLine
 10
32.884448
 20
58.393787
 30
0.0
 11
32.884448
 21
57.34778699999999
 31
0.0
  0
LINE
  5
90E
330
1E
100
AcDbEntity
  8
OBJECT
100
AcDbLine
 10
32.71244799999999
 20
58.565787
 30
0.0
 11
32.71244799999999
 21
58.565787
 31
0.0
  0
LINE
  5
90F
330
1E
100
AcDbEntity
  8
OBJECT
100
AcDbLine
 10
32.71244799999999
 20
57.175787
 30
0.0
 11
32.71244799999999
 21
57.175787
 31
0.0
  0
LINE
  5
910
330
1E
100
AcDbEntity
  8
OBJECT
100
AcDbLine
 10
32.822448
 20
58.393787
 30
0.0
 11
32.822448
 21
57.34778699999999
 31
0.0
  0
LINE
  5
911
330
1E
100
AcDbEntity
  8
OBJECT
100
AcDbLine
 10
32.70244799999999
 20
58.503787
 30
0.0
 11
32.71244799999999
 21
58.503787
 31
0.0
  0
LINE
  5
912
330
1E
100
AcDbEntity
  8
OBJECT
100
AcDbLine
 10
32.71244799999999
 20
57.237787
 30
0.0
 11
32.71244799999999
 21
57.237787
 31
0.0
  0
ARC
  5
913
330
1E
100
AcDbEntity
  8
OBJECT
100
AcDbCircle
 10
32.71244799999999
 20
58.393787
 30
0.0
 40
0.172
100
AcDbArc
 50
90.0
 51
143.628158
  0
ARC
  5
914
330
1E
100
AcDbEntity
  8
OBJECT
100
AcDbCircle
 10
32.71244799999999
 20
57.34778699999999
 30
0.0
 40
0.172
100
AcDbArc
 50
216.3718419999999
 51
270.0
  0
ARC
  5
915
330
1E
100
AcDbEntity
  8
OBJECT
100
AcDbCircle
 10
32.71244799999999
 20
57.34778699999999
 30
0.0
 40
0.172
100
AcDbArc
 50
270.0
 51
0.0
  0
ARC
  5
916
330
1E
100
AcDbEntity
  8
OBJECT
100
AcDbCircle
 10
32.71244799999999
 20
58.393787
 30
0.0
 40
0.172
100
AcDbArc
 50
0.0
 51
90.0
  0
ARC
  5
917
330
1E
100
AcDbEntity
  8
OBJECT
100
AcDbCircle
 10
32.71244799999999
 20
58.393787
 30
0.0
 40
0.11
100
AcDbArc
 50
0.0
 51
90.0
  0
ARC
  5
918
330
1E
100
AcDbEntity
  8
OBJECT
100
AcDbCircle
 10
32.71244799999999
 20
57.34778699999999
 30
0.0
 40
0.11
100
AcDbArc
 50
270.0
 51
0.0
  0
ARC
  5
919
330
1E
100
AcDbEntity
  8
OBJECT
100
AcDbCircle
 10
32.71244799999999
 20
57.34778699999999
 30
0.0
 40
0.11
100
AcDbArc
 50
216.3718419999999
 51
270.0
  0
ARC
  5
91A
330
1E
100
AcDbEntity
  8
OBJECT
100
AcDbCircle
 10
32.70244799999999
 20
58.403787
 30
0.0
 40
0.1
100
AcDbArc
 50
90.0
 51
144.3973909999999
  0
LINE
  5
91B
330
1E
100
AcDbEntity
  8
OBJECT
100
AcDbLine
 10
32.573956
 20
58.495787
 30
0.0
 11
32.62114
 21
58.462003
 31
0.0
  0
LINE
  5
91C
330
1E
100
AcDbEntity
  8
OBJECT
100
AcDbLine
 10
32.573956
 20
57.245787
 30
0.0
 11
32.623877
 21
57.282555
 31
0.0
  0
CIRCLE
  5
91D
330
1E
100
AcDbEntity
  8
OBJECT
100
AcDbCircle
 10
32.71244799999999
 20
57.33128699999999
 30
0.0
 40
0.0935
  0
CIRCLE
  5
91E
330
1E
100
AcDbEntity
  8
OBJECT
100
AcDbCircle
 10
32.71244799999999
 20
58.41028699999999
 30
0.0
 40
0.0935
  0
LINE
  5
91F
330
1E
100
AcDbEntity
  8
OBJECT
100
AcDbLine
 10
32.572448
 20
58.206787
 30
0.0
 11
32.572448
 21
57.534787
 31
0.0
  0
LINE
  5
920
330
1E
100
AcDbEntity
  8
OBJECT
100
AcDbLine
 10
32.618448
 20
58.315787
 30
0.0
 11
32.78358499999999
 21
58.315787
 31
0.0
  0
LINE
  5
921
330
1E
100
AcDbEntity
  8
OBJECT
100
AcDbLine
 10
32.618448
 20
57.425787
 30
0.0
 11
32.78358499999999
 21
57.425787
 31
0.0
  0
LINE
  5
922
330
1E
100
AcDbEntity
  8
OBJECT
100
AcDbLine
 10
32.619448
 20
57.48778699999999
 30
0.0
 11
32.78358499999999
 21
57.48778699999999
 31
0.0
  0
LINE
  5
923
330
1E
100
AcDbEntity
  8
OBJECT
100
AcDbLine
 10
32.619448
 20
58.253787
 30
0.0
 11
32.78358499999999
 21
58.253787
 31
0.0
  0
ARC
  5
924
330
1E
100
AcDbEntity
  8
OBJECT
100
AcDbCircle
 10
32.618448
 20
57.534787
 30
0.0
 40
0.109
100
AcDbArc
 50
180.0
 51
270.0
  0
ARC
  5
925
330
1E
100
AcDbEntity
  8
OBJECT
100
AcDbCircle
 10
32.619448
 20
58.206787
 30
0.0
 40
0.047
100
AcDbArc
 50
90.0
 51
180.0
  0
ARC
  5
926
330
1E
100
AcDbEntity
  8
OBJECT
100
AcDbCircle
 10
32.619448
 20
57.534787
 30
0.0
 40
0.047
100
AcDbArc
 50
180.0
 51
270.0
  0
LINE
  5
927
330
1E
100
AcDbEntity
  8
OBJECT
100
AcDbLine
 10
32.78358499999999
 20
58.315787
 30
0.0
 11
32.78358499999999
 21
58.253787
 31
0.0
  0
LINE
  5
928
330
1E
100
AcDbEntity
  8
OBJECT
100
AcDbLine
 10
32.78358499999999
 20
57.48778699999999
 30
0.0
 11
32.78358499999999
 21
57.425787
 31
0.0
  0
LINE
  5
929
330
1E
100
AcDbEntity
  8
OBJECT
100
AcDbLine
 10
32.61894799999999
 20
58.41028699999999
 30
0.0
 11
32.805948
 21
58.41028699999999
 31
0.0
  0
LINE
  5
92A
330
1E
100
AcDbEntity
  8
OBJECT
100
AcDbLine
 10
32.805948
 20
58.41028699999999
 30
0.0
 11
32.805948
 21
58.07020999999999
 31
0.0
  0
LINE
  5
92B
330
1E
100
AcDbEntity
  8
OBJECT
100
AcDbLine
 10
32.805948
 20
58.07020999999999
 30
0.0
 11
32.61531699999999
 21
58.07020999999999
 31
0.0
  0
LINE
  5
92C
330
1E
100
AcDbEntity
  8
OBJECT
100
AcDbLine
 10
32.61531699999999
 20
58.07020999999999
 30
0.0
 11
32.61531699999999
 21
57.870787
 31
0.0
  0
LINE
  5
92D
330
1E
100
AcDbEntity
  8
OBJECT
100
AcDbLine
 10
32.61894799999999
 20
57.33128699999999
 30
0.0
 11
32.805948
 21
57.33128699999999
 31
0.0
  0
LINE
  5
92E
330
1E
100
AcDbEntity
  8
OBJECT
100
AcDbLine
 10
32.805948
 20
57.33128699999999
 30
0.0
 11
32.805948
 21
57.671365
 31
0.0
  0
LINE
  5
92F
330
1E
100
AcDbEntity
  8
OBJECT
100
AcDbLine
 10
32.805948
 20
57.671365
 30
0.0
 11
32.61531699999999
 21
57.671365
 31
0.0
  0
LINE
  5
930
330
1E
100
AcDbEntity
  8
OBJECT
100
AcDbLine
 10
32.61531699999999
 20
57.671365
 30
0.0
 11
32.61531699999999
 21
57.870787
 31
0.0
  0
ARC
  5
931
330
1E
100
AcDbEntity
  8
OBJECT
100
AcDbCircle
 10
32.618448
 20
58.206787
 30
0.0
 40
0.109
100
AcDbArc
 50
90.0
 51
180.0
  0
LINE
  5
932
330
1E
100
AcDbEntity
  8
OBJECT
100
AcDbLine
 10
32.41544799999999
 20
57.120787
 30
0.0
 11
15.603448
 21
57.120787
 31
0.0
  0
LINE
  5
933
330
1E
100
AcDbEntity
  8
OBJECT
100
AcDbLine
 10
32.447448
 20
57.120787
 30
0.0
 11
32.447448
 21
58.558787
 31
0.0
  0
LINE
  5
934
330
1E
100
AcDbEntity
  8
OBJECT
100
AcDbLine
 10
32.41544799999999
 20
57.120787
 30
0.0
 11
32.41544799999999
 21
57.698787
 31
0.0
  0
LINE
  5
935
330
1E
100
AcDbEntity
  8
OBJECT
100
AcDbLine
 10
32.447448
 20
57.120787
 30
0.0
 11
32.509448
 21
57.120787
 31
0.0
  0
LINE
  5
936
330
1E
100
AcDbEntity
  8
HIDDEN
100
AcDbLine
 10
15.571448
 20
58.558787
 30
0.0
 11
28.28344899999999
 21
58.558787
 31
0.0
  0
LINE
  5
937
330
1E
100
AcDbEntity
  8
OBJECT
100
AcDbLine
 10
32.509448
 20
57.120787
 30
0.0
 11
32.447448
 21
57.120787
 31
0.0
  0
LINE
  5
938
330
1E
100
AcDbEntity
  8
OBJECT
100
AcDbLine
 10
32.509448
 20
58.620787
 30
0.0
 11
32.509448
 21
57.120787
 31
0.0
  0
LINE
  5
939
330
1E
100
AcDbEntity
  8
OBJECT
100
AcDbLine
 10
15.509448
 20
58.620787
 30
0.0
 11
32.509448
 21
58.620787
 31
0.0
  0
LINE
  5
93A
330
1E
100
AcDbEntity
  8
OBJECT
100
AcDbLine
 10
15.509448
 20
58.620787
 30
0.0
 11
15.509448
 21
57.120787
 31
0.0
  0
LINE
  5
93B
330
1E
100
AcDbEntity
  8
OBJECT
100
AcDbLine
 10
15.509448
 20
57.120787
 30
0.0
 11
15.571448
 21
57.120787
 31
0.0
  0
LINE
  5
93C
330
1E
100
AcDbEntity
  8
OBJECT
100
AcDbLine
 10
15.571448
 20
57.120787
 30
0.0
 11
15.509448
 21
57.120787
 31
0.0
  0
LINE
  5
93D
330
1E
100
AcDbEntity
  8
OBJECT
100
AcDbLine
 10
15.603448
 20
57.120787
 30
0.0
 11
15.603448
 21
58.620787
 31
0.0
  0
LINE
  5
93E
330
1E
100
AcDbEntity
  8
OBJECT
100
AcDbLine
 10
15.571448
 20
57.120787
 30
0.0
 11
15.571448
 21
58.558787
 31
0.0
  0
LINE
  5
93F
330
1E
100
AcDbEntity
  8
OBJECT
100
AcDbLine
 10
15.134448
 20
56.120787
 30
0.0
 11
15.134448
 21
59.620787
 31
0.0
  0
LINE
  5
940
330
1E
100
AcDbEntity
  8
OBJECT
100
AcDbLine
 10
15.072448
 20
56.120787
 30
0.0
 11
15.072448
 21
56.495787
 31
0.0
  0
LINE
  5
941
330
1E
100
AcDbEntity
  8
HIDDEN
100
AcDbLine
 10
14.931448
 20
57.698787
 30
0.0
 11
14.931448
 21
58.042787
 31
0.0
  0
LINE
  5
942
330
1E
100
AcDbEntity
  8
HIDDEN
100
AcDbLine
 10
15.072448
 20
57.698787
 30
0.0
 11
14.931448
 21
57.698787
 31
0.0
  0
LINE
  5
943
330
1E
100
AcDbEntity
  8
HIDDEN
100
AcDbLine
 10
15.072448
 20
58.042787
 30
0.0
 11
14.931448
 21
58.042787
 31
0.0
  0
LINE
  5
944
330
1E
100
AcDbEntity
  8
HIDDEN
100
AcDbLine
 10
15.040448
 20
57.698787
 30
0.0
 11
15.040448
 21
58.042787
 31
0.0
  0
LINE
  5
945
330
1E
100
AcDbEntity
  8
HIDDEN
100
AcDbLine
 10
14.931448
 20
57.78878699999999
 30
0.0
 11
14.821448
 21
57.78878699999999
 31
0.0
  0
LINE
  5
946
330
1E
100
AcDbEntity
  8
HIDDEN
100
AcDbLine
 10
14.931448
 20
57.952787
 30
0.0
 11
14.821448
 21
57.952787
 31
0.0
  0
LINE
  5
947
330
1E
100
AcDbEntity
  8
HIDDEN
100
AcDbLine
 10
14.821448
 20
57.952787
 30
0.0
 11
14.821448
 21
57.78878699999999
 31
0.0
  0
ARC
  5
948
330
1E
100
AcDbEntity
  8
OBJECT
100
AcDbCircle
 10
15.400448
 20
58.206787
 30
0.0
 40
0.109
100
AcDbArc
 50
0.0
 51
90.0
  0
LINE
  5
949
330
1E
100
AcDbEntity
  8
OBJECT
100
AcDbLine
 10
15.403579
 20
57.671365
 30
0.0
 11
15.403579
 21
57.870787
 31
0.0
  0
LINE
  5
94A
330
1E
100
AcDbEntity
  8
OBJECT
100
AcDbLine
 10
15.212948
 20
57.671365
 30
0.0
 11
15.403579
 21
57.671365
 31
0.0
  0
LINE
  5
94B
330
1E
100
AcDbEntity
  8
OBJECT
100
AcDbLine
 10
15.212948
 20
57.33128699999999
 30
0.0
 11
15.212948
 21
57.671365
 31
0.0
  0
LINE
  5
94C
330
1E
100
AcDbEntity
  8
OBJECT
100
AcDbLine
 10
15.399948
 20
57.33128699999999
 30
0.0
 11
15.212948
 21
57.33128699999999
 31
0.0
  0
LINE
  5
94D
330
1E
100
AcDbEntity
  8
OBJECT
100
AcDbLine
 10
15.403579
 20
58.07020999999999
 30
0.0
 11
15.403579
 21
57.870787
 31
0.0
  0
LINE
  5
94E
330
1E
100
AcDbEntity
  8
OBJECT
100
AcDbLine
 10
15.212948
 20
58.07020999999999
 30
0.0
 11
15.403579
 21
58.07020999999999
 31
0.0
  0
LINE
  5
94F
330
1E
100
AcDbEntity
  8
OBJECT
100
AcDbLine
 10
15.212948
 20
58.41028699999999
 30
0.0
 11
15.212948
 21
58.07020999999999
 31
0.0
  0
LINE
  5
950
330
1E
100
AcDbEntity
  8
OBJECT
100
AcDbLine
 10
15.399948
 20
58.41028699999999
 30
0.0
 11
15.212948
 21
58.41028699999999
 31
0.0
  0
LINE
  5
951
330
1E
100
AcDbEntity
  8
OBJECT
100
AcDbLine
 10
15.23531
 20
57.48778699999999
 30
0.0
 11
15.23531
 21
57.425787
 31
0.0
  0
LINE
  5
952
330
1E
100
AcDbEntity
  8
OBJECT
100
AcDbLine
 10
15.23531
 20
58.315787
 30
0.0
 11
15.23531
 21
58.253787
 31
0.0
  0
ARC
  5
953
330
1E
100
AcDbEntity
  8
OBJECT
100
AcDbCircle
 10
15.399448
 20
57.534787
 30
0.0
 40
0.047
100
AcDbArc
 50
270.0
 51
0.0
  0
ARC
  5
954
330
1E
100
AcDbEntity
  8
OBJECT
100
AcDbCircle
 10
15.399448
 20
58.206787
 30
0.0
 40
0.047
100
AcDbArc
 50
0.0
 51
90.0
  0
ARC
  5
955
330
1E
100
AcDbEntity
  8
OBJECT
100
AcDbCircle
 10
15.400448
 20
57.534787
 30
0.0
 40
0.109
100
AcDbArc
 50
270.0
 51
0.0
  0
LINE
  5
956
330
1E
100
AcDbEntity
  8
OBJECT
100
AcDbLine
 10
15.399448
 20
58.253787
 30
0.0
 11
15.23531
 21
58.253787
 31
0.0
  0
LINE
  5
957
330
1E
100
AcDbEntity
  8
OBJECT
100
AcDbLine
 10
15.399448
 20
57.48778699999999
 30
0.0
 11
15.23531
 21
57.48778699999999
 31
0.0
  0
LINE
  5
958
330
1E
100
AcDbEntity
  8
OBJECT
100
AcDbLine
 10
15.400448
 20
57.425787
 30
0.0
 11
15.23531
 21
57.425787
 31
0.0
  0
LINE
  5
959
330
1E
100
AcDbEntity
  8
OBJECT
100
AcDbLine
 10
15.400448
 20
58.315787
 30
0.0
 11
15.23531
 21
58.315787
 31
0.0
  0
LINE
  5
95A
330
1E
100
AcDbEntity
  8
OBJECT
100
AcDbLine
 10
15.446448
 20
58.206787
 30
0.0
 11
15.446448
 21
57.534787
 31
0.0
  0
CIRCLE
  5
95B
330
1E
100
AcDbEntity
  8
OBJECT
100
AcDbCircle
 10
15.306448
 20
58.41028699999999
 30
0.0
 40
0.0935
  0
CIRCLE
  5
95C
330
1E
100
AcDbEntity
  8
OBJECT
100
AcDbCircle
 10
15.306448
 20
57.33128699999999
 30
0.0
 40
0.0935
  0
LINE
  5
95D
330
1E
100
AcDbEntity
  8
OBJECT
100
AcDbLine
 10
15.44494
 20
57.245787
 30
0.0
 11
15.395018
 21
57.282555
 31
0.0
  0
LINE
  5
95E
330
1E
100
AcDbEntity
  8
OBJECT
100
AcDbLine
 10
15.44494
 20
58.495787
 30
0.0
 11
15.397755
 21
58.462003
 31
0.0
  0
ARC
  5
95F
330
1E
100
AcDbEntity
  8
OBJECT
100
AcDbCircle
 10
15.316448
 20
58.403787
 30
0.0
 40
0.1
100
AcDbArc
 50
35.602609
 51
90.0
  0
ARC
  5
960
330
1E
100
AcDbEntity
  8
OBJECT
100
AcDbCircle
 10
15.306448
 20
57.34778699999999
 30
0.0
 40
0.11
100
AcDbArc
 50
270.0
 51
323.628158
  0
ARC
  5
961
330
1E
100
AcDbEntity
  8
OBJECT
100
AcDbCircle
 10
15.306448
 20
57.34778699999999
 30
0.0
 40
0.11
100
AcDbArc
 50
180.0
 51
270.0
  0
ARC
  5
962
330
1E
100
AcDbEntity
  8
OBJECT
100
AcDbCircle
 10
15.306448
 20
58.393787
 30
0.0
 40
0.11
100
AcDbArc
 50
90.0
 51
180.0
  0
ARC
  5
963
330
1E
100
AcDbEntity
  8
OBJECT
100
AcDbCircle
 10
15.306448
 20
58.393787
 30
0.0
 40
0.172
100
AcDbArc
 50
90.0
 51
180.0
  0
ARC
  5
964
330
1E
100
AcDbEntity
  8
OBJECT
100
AcDbCircle
 10
15.306448
 20
57.34778699999999
 30
0.0
 40
0.172
100
AcDbArc
 50
180.0
 51
270.0
  0
ARC
  5
965
330
1E
100
AcDbEntity
  8
OBJECT
100
AcDbCircle
 10
15.306448
 20
57.34778699999999
 30
0.0
 40
0.172
100
AcDbArc
 50
270.0
 51
323.628158
  0
ARC
  5
966
330
1E
100
AcDbEntity
  8
OBJECT
100
AcDbCircle
 10
15.306448
 20
58.393787
 30
0.0
 40
0.172
100
AcDbArc
 50
36.371842
 51
90.0
  0
LINE
  5
967
330
1E
100
AcDbEntity
  8
OBJECT
100
AcDbLine
 10
15.306448
 20
57.237787
 30
0.0
 11
15.306448
 21
57.237787
 31
0.0
  0
LINE
  5
968
330
1E
100
AcDbEntity
  8
OBJECT
100
AcDbLine
 10
15.316448
 20
58.503787
 30
0.0
 11
15.306448
 21
58.503787
 31
0.0
  0
LINE
  5
969
330
1E
100
AcDbEntity
  8
OBJECT
100
AcDbLine
 10
15.196448
 20
58.393787
 30
0.0
 11
15.196448
 21
57.34778699999999
 31
0.0
  0
LINE
  5
96A
330
1E
100
AcDbEntity
  8
OBJECT
100
AcDbLine
 10
15.306448
 20
57.175787
 30
0.0
 11
15.306448
 21
57.175787
 31
0.0
  0
LINE
  5
96B
330
1E
100
AcDbEntity
  8
OBJECT
100
AcDbLine
 10
15.306448
 20
58.565787
 30
0.0
 11
15.306448
 21
58.565787
 31
0.0
  0
LINE
  5
96C
330
1E
100
AcDbEntity
  8
OBJECT
100
AcDbLine
 10
15.134448
 20
58.393787
 30
0.0
 11
15.134448
 21
57.34778699999999
 31
0.0
  0
LINE
  5
96D
330
1E
100
AcDbEntity
  8
HIDDEN
100
AcDbLine
 10
15.822448
 20
57.78878699999999
 30
0.0
 11
15.822448
 21
57.952787
 31
0.0
  0
LINE
  5
96E
330
1E
100
AcDbEntity
  8
HIDDEN
100
AcDbLine
 10
15.712448
 20
57.78878699999999
 30
0.0
 11
15.822448
 21
57.78878699999999
 31
0.0
  0
LINE
  5
96F
330
1E
100
AcDbEntity
  8
HIDDEN
100
AcDbLine
 10
15.712448
 20
57.952787
 30
0.0
 11
15.822448
 21
57.952787
 31
0.0
  0
LINE
  5
970
330
1E
100
AcDbEntity
  8
HIDDEN
100
AcDbLine
 10
15.603448
 20
58.042787
 30
0.0
 11
15.603448
 21
57.698787
 31
0.0
  0
LINE
  5
971
330
1E
100
AcDbEntity
  8
HIDDEN
100
AcDbLine
 10
15.571448
 20
57.698787
 30
0.0
 11
15.712448
 21
57.698787
 31
0.0
  0
LINE
  5
972
330
1E
100
AcDbEntity
  8
HIDDEN
100
AcDbLine
 10
15.571448
 20
58.042787
 30
0.0
 11
15.712448
 21
58.042787
 31
0.0
  0
LINE
  5
973
330
1E
100
AcDbEntity
  8
HIDDEN
100
AcDbLine
 10
15.712448
 20
58.042787
 30
0.0
 11
15.712448
 21
57.698787
 31
0.0
  0
LINE
  5
974
330
1E
100
AcDbEntity
  8
HIDDEN
100
AcDbLine
 10
50.950157
 20
57.175787
 30
0.0
 11
50.950157
 21
58.565787
 31
0.0
  0
LINE
  5
975
330
1E
100
AcDbEntity
  8
HIDDEN
100
AcDbLine
 10
76.95015699999999
 20
57.175787
 30
0.0
 11
76.95015699999999
 21
58.565787
 31
0.0
  0
LINE
  5
976
330
1E
100
AcDbEntity
  8
OBJECT
100
AcDbLine
 10
50.794157
 20
76.236327
 30
0.0
 11
77.10615699999999
 21
76.236327
 31
0.0
  0
LINE
  5
977
330
1E
100
AcDbEntity
  8
OBJECT
100
AcDbLine
 10
50.950157
 20
75.861327
 30
0.0
 11
74.67365699999999
 21
75.861327
 31
0.0
  0
LINE
  5
978
330
1E
100
AcDbEntity
  8
CENTER
100
AcDbLine
 10
51.95015699999999
 20
76.771631
 30
0.0
 11
51.95015699999999
 21
76.298327
 31
0.0
  0
LINE
  5
979
330
1E
100
AcDbEntity
  8
HIDDEN
100
AcDbLine
 10
76.03215699999999
 20
76.459327
 30
0.0
 11
76.03215699999999
 21
76.548327
 31
0.0
  0
LINE
  5
97A
330
1E
100
AcDbEntity
  8
HIDDEN
100
AcDbLine
 10
75.86815699999999
 20
76.459327
 30
0.0
 11
75.86815699999999
 21
76.548327
 31
0.0
  0
LINE
  5
97B
330
1E
100
AcDbEntity
  8
HIDDEN
100
AcDbLine
 10
76.148657
 20
76.444027
 30
0.0
 11
76.148657
 21
76.344626
 31
0.0
  0
LINE
  5
97C
330
1E
100
AcDbEntity
  8
HIDDEN
100
AcDbLine
 10
75.75165699999999
 20
76.444027
 30
0.0
 11
75.75165699999999
 21
76.344626
 31
0.0
  0
LINE
  5
97D
330
1E
100
AcDbEntity
  8
HIDDEN
100
AcDbLine
 10
76.04946099999999
 20
76.444027
 30
0.0
 11
76.04946099999999
 21
76.344626
 31
0.0
  0
LINE
  5
97E
330
1E
100
AcDbEntity
  8
HIDDEN
100
AcDbLine
 10
75.850853
 20
76.444027
 30
0.0
 11
75.850853
 21
76.344626
 31
0.0
  0
ARC
  5
97F
330
1E
100
AcDbEntity
  8
HIDDEN
100
AcDbCircle
 10
75.95015699999999
 20
76.129406
 30
0.0
 40
0.32992
100
AcDbArc
 50
72.48264499999999
 51
107.517355
  0
ARC
  5
980
330
1E
100
AcDbEntity
  8
HIDDEN
100
AcDbCircle
 10
76.099059
 20
76.371285
 30
0.0
 40
0.088042
100
AcDbArc
 50
55.71246500000001
 51
124.287535
  0
ARC
  5
981
330
1E
100
AcDbEntity
  8
HIDDEN
100
AcDbCircle
 10
75.801255
 20
76.371285
 30
0.0
 40
0.088042
100
AcDbArc
 50
55.71246500000001
 51
124.287535
  0
LINE
  5
982
330
1E
100
AcDbEntity
  8
HIDDEN
100
AcDbLine
 10
76.099059
 20
76.459327
 30
0.0
 11
75.801255
 21
76.459327
 31
0.0
  0
ARC
  5
983
330
1E
100
AcDbEntity
  8
HIDDEN
100
AcDbCircle
 10
75.801255
 20
76.41736800000001
 30
0.0
 40
0.088042
100
AcDbArc
 50
235.712465
 51
304.287535
  0
ARC
  5
984
330
1E
100
AcDbEntity
  8
HIDDEN
100
AcDbCircle
 10
76.099059
 20
76.41736800000001
 30
0.0
 40
0.088042
100
AcDbArc
 50
235.712465
 51
304.287535
  0
ARC
  5
985
330
1E
100
AcDbEntity
  8
HIDDEN
100
AcDbCircle
 10
75.95015699999999
 20
76.65924699999999
 30
0.0
 40
0.32992
100
AcDbArc
 50
252.482645
 51
287.5173549999999
  0
LINE
  5
986
330
1E
100
AcDbEntity
  8
HIDDEN
100
AcDbLine
 10
76.122157
 20
76.32932700000001
 30
0.0
 11
76.122157
 21
76.298327
 31
0.0
  0
LINE
  5
987
330
1E
100
AcDbEntity
  8
HIDDEN
100
AcDbLine
 10
75.77815699999999
 20
76.32932700000001
 30
0.0
 11
75.77815699999999
 21
76.298327
 31
0.0
  0
LINE
  5
988
330
1E
100
AcDbEntity
  8
HIDDEN
100
AcDbLine
 10
76.122157
 20
76.32932700000001
 30
0.0
 11
75.77815699999999
 21
76.32932700000001
 31
0.0
  0
LINE
  5
989
330
1E
100
AcDbEntity
  8
HIDDEN
100
AcDbLine
 10
76.03215699999999
 20
76.298327
 30
0.0
 11
76.03215699999999
 21
76.32932700000001
 31
0.0
  0
LINE
  5
98A
330
1E
100
AcDbEntity
  8
HIDDEN
100
AcDbLine
 10
75.86815699999999
 20
76.298327
 30
0.0
 11
75.86815699999999
 21
76.32932700000001
 31
0.0
  0
LINE
  5
98B
330
1E
100
AcDbEntity
  8
HIDDEN
100
AcDbLine
 10
76.03215699999999
 20
76.548327
 30
0.0
 11
75.86815699999999
 21
76.548327
 31
0.0
  0
LINE
  5
98C
330
1E
100
AcDbEntity
  8
HIDDEN
100
AcDbLine
 10
76.00115699999999
 20
76.548327
 30
0.0
 11
75.89915699999998
 21
76.548327
 31
0.0
  0
LINE
  5
98D
330
1E
100
AcDbEntity
  8
HIDDEN
100
AcDbLine
 10
76.00115699999999
 20
76.548327
 30
0.0
 11
75.89915699999998
 21
76.548327
 31
0.0
  0
LINE
  5
98E
330
1E
100
AcDbEntity
  8
HIDDEN
100
AcDbLine
 10
76.03215699999999
 20
76.548327
 30
0.0
 11
75.86815699999999
 21
76.548327
 31
0.0
  0
LINE
  5
98F
330
1E
100
AcDbEntity
  8
HIDDEN
100
AcDbLine
 10
75.86815699999999
 20
76.298327
 30
0.0
 11
75.86815699999999
 21
76.32932700000001
 31
0.0
  0
LINE
  5
990
330
1E
100
AcDbEntity
  8
HIDDEN
100
AcDbLine
 10
76.03215699999999
 20
76.298327
 30
0.0
 11
76.03215699999999
 21
76.32932700000001
 31
0.0
  0
LINE
  5
991
330
1E
100
AcDbEntity
  8
HIDDEN
100
AcDbLine
 10
76.122157
 20
76.32932700000001
 30
0.0
 11
75.77815699999999
 21
76.32932700000001
 31
0.0
  0
LINE
  5
992
330
1E
100
AcDbEntity
  8
HIDDEN
100
AcDbLine
 10
76.099059
 20
76.32932700000001
 30
0.0
 11
75.801255
 21
76.32932700000001
 31
0.0
  0
LINE
  5
993
330
1E
100
AcDbEntity
  8
HIDDEN
100
AcDbLine
 10
75.77815699999999
 20
76.32932700000001
 30
0.0
 11
75.77815699999999
 21
76.298327
 31
0.0
  0
LINE
  5
994
330
1E
100
AcDbEntity
  8
HIDDEN
100
AcDbLine
 10
76.122157
 20
76.32932700000001
 30
0.0
 11
76.122157
 21
76.298327
 31
0.0
  0
ARC
  5
995
330
1E
100
AcDbEntity
  8
HIDDEN
100
AcDbCircle
 10
75.95015699999999
 20
76.65924699999999
 30
0.0
 40
0.32992
100
AcDbArc
 50
252.482645
 51
287.5173549999999
  0
ARC
  5
996
330
1E
100
AcDbEntity
  8
HIDDEN
100
AcDbCircle
 10
76.099059
 20
76.41736800000001
 30
0.0
 40
0.088042
100
AcDbArc
 50
235.712465
 51
304.287535
  0
ARC
  5
997
330
1E
100
AcDbEntity
  8
HIDDEN
100
AcDbCircle
 10
75.801255
 20
76.41736800000001
 30
0.0
 40
0.088042
100
AcDbArc
 50
235.712465
 51
304.287535
  0
LINE
  5
998
330
1E
100
AcDbEntity
  8
HIDDEN
100
AcDbLine
 10
76.099059
 20
76.459327
 30
0.0
 11
75.801255
 21
76.459327
 31
0.0
  0
ARC
  5
999
330
1E
100
AcDbEntity
  8
HIDDEN
100
AcDbCircle
 10
75.801255
 20
76.371285
 30
0.0
 40
0.088042
100
AcDbArc
 50
55.71246500000001
 51
124.287535
  0
ARC
  5
99A
330
1E
100
AcDbEntity
  8
HIDDEN
100
AcDbCircle
 10
76.099059
 20
76.371285
 30
0.0
 40
0.088042
100
AcDbArc
 50
55.71246500000001
 51
124.287535
  0
ARC
  5
99B
330
1E
100
AcDbEntity
  8
HIDDEN
100
AcDbCircle
 10
75.95015699999999
 20
76.129406
 30
0.0
 40
0.32992
100
AcDbArc
 50
72.48264499999999
 51
107.517355
  0
LINE
  5
99C
330
1E
100
AcDbEntity
  8
HIDDEN
100
AcDbLine
 10
75.850853
 20
76.444027
 30
0.0
 11
75.850853
 21
76.344626
 31
0.0
  0
LINE
  5
99D
330
1E
100
AcDbEntity
  8
HIDDEN
100
AcDbLine
 10
76.04946099999999
 20
76.444027
 30
0.0
 11
76.04946099999999
 21
76.344626
 31
0.0
  0
LINE
  5
99E
330
1E
100
AcDbEntity
  8
HIDDEN
100
AcDbLine
 10
75.75165699999999
 20
76.444027
 30
0.0
 11
75.75165699999999
 21
76.344626
 31
0.0
  0
LINE
  5
99F
330
1E
100
AcDbEntity
  8
HIDDEN
100
AcDbLine
 10
76.148657
 20
76.444027
 30
0.0
 11
76.148657
 21
76.344626
 31
0.0
  0
LINE
  5
9A0
330
1E
100
AcDbEntity
  8
HIDDEN
100
AcDbLine
 10
75.86815699999999
 20
76.459327
 30
0.0
 11
75.86815699999999
 21
76.548327
 31
0.0
  0
LINE
  5
9A1
330
1E
100
AcDbEntity
  8
HIDDEN
100
AcDbLine
 10
76.03215699999999
 20
76.459327
 30
0.0
 11
76.03215699999999
 21
76.548327
 31
0.0
  0
LINE
  5
9A2
330
1E
100
AcDbEntity
  8
CENTER
100
AcDbLine
 10
75.95015699999999
 20
76.708625
 30
0.0
 11
75.95015699999999
 21
76.298327
 31
0.0
  0
LINE
  5
9A3
330
1E
100
AcDbEntity
  8
HIDDEN
100
AcDbLine
 10
52.032157
 20
76.459327
 30
0.0
 11
52.032157
 21
76.548327
 31
0.0
  0
LINE
  5
9A4
330
1E
100
AcDbEntity
  8
HIDDEN
100
AcDbLine
 10
51.868157
 20
76.459327
 30
0.0
 11
51.868157
 21
76.548327
 31
0.0
  0
LINE
  5
9A5
330
1E
100
AcDbEntity
  8
HIDDEN
100
AcDbLine
 10
52.148657
 20
76.444027
 30
0.0
 11
52.148657
 21
76.344626
 31
0.0
  0
LINE
  5
9A6
330
1E
100
AcDbEntity
  8
HIDDEN
100
AcDbLine
 10
51.751657
 20
76.444027
 30
0.0
 11
51.751657
 21
76.344626
 31
0.0
  0
LINE
  5
9A7
330
1E
100
AcDbEntity
  8
HIDDEN
100
AcDbLine
 10
52.049461
 20
76.444027
 30
0.0
 11
52.049461
 21
76.344626
 31
0.0
  0
LINE
  5
9A8
330
1E
100
AcDbEntity
  8
HIDDEN
100
AcDbLine
 10
51.850853
 20
76.444027
 30
0.0
 11
51.850853
 21
76.344626
 31
0.0
  0
ARC
  5
9A9
330
1E
100
AcDbEntity
  8
HIDDEN
100
AcDbCircle
 10
51.95015699999999
 20
76.129406
 30
0.0
 40
0.32992
100
AcDbArc
 50
72.48264499999999
 51
107.517355
  0
ARC
  5
9AA
330
1E
100
AcDbEntity
  8
HIDDEN
100
AcDbCircle
 10
52.099059
 20
76.371285
 30
0.0
 40
0.088042
100
AcDbArc
 50
55.71246500000001
 51
124.287535
  0
ARC
  5
9AB
330
1E
100
AcDbEntity
  8
HIDDEN
100
AcDbCircle
 10
51.80125499999999
 20
76.371285
 30
0.0
 40
0.088042
100
AcDbArc
 50
55.71246500000001
 51
124.287535
  0
LINE
  5
9AC
330
1E
100
AcDbEntity
  8
HIDDEN
100
AcDbLine
 10
52.099059
 20
76.459327
 30
0.0
 11
51.80125499999999
 21
76.459327
 31
0.0
  0
ARC
  5
9AD
330
1E
100
AcDbEntity
  8
HIDDEN
100
AcDbCircle
 10
51.80125499999999
 20
76.41736800000001
 30
0.0
 40
0.088042
100
AcDbArc
 50
235.712465
 51
304.287535
  0
ARC
  5
9AE
330
1E
100
AcDbEntity
  8
HIDDEN
100
AcDbCircle
 10
52.099059
 20
76.41736800000001
 30
0.0
 40
0.088042
100
AcDbArc
 50
235.712465
 51
304.287535
  0
ARC
  5
9AF
330
1E
100
AcDbEntity
  8
HIDDEN
100
AcDbCircle
 10
51.95015699999999
 20
76.65924699999999
 30
0.0
 40
0.32992
100
AcDbArc
 50
252.482645
 51
287.5173549999999
  0
LINE
  5
9B0
330
1E
100
AcDbEntity
  8
HIDDEN
100
AcDbLine
 10
52.122157
 20
76.32932700000001
 30
0.0
 11
52.122157
 21
76.298327
 31
0.0
  0
LINE
  5
9B1
330
1E
100
AcDbEntity
  8
HIDDEN
100
AcDbLine
 10
51.778157
 20
76.32932700000001
 30
0.0
 11
51.778157
 21
76.298327
 31
0.0
  0
LINE
  5
9B2
330
1E
100
AcDbEntity
  8
HIDDEN
100
AcDbLine
 10
52.122157
 20
76.32932700000001
 30
0.0
 11
51.778157
 21
76.32932700000001
 31
0.0
  0
LINE
  5
9B3
330
1E
100
AcDbEntity
  8
HIDDEN
100
AcDbLine
 10
52.032157
 20
76.298327
 30
0.0
 11
52.032157
 21
76.32932700000001
 31
0.0
  0
LINE
  5
9B4
330
1E
100
AcDbEntity
  8
HIDDEN
100
AcDbLine
 10
51.868157
 20
76.298327
 30
0.0
 11
51.868157
 21
76.32932700000001
 31
0.0
  0
LINE
  5
9B5
330
1E
100
AcDbEntity
  8
HIDDEN
100
AcDbLine
 10
52.032157
 20
76.548327
 30
0.0
 11
51.868157
 21
76.548327
 31
0.0
  0
LINE
  5
9B6
330
1E
100
AcDbEntity
  8
HIDDEN
100
AcDbLine
 10
52.001157
 20
76.548327
 30
0.0
 11
51.899157
 21
76.548327
 31
0.0
  0
LINE
  5
9B7
330
1E
100
AcDbEntity
  8
HIDDEN
100
AcDbLine
 10
52.001157
 20
76.548327
 30
0.0
 11
51.899157
 21
76.548327
 31
0.0
  0
LINE
  5
9B8
330
1E
100
AcDbEntity
  8
HIDDEN
100
AcDbLine
 10
52.032157
 20
76.548327
 30
0.0
 11
51.868157
 21
76.548327
 31
0.0
  0
LINE
  5
9B9
330
1E
100
AcDbEntity
  8
HIDDEN
100
AcDbLine
 10
51.868157
 20
76.298327
 30
0.0
 11
51.868157
 21
76.32932700000001
 31
0.0
  0
LINE
  5
9BA
330
1E
100
AcDbEntity
  8
HIDDEN
100
AcDbLine
 10
52.032157
 20
76.298327
 30
0.0
 11
52.032157
 21
76.32932700000001
 31
0.0
  0
LINE
  5
9BB
330
1E
100
AcDbEntity
  8
HIDDEN
100
AcDbLine
 10
52.122157
 20
76.32932700000001
 30
0.0
 11
51.778157
 21
76.32932700000001
 31
0.0
  0
LINE
  5
9BC
330
1E
100
AcDbEntity
  8
HIDDEN
100
AcDbLine
 10
52.099059
 20
76.32932700000001
 30
0.0
 11
51.80125499999999
 21
76.32932700000001
 31
0.0
  0
LINE
  5
9BD
330
1E
100
AcDbEntity
  8
HIDDEN
100
AcDbLine
 10
51.778157
 20
76.32932700000001
 30
0.0
 11
51.778157
 21
76.298327
 31
0.0
  0
LINE
  5
9BE
330
1E
100
AcDbEntity
  8
HIDDEN
100
AcDbLine
 10
52.122157
 20
76.32932700000001
 30
0.0
 11
52.122157
 21
76.298327
 31
0.0
  0
ARC
  5
9BF
330
1E
100
AcDbEntity
  8
HIDDEN
100
AcDbCircle
 10
51.95015699999999
 20
76.65924699999999
 30
0.0
 40
0.32992
100
AcDbArc
 50
252.482645
 51
287.5173549999999
  0
ARC
  5
9C0
330
1E
100
AcDbEntity
  8
HIDDEN
100
AcDbCircle
 10
52.099059
 20
76.41736800000001
 30
0.0
 40
0.088042
100
AcDbArc
 50
235.712465
 51
304.287535
  0
ARC
  5
9C1
330
1E
100
AcDbEntity
  8
HIDDEN
100
AcDbCircle
 10
51.80125499999999
 20
76.41736800000001
 30
0.0
 40
0.088042
100
AcDbArc
 50
235.712465
 51
304.287535
  0
LINE
  5
9C2
330
1E
100
AcDbEntity
  8
HIDDEN
100
AcDbLine
 10
52.099059
 20
76.459327
 30
0.0
 11
51.80125499999999
 21
76.459327
 31
0.0
  0
ARC
  5
9C3
330
1E
100
AcDbEntity
  8
HIDDEN
100
AcDbCircle
 10
51.80125499999999
 20
76.371285
 30
0.0
 40
0.088042
100
AcDbArc
 50
55.71246500000001
 51
124.287535
  0
ARC
  5
9C4
330
1E
100
AcDbEntity
  8
HIDDEN
100
AcDbCircle
 10
52.099059
 20
76.371285
 30
0.0
 40
0.088042
100
AcDbArc
 50
55.71246500000001
 51
124.287535
  0
ARC
  5
9C5
330
1E
100
AcDbEntity
  8
HIDDEN
100
AcDbCircle
 10
51.95015699999999
 20
76.129406
 30
0.0
 40
0.32992
100
AcDbArc
 50
72.48264499999999
 51
107.517355
  0
LINE
  5
9C6
330
1E
100
AcDbEntity
  8
HIDDEN
100
AcDbLine
 10
51.850853
 20
76.444027
 30
0.0
 11
51.850853
 21
76.344626
 31
0.0
  0
LINE
  5
9C7
330
1E
100
AcDbEntity
  8
HIDDEN
100
AcDbLine
 10
52.049461
 20
76.444027
 30
0.0
 11
52.049461
 21
76.344626
 31
0.0
  0
LINE
  5
9C8
330
1E
100
AcDbEntity
  8
HIDDEN
100
AcDbLine
 10
51.751657
 20
76.444027
 30
0.0
 11
51.751657
 21
76.344626
 31
0.0
  0
LINE
  5
9C9
330
1E
100
AcDbEntity
  8
HIDDEN
100
AcDbLine
 10
52.148657
 20
76.444027
 30
0.0
 11
52.148657
 21
76.344626
 31
0.0
  0
LINE
  5
9CA
330
1E
100
AcDbEntity
  8
HIDDEN
100
AcDbLine
 10
51.868157
 20
76.459327
 30
0.0
 11
51.868157
 21
76.548327
 31
0.0
  0
LINE
  5
9CB
330
1E
100
AcDbEntity
  8
HIDDEN
100
AcDbLine
 10
52.032157
 20
76.459327
 30
0.0
 11
52.032157
 21
76.548327
 31
0.0
  0
LINE
  5
9CC
330
1E
100
AcDbEntity
  8
CENTER
100
AcDbLine
 10
51.95015699999999
 20
76.236327
 30
0.0
 11
51.95015699999999
 21
76.003372
 31
0.0
  0
LINE
  5
9CD
330
1E
100
AcDbEntity
  8
CENTER
100
AcDbLine
 10
55.950157
 20
76.236327
 30
0.0
 11
55.950157
 21
76.003372
 31
0.0
  0
LINE
  5
9CE
330
1E
100
AcDbEntity
  8
CENTER
100
AcDbLine
 10
75.95015699999999
 20
76.236327
 30
0.0
 11
75.95015699999999
 21
76.003372
 31
0.0
  0
LINE
  5
9CF
330
1E
100
AcDbEntity
  8
CENTER
100
AcDbLine
 10
74.993657
 20
75.52943899999999
 30
0.0
 11
74.993657
 21
75.767577
 31
0.0
  0
LINE
  5
9D0
330
1E
100
AcDbEntity
  8
OBJECT
100
AcDbLine
 10
76.916657
 20
75.267577
 30
0.0
 11
76.916657
 21
75.767577
 31
0.0
  0
LINE
  5
9D1
330
1E
100
AcDbEntity
  8
OBJECT
100
AcDbLine
 10
76.791657
 20
75.142577
 30
0.0
 11
75.44765699999999
 21
75.142577
 31
0.0
  0
LINE
  5
9D2
330
1E
100
AcDbEntity
  8
OBJECT
100
AcDbLine
 10
75.32265699999999
 20
75.267577
 30
0.0
 11
75.32265699999999
 21
75.642577
 31
0.0
  0
LINE
  5
9D3
330
1E
100
AcDbEntity
  8
OBJECT
100
AcDbLine
 10
76.80765699999999
 20
75.267577
 30
0.0
 11
76.80765699999999
 21
75.767577
 31
0.0
  0
LINE
  5
9D4
330
1E
100
AcDbEntity
  8
OBJECT
100
AcDbLine
 10
75.431657
 20
75.267577
 30
0.0
 11
75.431657
 21
75.642577
 31
0.0
  0
LINE
  5
9D5
330
1E
100
AcDbEntity
  8
OBJECT
100
AcDbLine
 10
76.791657
 20
75.251577
 30
0.0
 11
75.44765699999999
 21
75.251577
 31
0.0
  0
LINE
  5
9D6
330
1E
100
AcDbEntity
  8
OBJECT
100
AcDbLine
 10
76.916657
 20
75.767577
 30
0.0
 11
76.80765699999999
 21
75.767577
 31
0.0
  0
LINE
  5
9D7
330
1E
100
AcDbEntity
  8
OBJECT
100
AcDbLine
 10
74.74365699999999
 20
75.65857700000001
 30
0.0
 11
74.74365699999999
 21
75.767577
 31
0.0
  0
LINE
  5
9D8
330
1E
100
AcDbEntity
  8
OBJECT
100
AcDbLine
 10
75.306657
 20
75.767577
 30
0.0
 11
74.74365699999999
 21
75.767577
 31
0.0
  0
LINE
  5
9D9
330
1E
100
AcDbEntity
  8
OBJECT
100
AcDbLine
 10
75.306657
 20
75.65857700000001
 30
0.0
 11
74.74365699999999
 21
75.65857700000001
 31
0.0
  0
ARC
  5
9DA
330
1E
100
AcDbEntity
  8
OBJECT
100
AcDbCircle
 10
76.791657
 20
75.267577
 30
0.0
 40
0.125
100
AcDbArc
 50
270.0
 51
0.0
  0
ARC
  5
9DB
330
1E
100
AcDbEntity
  8
OBJECT
100
AcDbCircle
 10
75.44765699999999
 20
75.267577
 30
0.0
 40
0.125
100
AcDbArc
 50
180.0
 51
270.0
  0
ARC
  5
9DC
330
1E
100
AcDbEntity
  8
OBJECT
100
AcDbCircle
 10
75.306657
 20
75.642577
 30
0.0
 40
0.125
100
AcDbArc
 50
0.0
 51
90.0
  0
ARC
  5
9DD
330
1E
100
AcDbEntity
  8
OBJECT
100
AcDbCircle
 10
76.791657
 20
75.267577
 30
0.0
 40
0.016
100
AcDbArc
 50
270.0
 51
0.0
  0
ARC
  5
9DE
330
1E
100
AcDbEntity
  8
OBJECT
100
AcDbCircle
 10
75.44765699999999
 20
75.267577
 30
0.0
 40
0.016
100
AcDbArc
 50
180.0
 51
270.0
  0
ARC
  5
9DF
330
1E
100
AcDbEntity
  8
OBJECT
100
AcDbCircle
 10
75.306657
 20
75.642577
 30
0.0
 40
0.016
100
AcDbArc
 50
0.0
 51
90.0
  0
ARC
  5
9E0
330
1E
100
AcDbEntity
  8
OBJECT
100
AcDbCircle
 10
52.262157
 20
75.642577
 30
0.0
 40
0.016
100
AcDbArc
 50
90.0
 51
180.0
  0
ARC
  5
9E1
330
1E
100
AcDbEntity
  8
OBJECT
100
AcDbCircle
 10
52.121157
 20
75.267577
 30
0.0
 40
0.016
100
AcDbArc
 50
270.0
 51
0.0
  0
ARC
  5
9E2
330
1E
100
AcDbEntity
  8
OBJECT
100
AcDbCircle
 10
50.777157
 20
75.267577
 30
0.0
 40
0.016
100
AcDbArc
 50
180.0
 51
270.0
  0
ARC
  5
9E3
330
1E
100
AcDbEntity
  8
OBJECT
100
AcDbCircle
 10
52.262157
 20
75.642577
 30
0.0
 40
0.125
100
AcDbArc
 50
90.0
 51
180.0
  0
ARC
  5
9E4
330
1E
100
AcDbEntity
  8
OBJECT
100
AcDbCircle
 10
52.121157
 20
75.267577
 30
0.0
 40
0.125
100
AcDbArc
 50
270.0
 51
0.0
  0
ARC
  5
9E5
330
1E
100
AcDbEntity
  8
OBJECT
100
AcDbCircle
 10
50.777157
 20
75.267577
 30
0.0
 40
0.125
100
AcDbArc
 50
180.0
 51
270.0
  0
LINE
  5
9E6
330
1E
100
AcDbEntity
  8
CENTER
100
AcDbLine
 10
52.57515699999999
 20
75.282464
 30
0.0
 11
52.57515699999999
 21
75.767577
 31
0.0
  0
LINE
  5
9E7
330
1E
100
AcDbEntity
  8
OBJECT
100
AcDbLine
 10
52.262157
 20
75.65857700000001
 30
0.0
 11
52.825157
 21
75.65857700000001
 31
0.0
  0
LINE
  5
9E8
330
1E
100
AcDbEntity
  8
OBJECT
100
AcDbLine
 10
52.262157
 20
75.767577
 30
0.0
 11
52.825157
 21
75.767577
 31
0.0
  0
LINE
  5
9E9
330
1E
100
AcDbEntity
  8
OBJECT
100
AcDbLine
 10
52.825157
 20
75.65857700000001
 30
0.0
 11
52.825157
 21
75.767577
 31
0.0
  0
LINE
  5
9EA
330
1E
100
AcDbEntity
  8
OBJECT
100
AcDbLine
 10
50.652157
 20
75.767577
 30
0.0
 11
50.76115699999999
 21
75.767577
 31
0.0
  0
LINE
  5
9EB
330
1E
100
AcDbEntity
  8
OBJECT
100
AcDbLine
 10
50.777157
 20
75.251577
 30
0.0
 11
52.121157
 21
75.251577
 31
0.0
  0
LINE
  5
9EC
330
1E
100
AcDbEntity
  8
OBJECT
100
AcDbLine
 10
52.137157
 20
75.267577
 30
0.0
 11
52.137157
 21
75.642577
 31
0.0
  0
LINE
  5
9ED
330
1E
100
AcDbEntity
  8
OBJECT
100
AcDbLine
 10
50.76115699999999
 20
75.267577
 30
0.0
 11
50.76115699999999
 21
75.767577
 31
0.0
  0
LINE
  5
9EE
330
1E
100
AcDbEntity
  8
OBJECT
100
AcDbLine
 10
52.24615700000001
 20
75.267577
 30
0.0
 11
52.24615700000001
 21
75.642577
 31
0.0
  0
LINE
  5
9EF
330
1E
100
AcDbEntity
  8
OBJECT
100
AcDbLine
 10
50.777157
 20
75.142577
 30
0.0
 11
52.121157
 21
75.142577
 31
0.0
  0
LINE
  5
9F0
330
1E
100
AcDbEntity
  8
OBJECT
100
AcDbLine
 10
50.652157
 20
75.267577
 30
0.0
 11
50.652157
 21
75.767577
 31
0.0
  0
LINE
  5
9F1
330
1E
100
AcDbEntity
  8
CENTER
100
AcDbLine
 10
55.950157
 20
75.528594
 30
0.0
 11
55.950157
 21
75.863359
 31
0.0
  0
LINE
  5
9F2
330
1E
100
AcDbEntity
  8
CENTER
100
AcDbLine
 10
52.57515699999999
 20
75.59593000000001
 30
0.0
 11
52.57515699999999
 21
75.861327
 31
0.0
  0
LINE
  5
9F3
330
1E
100
AcDbEntity
  8
CENTER
100
AcDbLine
 10
52.075157
 20
75.59593000000001
 30
0.0
 11
52.075157
 21
75.861327
 31
0.0
  0
LINE
  5
9F4
330
1E
100
AcDbEntity
  8
CENTER
100
AcDbLine
 10
51.575157
 20
75.54085500000001
 30
0.0
 11
51.575157
 21
75.861327
 31
0.0
  0
LINE
  5
9F5
330
1E
100
AcDbEntity
  8
OBJECT
100
AcDbLine
 10
50.950157
 20
76.236327
 30
0.0
 11
50.950157
 21
75.861327
 31
0.0
  0
LINE
  5
9F6
330
1E
100
AcDbEntity
  8
OBJECT
100
AcDbLine
 10
76.95015699999999
 20
75.861327
 30
0.0
 11
76.95015699999999
 21
76.236327
 31
0.0
  0
LINE
  5
9F7
330
1E
100
AcDbEntity
  8
OBJECT
100
AcDbLine
 10
50.70015699999999
 20
84.73632700000001
 30
0.0
 11
50.70015699999999
 21
76.330327
 31
0.0
  0
LINE
  5
9F8
330
1E
100
AcDbEntity
  8
OBJECT
100
AcDbLine
 10
77.20015699999999
 20
76.330327
 30
0.0
 11
77.20015699999999
 21
84.73632700000001
 31
0.0
  0
LINE
  5
9F9
330
1E
100
AcDbEntity
  8
HIDDEN
100
AcDbLine
 10
50.794157
 20
76.298327
 30
0.0
 11
77.10615699999999
 21
76.298327
 31
0.0
  0
LINE
  5
9FA
330
1E
100
AcDbEntity
  8
HIDDEN
100
AcDbLine
 10
50.762157
 20
84.73632700000001
 30
0.0
 11
50.762157
 21
76.330327
 31
0.0
  0
LINE
  5
9FB
330
1E
100
AcDbEntity
  8
HIDDEN
100
AcDbLine
 10
77.13815699999999
 20
76.330327
 30
0.0
 11
77.13815699999999
 21
84.73632700000001
 31
0.0
  0
LINE
  5
9FC
330
1E
100
AcDbEntity
  8
OBJECT
100
AcDbLine
 10
50.794157
 20
76.330327
 30
0.0
 11
50.794157
 21
76.236327
 31
0.0
  0
LINE
  5
9FD
330
1E
100
AcDbEntity
  8
OBJECT
100
AcDbLine
 10
50.70015699999999
 20
76.330327
 30
0.0
 11
50.794157
 21
76.330327
 31
0.0
  0
LINE
  5
9FE
330
1E
100
AcDbEntity
  8
OBJECT
100
AcDbLine
 10
77.10615699999999
 20
76.236327
 30
0.0
 11
77.10615699999999
 21
76.330327
 31
0.0
  0
LINE
  5
9FF
330
1E
100
AcDbEntity
  8
OBJECT
100
AcDbLine
 10
77.10615699999999
 20
76.330327
 30
0.0
 11
77.20015699999999
 21
76.330327
 31
0.0
  0
LINE
  5
A00
330
1E
100
AcDbEntity
  8
HIDDEN
100
AcDbLine
 10
50.70015699999999
 20
58.621287
 30
0.0
 11
57.83715700000001
 21
58.621287
 31
0.0
  0
LINE
  5
A01
330
1E
100
AcDbEntity
  8
CENTER
100
AcDbLine
 10
55.950157
 20
76.708625
 30
0.0
 11
55.950157
 21
76.298327
 31
0.0
  0
LINE
  5
A02
330
1E
100
AcDbEntity
  8
HIDDEN
100
AcDbLine
 10
56.03215699999999
 20
76.459327
 30
0.0
 11
56.03215699999999
 21
76.548327
 31
0.0
  0
LINE
  5
A03
330
1E
100
AcDbEntity
  8
HIDDEN
100
AcDbLine
 10
55.86815699999999
 20
76.459327
 30
0.0
 11
55.86815699999999
 21
76.548327
 31
0.0
  0
LINE
  5
A04
330
1E
100
AcDbEntity
  8
HIDDEN
100
AcDbLine
 10
56.14865699999999
 20
76.444027
 30
0.0
 11
56.14865699999999
 21
76.344626
 31
0.0
  0
LINE
  5
A05
330
1E
100
AcDbEntity
  8
HIDDEN
100
AcDbLine
 10
55.75165699999999
 20
76.444027
 30
0.0
 11
55.75165699999999
 21
76.344626
 31
0.0
  0
LINE
  5
A06
330
1E
100
AcDbEntity
  8
HIDDEN
100
AcDbLine
 10
56.049461
 20
76.444027
 30
0.0
 11
56.049461
 21
76.344626
 31
0.0
  0
LINE
  5
A07
330
1E
100
AcDbEntity
  8
HIDDEN
100
AcDbLine
 10
55.850853
 20
76.444027
 30
0.0
 11
55.850853
 21
76.344626
 31
0.0
  0
ARC
  5
A08
330
1E
100
AcDbEntity
  8
HIDDEN
100
AcDbCircle
 10
55.950157
 20
76.129406
 30
0.0
 40
0.32992
100
AcDbArc
 50
72.48264499999999
 51
107.517355
  0
ARC
  5
A09
330
1E
100
AcDbEntity
  8
HIDDEN
100
AcDbCircle
 10
56.099059
 20
76.371285
 30
0.0
 40
0.088042
100
AcDbArc
 50
55.71246500000001
 51
124.287535
  0
ARC
  5
A0A
330
1E
100
AcDbEntity
  8
HIDDEN
100
AcDbCircle
 10
55.80125500000001
 20
76.371285
 30
0.0
 40
0.088042
100
AcDbArc
 50
55.71246500000001
 51
124.287535
  0
LINE
  5
A0B
330
1E
100
AcDbEntity
  8
HIDDEN
100
AcDbLine
 10
56.099059
 20
76.459327
 30
0.0
 11
55.80125500000001
 21
76.459327
 31
0.0
  0
ARC
  5
A0C
330
1E
100
AcDbEntity
  8
HIDDEN
100
AcDbCircle
 10
55.80125500000001
 20
76.41736800000001
 30
0.0
 40
0.088042
100
AcDbArc
 50
235.712465
 51
304.287535
  0
ARC
  5
A0D
330
1E
100
AcDbEntity
  8
HIDDEN
100
AcDbCircle
 10
56.099059
 20
76.41736800000001
 30
0.0
 40
0.088042
100
AcDbArc
 50
235.712465
 51
304.287535
  0
ARC
  5
A0E
330
1E
100
AcDbEntity
  8
HIDDEN
100
AcDbCircle
 10
55.950157
 20
76.65924699999999
 30
0.0
 40
0.32992
100
AcDbArc
 50
252.482645
 51
287.5173549999999
  0
LINE
  5
A0F
330
1E
100
AcDbEntity
  8
HIDDEN
100
AcDbLine
 10
56.122157
 20
76.32932700000001
 30
0.0
 11
56.122157
 21
76.298327
 31
0.0
  0
LINE
  5
A10
330
1E
100
AcDbEntity
  8
HIDDEN
100
AcDbLine
 10
55.77815699999999
 20
76.32932700000001
 30
0.0
 11
55.77815699999999
 21
76.298327
 31
0.0
  0
LINE
  5
A11
330
1E
100
AcDbEntity
  8
HIDDEN
100
AcDbLine
 10
56.099059
 20
76.32932700000001
 30
0.0
 11
55.80125500000001
 21
76.32932700000001
 31
0.0
  0
LINE
  5
A12
330
1E
100
AcDbEntity
  8
HIDDEN
100
AcDbLine
 10
56.122157
 20
76.32932700000001
 30
0.0
 11
55.77815699999999
 21
76.32932700000001
 31
0.0
  0
LINE
  5
A13
330
1E
100
AcDbEntity
  8
HIDDEN
100
AcDbLine
 10
56.03215699999999
 20
76.298327
 30
0.0
 11
56.03215699999999
 21
76.32932700000001
 31
0.0
  0
LINE
  5
A14
330
1E
100
AcDbEntity
  8
HIDDEN
100
AcDbLine
 10
55.86815699999999
 20
76.298327
 30
0.0
 11
55.86815699999999
 21
76.32932700000001
 31
0.0
  0
LINE
  5
A15
330
1E
100
AcDbEntity
  8
HIDDEN
100
AcDbLine
 10
56.03215699999999
 20
76.548327
 30
0.0
 11
55.86815699999999
 21
76.548327
 31
0.0
  0
LINE
  5
A16
330
1E
100
AcDbEntity
  8
HIDDEN
100
AcDbLine
 10
56.00115699999999
 20
76.548327
 30
0.0
 11
55.89915699999999
 21
76.548327
 31
0.0
  0
LINE
  5
A17
330
1E
100
AcDbEntity
  8
HIDDEN
100
AcDbLine
 10
56.00115699999999
 20
76.548327
 30
0.0
 11
55.89915699999999
 21
76.548327
 31
0.0
  0
LINE
  5
A18
330
1E
100
AcDbEntity
  8
HIDDEN
100
AcDbLine
 10
56.03215699999999
 20
76.548327
 30
0.0
 11
55.86815699999999
 21
76.548327
 31
0.0
  0
LINE
  5
A19
330
1E
100
AcDbEntity
  8
HIDDEN
100
AcDbLine
 10
55.86815699999999
 20
76.298327
 30
0.0
 11
55.86815699999999
 21
76.32932700000001
 31
0.0
  0
LINE
  5
A1A
330
1E
100
AcDbEntity
  8
HIDDEN
100
AcDbLine
 10
56.03215699999999
 20
76.298327
 30
0.0
 11
56.03215699999999
 21
76.32932700000001
 31
0.0
  0
LINE
  5
A1B
330
1E
100
AcDbEntity
  8
HIDDEN
100
AcDbLine
 10
56.122157
 20
76.32932700000001
 30
0.0
 11
55.77815699999999
 21
76.32932700000001
 31
0.0
  0
LINE
  5
A1C
330
1E
100
AcDbEntity
  8
HIDDEN
100
AcDbLine
 10
55.77815699999999
 20
76.32932700000001
 30
0.0
 11
55.77815699999999
 21
76.298327
 31
0.0
  0
LINE
  5
A1D
330
1E
100
AcDbEntity
  8
HIDDEN
100
AcDbLine
 10
56.122157
 20
76.32932700000001
 30
0.0
 11
56.122157
 21
76.298327
 31
0.0
  0
ARC
  5
A1E
330
1E
100
AcDbEntity
  8
HIDDEN
100
AcDbCircle
 10
55.950157
 20
76.65924699999999
 30
0.0
 40
0.32992
100
AcDbArc
 50
252.482645
 51
287.5173549999999
  0
ARC
  5
A1F
330
1E
100
AcDbEntity
  8
HIDDEN
100
AcDbCircle
 10
56.099059
 20
76.41736800000001
 30
0.0
 40
0.088042
100
AcDbArc
 50
235.712465
 51
304.287535
  0
ARC
  5
A20
330
1E
100
AcDbEntity
  8
HIDDEN
100
AcDbCircle
 10
55.80125500000001
 20
76.41736800000001
 30
0.0
 40
0.088042
100
AcDbArc
 50
235.712465
 51
304.287535
  0
LINE
  5
A21
330
1E
100
AcDbEntity
  8
HIDDEN
100
AcDbLine
 10
56.099059
 20
76.459327
 30
0.0
 11
55.80125500000001
 21
76.459327
 31
0.0
  0
ARC
  5
A22
330
1E
100
AcDbEntity
  8
HIDDEN
100
AcDbCircle
 10
55.80125500000001
 20
76.371285
 30
0.0
 40
0.088042
100
AcDbArc
 50
55.71246500000001
 51
124.287535
  0
ARC
  5
A23
330
1E
100
AcDbEntity
  8
HIDDEN
100
AcDbCircle
 10
56.099059
 20
76.371285
 30
0.0
 40
0.088042
100
AcDbArc
 50
55.71246500000001
 51
124.287535
  0
ARC
  5
A24
330
1E
100
AcDbEntity
  8
HIDDEN
100
AcDbCircle
 10
55.950157
 20
76.129406
 30
0.0
 40
0.32992
100
AcDbArc
 50
72.48264499999999
 51
107.517355
  0
LINE
  5
A25
330
1E
100
AcDbEntity
  8
HIDDEN
100
AcDbLine
 10
55.850853
 20
76.444027
 30
0.0
 11
55.850853
 21
76.344626
 31
0.0
  0
LINE
  5
A26
330
1E
100
AcDbEntity
  8
HIDDEN
100
AcDbLine
 10
56.049461
 20
76.444027
 30
0.0
 11
56.049461
 21
76.344626
 31
0.0
  0
LINE
  5
A27
330
1E
100
AcDbEntity
  8
HIDDEN
100
AcDbLine
 10
55.75165699999999
 20
76.444027
 30
0.0
 11
55.75165699999999
 21
76.344626
 31
0.0
  0
LINE
  5
A28
330
1E
100
AcDbEntity
  8
HIDDEN
100
AcDbLine
 10
56.14865699999999
 20
76.444027
 30
0.0
 11
56.14865699999999
 21
76.344626
 31
0.0
  0
LINE
  5
A29
330
1E
100
AcDbEntity
  8
HIDDEN
100
AcDbLine
 10
55.86815699999999
 20
76.459327
 30
0.0
 11
55.86815699999999
 21
76.548327
 31
0.0
  0
LINE
  5
A2A
330
1E
100
AcDbEntity
  8
HIDDEN
100
AcDbLine
 10
56.03215699999999
 20
76.459327
 30
0.0
 11
56.03215699999999
 21
76.548327
 31
0.0
  0
LINE
  5
A2B
330
1E
100
AcDbEntity
  8
HIDDEN
100
AcDbLine
 10
50.70015699999999
 20
58.621287
 30
0.0
 11
50.70015699999999
 21
57.120787
 31
0.0
  0
LINE
  5
A2C
330
1E
100
AcDbEntity
  8
OBJECT
100
AcDbLine
 10
56.03215699999999
 20
75.638327
 30
0.0
 11
56.03215699999999
 21
75.54932700000001
 31
0.0
  0
LINE
  5
A2D
330
1E
100
AcDbEntity
  8
OBJECT
100
AcDbLine
 10
55.86815699999999
 20
75.638327
 30
0.0
 11
55.86815699999999
 21
75.54932700000001
 31
0.0
  0
LINE
  5
A2E
330
1E
100
AcDbEntity
  8
OBJECT
100
AcDbLine
 10
56.14865699999999
 20
75.653626
 30
0.0
 11
56.14865699999999
 21
75.753027
 31
0.0
  0
LINE
  5
A2F
330
1E
100
AcDbEntity
  8
OBJECT
100
AcDbLine
 10
55.75165699999999
 20
75.653626
 30
0.0
 11
55.75165699999999
 21
75.753027
 31
0.0
  0
LINE
  5
A30
330
1E
100
AcDbEntity
  8
OBJECT
100
AcDbLine
 10
56.049461
 20
75.653626
 30
0.0
 11
56.049461
 21
75.753027
 31
0.0
  0
LINE
  5
A31
330
1E
100
AcDbEntity
  8
OBJECT
100
AcDbLine
 10
55.850853
 20
75.653626
 30
0.0
 11
55.850853
 21
75.753027
 31
0.0
  0
ARC
  5
A32
330
1E
100
AcDbEntity
  8
OBJECT
100
AcDbCircle
 10
55.950157
 20
75.96824699999999
 30
0.0
 40
0.32992
100
AcDbArc
 50
252.482645
 51
287.5173549999999
  0
ARC
  5
A33
330
1E
100
AcDbEntity
  8
OBJECT
100
AcDbCircle
 10
56.099059
 20
75.72636800000001
 30
0.0
 40
0.088042
100
AcDbArc
 50
235.712465
 51
304.287535
  0
ARC
  5
A34
330
1E
100
AcDbEntity
  8
OBJECT
100
AcDbCircle
 10
55.80125500000001
 20
75.72636800000001
 30
0.0
 40
0.088042
100
AcDbArc
 50
235.712465
 51
304.287535
  0
LINE
  5
A35
330
1E
100
AcDbEntity
  8
OBJECT
100
AcDbLine
 10
56.099059
 20
75.638327
 30
0.0
 11
55.80125500000001
 21
75.638327
 31
0.0
  0
ARC
  5
A36
330
1E
100
AcDbEntity
  8
OBJECT
100
AcDbCircle
 10
55.80125500000001
 20
75.680285
 30
0.0
 40
0.088042
100
AcDbArc
 50
55.71246500000001
 51
124.287535
  0
ARC
  5
A37
330
1E
100
AcDbEntity
  8
OBJECT
100
AcDbCircle
 10
56.099059
 20
75.680285
 30
0.0
 40
0.088042
100
AcDbArc
 50
55.71246500000001
 51
124.287535
  0
ARC
  5
A38
330
1E
100
AcDbEntity
  8
OBJECT
100
AcDbCircle
 10
55.950157
 20
75.438406
 30
0.0
 40
0.32992
100
AcDbArc
 50
72.48264499999999
 51
107.517355
  0
LINE
  5
A39
330
1E
100
AcDbEntity
  8
OBJECT
100
AcDbLine
 10
56.122157
 20
75.768327
 30
0.0
 11
56.122157
 21
75.799327
 31
0.0
  0
LINE
  5
A3A
330
1E
100
AcDbEntity
  8
OBJECT
100
AcDbLine
 10
55.77815699999999
 20
75.768327
 30
0.0
 11
55.77815699999999
 21
75.799327
 31
0.0
  0
LINE
  5
A3B
330
1E
100
AcDbEntity
  8
OBJECT
100
AcDbLine
 10
56.122157
 20
75.768327
 30
0.0
 11
55.77815699999999
 21
75.768327
 31
0.0
  0
LINE
  5
A3C
330
1E
100
AcDbEntity
  8
OBJECT
100
AcDbLine
 10
56.03215699999999
 20
75.799327
 30
0.0
 11
56.03215699999999
 21
75.768327
 31
0.0
  0
LINE
  5
A3D
330
1E
100
AcDbEntity
  8
OBJECT
100
AcDbLine
 10
55.86815699999999
 20
75.799327
 30
0.0
 11
55.86815699999999
 21
75.768327
 31
0.0
  0
LINE
  5
A3E
330
1E
100
AcDbEntity
  8
OBJECT
100
AcDbLine
 10
56.03215699999999
 20
75.54932700000001
 30
0.0
 11
55.86815699999999
 21
75.54932700000001
 31
0.0
  0
LINE
  5
A3F
330
1E
100
AcDbEntity
  8
OBJECT
100
AcDbLine
 10
56.00115699999999
 20
75.54932700000001
 30
0.0
 11
55.89915699999999
 21
75.54932700000001
 31
0.0
  0
LINE
  5
A40
330
1E
100
AcDbEntity
  8
OBJECT
100
AcDbLine
 10
56.00115699999999
 20
75.54932700000001
 30
0.0
 11
55.89915699999999
 21
75.54932700000001
 31
0.0
  0
LINE
  5
A41
330
1E
100
AcDbEntity
  8
OBJECT
100
AcDbLine
 10
56.03215699999999
 20
75.54932700000001
 30
0.0
 11
55.86815699999999
 21
75.54932700000001
 31
0.0
  0
LINE
  5
A42
330
1E
100
AcDbEntity
  8
OBJECT
100
AcDbLine
 10
55.86815699999999
 20
75.799327
 30
0.0
 11
55.86815699999999
 21
75.768327
 31
0.0
  0
LINE
  5
A43
330
1E
100
AcDbEntity
  8
OBJECT
100
AcDbLine
 10
56.03215699999999
 20
75.799327
 30
0.0
 11
56.03215699999999
 21
75.768327
 31
0.0
  0
LINE
  5
A44
330
1E
100
AcDbEntity
  8
OBJECT
100
AcDbLine
 10
56.122157
 20
75.768327
 30
0.0
 11
55.77815699999999
 21
75.768327
 31
0.0
  0
LINE
  5
A45
330
1E
100
AcDbEntity
  8
OBJECT
100
AcDbLine
 10
56.099059
 20
75.768327
 30
0.0
 11
55.80125500000001
 21
75.768327
 31
0.0
  0
LINE
  5
A46
330
1E
100
AcDbEntity
  8
OBJECT
100
AcDbLine
 10
55.77815699999999
 20
75.768327
 30
0.0
 11
55.77815699999999
 21
75.799327
 31
0.0
  0
LINE
  5
A47
330
1E
100
AcDbEntity
  8
OBJECT
100
AcDbLine
 10
56.122157
 20
75.768327
 30
0.0
 11
56.122157
 21
75.799327
 31
0.0
  0
ARC
  5
A48
330
1E
100
AcDbEntity
  8
OBJECT
100
AcDbCircle
 10
55.950157
 20
75.438406
 30
0.0
 40
0.32992
100
AcDbArc
 50
72.48264499999999
 51
107.517355
  0
ARC
  5
A49
330
1E
100
AcDbEntity
  8
OBJECT
100
AcDbCircle
 10
56.099059
 20
75.680285
 30
0.0
 40
0.088042
100
AcDbArc
 50
55.71246500000001
 51
124.287535
  0
ARC
  5
A4A
330
1E
100
AcDbEntity
  8
OBJECT
100
AcDbCircle
 10
55.80125500000001
 20
75.680285
 30
0.0
 40
0.088042
100
AcDbArc
 50
55.71246500000001
 51
124.287535
  0
LINE
  5
A4B
330
1E
100
AcDbEntity
  8
OBJECT
100
AcDbLine
 10
56.099059
 20
75.638327
 30
0.0
 11
55.80125500000001
 21
75.638327
 31
0.0
  0
ARC
  5
A4C
330
1E
100
AcDbEntity
  8
OBJECT
100
AcDbCircle
 10
55.80125500000001
 20
75.72636800000001
 30
0.0
 40
0.088042
100
AcDbArc
 50
235.712465
 51
304.287535
  0
ARC
  5
A4D
330
1E
100
AcDbEntity
  8
OBJECT
100
AcDbCircle
 10
56.099059
 20
75.72636800000001
 30
0.0
 40
0.088042
100
AcDbArc
 50
235.712465
 51
304.287535
  0
ARC
  5
A4E
330
1E
100
AcDbEntity
  8
OBJECT
100
AcDbCircle
 10
55.950157
 20
75.96824699999999
 30
0.0
 40
0.32992
100
AcDbArc
 50
252.482645
 51
287.5173549999999
  0
LINE
  5
A4F
330
1E
100
AcDbEntity
  8
OBJECT
100
AcDbLine
 10
55.850853
 20
75.653626
 30
0.0
 11
55.850853
 21
75.753027
 31
0.0
  0
LINE
  5
A50
330
1E
100
AcDbEntity
  8
OBJECT
100
AcDbLine
 10
56.049461
 20
75.653626
 30
0.0
 11
56.049461
 21
75.753027
 31
0.0
  0
LINE
  5
A51
330
1E
100
AcDbEntity
  8
OBJECT
100
AcDbLine
 10
55.75165699999999
 20
75.653626
 30
0.0
 11
55.75165699999999
 21
75.753027
 31
0.0
  0
LINE
  5
A52
330
1E
100
AcDbEntity
  8
OBJECT
100
AcDbLine
 10
56.14865699999999
 20
75.653626
 30
0.0
 11
56.14865699999999
 21
75.753027
 31
0.0
  0
LINE
  5
A53
330
1E
100
AcDbEntity
  8
OBJECT
100
AcDbLine
 10
55.86815699999999
 20
75.638327
 30
0.0
 11
55.86815699999999
 21
75.54932700000001
 31
0.0
  0
LINE
  5
A54
330
1E
100
AcDbEntity
  8
OBJECT
100
AcDbLine
 10
56.03215699999999
 20
75.638327
 30
0.0
 11
56.03215699999999
 21
75.54932700000001
 31
0.0
  0
LINE
  5
A55
330
1E
100
AcDbEntity
  8
OBJECT
100
AcDbLine
 10
51.65715699999999
 20
75.638327
 30
0.0
 11
51.65715699999999
 21
75.54932700000001
 31
0.0
  0
LINE
  5
A56
330
1E
100
AcDbEntity
  8
OBJECT
100
AcDbLine
 10
51.493157
 20
75.638327
 30
0.0
 11
51.493157
 21
75.54932700000001
 31
0.0
  0
LINE
  5
A57
330
1E
100
AcDbEntity
  8
OBJECT
100
AcDbLine
 10
51.773657
 20
75.653626
 30
0.0
 11
51.773657
 21
75.753027
 31
0.0
  0
LINE
  5
A58
330
1E
100
AcDbEntity
  8
OBJECT
100
AcDbLine
 10
51.376657
 20
75.653626
 30
0.0
 11
51.376657
 21
75.753027
 31
0.0
  0
LINE
  5
A59
330
1E
100
AcDbEntity
  8
OBJECT
100
AcDbLine
 10
51.674461
 20
75.653626
 30
0.0
 11
51.674461
 21
75.753027
 31
0.0
  0
LINE
  5
A5A
330
1E
100
AcDbEntity
  8
OBJECT
100
AcDbLine
 10
51.475853
 20
75.653626
 30
0.0
 11
51.475853
 21
75.753027
 31
0.0
  0
ARC
  5
A5B
330
1E
100
AcDbEntity
  8
OBJECT
100
AcDbCircle
 10
51.575157
 20
75.96824699999999
 30
0.0
 40
0.32992
100
AcDbArc
 50
252.482645
 51
287.5173549999999
  0
ARC
  5
A5C
330
1E
100
AcDbEntity
  8
OBJECT
100
AcDbCircle
 10
51.72405900000001
 20
75.72636800000001
 30
0.0
 40
0.088042
100
AcDbArc
 50
235.712465
 51
304.287535
  0
ARC
  5
A5D
330
1E
100
AcDbEntity
  8
OBJECT
100
AcDbCircle
 10
51.426255
 20
75.72636800000001
 30
0.0
 40
0.088042
100
AcDbArc
 50
235.712465
 51
304.287535
  0
LINE
  5
A5E
330
1E
100
AcDbEntity
  8
OBJECT
100
AcDbLine
 10
51.72405900000001
 20
75.638327
 30
0.0
 11
51.426255
 21
75.638327
 31
0.0
  0
ARC
  5
A5F
330
1E
100
AcDbEntity
  8
OBJECT
100
AcDbCircle
 10
51.426255
 20
75.680285
 30
0.0
 40
0.088042
100
AcDbArc
 50
55.71246500000001
 51
124.287535
  0
ARC
  5
A60
330
1E
100
AcDbEntity
  8
OBJECT
100
AcDbCircle
 10
51.72405900000001
 20
75.680285
 30
0.0
 40
0.088042
100
AcDbArc
 50
55.71246500000001
 51
124.287535
  0
ARC
  5
A61
330
1E
100
AcDbEntity
  8
OBJECT
100
AcDbCircle
 10
51.575157
 20
75.438406
 30
0.0
 40
0.32992
100
AcDbArc
 50
72.48264499999999
 51
107.517355
  0
LINE
  5
A62
330
1E
100
AcDbEntity
  8
OBJECT
100
AcDbLine
 10
51.747157
 20
75.768327
 30
0.0
 11
51.747157
 21
75.799327
 31
0.0
  0
LINE
  5
A63
330
1E
100
AcDbEntity
  8
OBJECT
100
AcDbLine
 10
51.403157
 20
75.768327
 30
0.0
 11
51.403157
 21
75.799327
 31
0.0
  0
LINE
  5
A64
330
1E
100
AcDbEntity
  8
OBJECT
100
AcDbLine
 10
51.72405900000001
 20
75.768327
 30
0.0
 11
51.426255
 21
75.768327
 31
0.0
  0
LINE
  5
A65
330
1E
100
AcDbEntity
  8
OBJECT
100
AcDbLine
 10
51.747157
 20
75.768327
 30
0.0
 11
51.403157
 21
75.768327
 31
0.0
  0
LINE
  5
A66
330
1E
100
AcDbEntity
  8
OBJECT
100
AcDbLine
 10
51.65715699999999
 20
75.799327
 30
0.0
 11
51.65715699999999
 21
75.768327
 31
0.0
  0
LINE
  5
A67
330
1E
100
AcDbEntity
  8
OBJECT
100
AcDbLine
 10
51.493157
 20
75.799327
 30
0.0
 11
51.493157
 21
75.768327
 31
0.0
  0
LINE
  5
A68
330
1E
100
AcDbEntity
  8
OBJECT
100
AcDbLine
 10
51.65715699999999
 20
75.54932700000001
 30
0.0
 11
51.493157
 21
75.54932700000001
 31
0.0
  0
LINE
  5
A69
330
1E
100
AcDbEntity
  8
OBJECT
100
AcDbLine
 10
51.62615699999999
 20
75.54932700000001
 30
0.0
 11
51.524157
 21
75.54932700000001
 31
0.0
  0
LINE
  5
A6A
330
1E
100
AcDbEntity
  8
OBJECT
100
AcDbLine
 10
51.62615699999999
 20
75.54932700000001
 30
0.0
 11
51.524157
 21
75.54932700000001
 31
0.0
  0
LINE
  5
A6B
330
1E
100
AcDbEntity
  8
OBJECT
100
AcDbLine
 10
51.65715699999999
 20
75.54932700000001
 30
0.0
 11
51.493157
 21
75.54932700000001
 31
0.0
  0
LINE
  5
A6C
330
1E
100
AcDbEntity
  8
OBJECT
100
AcDbLine
 10
51.493157
 20
75.799327
 30
0.0
 11
51.493157
 21
75.768327
 31
0.0
  0
LINE
  5
A6D
330
1E
100
AcDbEntity
  8
OBJECT
100
AcDbLine
 10
51.65715699999999
 20
75.799327
 30
0.0
 11
51.65715699999999
 21
75.768327
 31
0.0
  0
LINE
  5
A6E
330
1E
100
AcDbEntity
  8
OBJECT
100
AcDbLine
 10
51.747157
 20
75.768327
 30
0.0
 11
51.403157
 21
75.768327
 31
0.0
  0
LINE
  5
A6F
330
1E
100
AcDbEntity
  8
OBJECT
100
AcDbLine
 10
51.403157
 20
75.768327
 30
0.0
 11
51.403157
 21
75.799327
 31
0.0
  0
LINE
  5
A70
330
1E
100
AcDbEntity
  8
OBJECT
100
AcDbLine
 10
51.747157
 20
75.768327
 30
0.0
 11
51.747157
 21
75.799327
 31
0.0
  0
ARC
  5
A71
330
1E
100
AcDbEntity
  8
OBJECT
100
AcDbCircle
 10
51.575157
 20
75.438406
 30
0.0
 40
0.32992
100
AcDbArc
 50
72.48264499999999
 51
107.517355
  0
ARC
  5
A72
330
1E
100
AcDbEntity
  8
OBJECT
100
AcDbCircle
 10
51.72405900000001
 20
75.680285
 30
0.0
 40
0.088042
100
AcDbArc
 50
55.71246500000001
 51
124.287535
  0
ARC
  5
A73
330
1E
100
AcDbEntity
  8
OBJECT
100
AcDbCircle
 10
51.426255
 20
75.680285
 30
0.0
 40
0.088042
100
AcDbArc
 50
55.71246500000001
 51
124.287535
  0
LINE
  5
A74
330
1E
100
AcDbEntity
  8
OBJECT
100
AcDbLine
 10
51.72405900000001
 20
75.638327
 30
0.0
 11
51.426255
 21
75.638327
 31
0.0
  0
ARC
  5
A75
330
1E
100
AcDbEntity
  8
OBJECT
100
AcDbCircle
 10
51.426255
 20
75.72636800000001
 30
0.0
 40
0.088042
100
AcDbArc
 50
235.712465
 51
304.287535
  0
ARC
  5
A76
330
1E
100
AcDbEntity
  8
OBJECT
100
AcDbCircle
 10
51.72405900000001
 20
75.72636800000001
 30
0.0
 40
0.088042
100
AcDbArc
 50
235.712465
 51
304.287535
  0
ARC
  5
A77
330
1E
100
AcDbEntity
  8
OBJECT
100
AcDbCircle
 10
51.575157
 20
75.96824699999999
 30
0.0
 40
0.32992
100
AcDbArc
 50
252.482645
 51
287.5173549999999
  0
LINE
  5
A78
330
1E
100
AcDbEntity
  8
OBJECT
100
AcDbLine
 10
51.475853
 20
75.653626
 30
0.0
 11
51.475853
 21
75.753027
 31
0.0
  0
LINE
  5
A79
330
1E
100
AcDbEntity
  8
OBJECT
100
AcDbLine
 10
51.674461
 20
75.653626
 30
0.0
 11
51.674461
 21
75.753027
 31
0.0
  0
LINE
  5
A7A
330
1E
100
AcDbEntity
  8
OBJECT
100
AcDbLine
 10
51.376657
 20
75.653626
 30
0.0
 11
51.376657
 21
75.753027
 31
0.0
  0
LINE
  5
A7B
330
1E
100
AcDbEntity
  8
OBJECT
100
AcDbLine
 10
51.773657
 20
75.653626
 30
0.0
 11
51.773657
 21
75.753027
 31
0.0
  0
LINE
  5
A7C
330
1E
100
AcDbEntity
  8
OBJECT
100
AcDbLine
 10
51.493157
 20
75.638327
 30
0.0
 11
51.493157
 21
75.54932700000001
 31
0.0
  0
LINE
  5
A7D
330
1E
100
AcDbEntity
  8
OBJECT
100
AcDbLine
 10
51.65715699999999
 20
75.638327
 30
0.0
 11
51.65715699999999
 21
75.54932700000001
 31
0.0
  0
LINE
  5
A7E
330
1E
100
AcDbEntity
  8
HIDDEN
100
AcDbLine
 10
37.03215699999999
 20
93.01332700000001
 30
0.0
 11
37.03215699999999
 21
92.924327
 31
0.0
  0
LINE
  5
A7F
330
1E
100
AcDbEntity
  8
HIDDEN
100
AcDbLine
 10
36.868157
 20
93.01332700000001
 30
0.0
 11
36.868157
 21
92.924327
 31
0.0
  0
LINE
  5
A80
330
1E
100
AcDbEntity
  8
HIDDEN
100
AcDbLine
 10
37.148657
 20
93.028626
 30
0.0
 11
37.148657
 21
93.128027
 31
0.0
  0
LINE
  5
A81
330
1E
100
AcDbEntity
  8
HIDDEN
100
AcDbLine
 10
36.751657
 20
93.028626
 30
0.0
 11
36.751657
 21
93.128027
 31
0.0
  0
LINE
  5
A82
330
1E
100
AcDbEntity
  8
HIDDEN
100
AcDbLine
 10
37.049461
 20
93.028626
 30
0.0
 11
37.049461
 21
93.128027
 31
0.0
  0
LINE
  5
A83
330
1E
100
AcDbEntity
  8
HIDDEN
100
AcDbLine
 10
36.850853
 20
93.028626
 30
0.0
 11
36.850853
 21
93.128027
 31
0.0
  0
ARC
  5
A84
330
1E
100
AcDbEntity
  8
HIDDEN
100
AcDbCircle
 10
36.95015699999999
 20
93.34324699999999
 30
0.0
 40
0.32992
100
AcDbArc
 50
252.482645
 51
287.5173549999999
  0
ARC
  5
A85
330
1E
100
AcDbEntity
  8
HIDDEN
100
AcDbCircle
 10
37.099059
 20
93.101368
 30
0.0
 40
0.088042
100
AcDbArc
 50
235.712465
 51
304.287535
  0
ARC
  5
A86
330
1E
100
AcDbEntity
  8
HIDDEN
100
AcDbCircle
 10
36.80125499999999
 20
93.101368
 30
0.0
 40
0.088042
100
AcDbArc
 50
235.712465
 51
304.287535
  0
LINE
  5
A87
330
1E
100
AcDbEntity
  8
HIDDEN
100
AcDbLine
 10
37.099059
 20
93.01332700000001
 30
0.0
 11
36.80125499999999
 21
93.01332700000001
 31
0.0
  0
ARC
  5
A88
330
1E
100
AcDbEntity
  8
HIDDEN
100
AcDbCircle
 10
36.80125499999999
 20
93.05528499999999
 30
0.0
 40
0.088042
100
AcDbArc
 50
55.71246500000001
 51
124.287535
  0
ARC
  5
A89
330
1E
100
AcDbEntity
  8
HIDDEN
100
AcDbCircle
 10
37.099059
 20
93.05528499999999
 30
0.0
 40
0.088042
100
AcDbArc
 50
55.71246500000001
 51
124.287535
  0
ARC
  5
A8A
330
1E
100
AcDbEntity
  8
HIDDEN
100
AcDbCircle
 10
36.95015699999999
 20
92.813406
 30
0.0
 40
0.32992
100
AcDbArc
 50
72.48264499999999
 51
107.517355
  0
LINE
  5
A8B
330
1E
100
AcDbEntity
  8
HIDDEN
100
AcDbLine
 10
37.122157
 20
93.14332699999999
 30
0.0
 11
37.122157
 21
93.17432700000001
 31
0.0
  0
LINE
  5
A8C
330
1E
100
AcDbEntity
  8
HIDDEN
100
AcDbLine
 10
36.778157
 20
93.14332699999999
 30
0.0
 11
36.778157
 21
93.17432700000001
 31
0.0
  0
LINE
  5
A8D
330
1E
100
AcDbEntity
  8
HIDDEN
100
AcDbLine
 10
37.122157
 20
93.14332699999999
 30
0.0
 11
36.778157
 21
93.14332699999999
 31
0.0
  0
LINE
  5
A8E
330
1E
100
AcDbEntity
  8
HIDDEN
100
AcDbLine
 10
37.03215699999999
 20
93.17432700000001
 30
0.0
 11
37.03215699999999
 21
93.14332699999999
 31
0.0
  0
LINE
  5
A8F
330
1E
100
AcDbEntity
  8
HIDDEN
100
AcDbLine
 10
36.868157
 20
93.17432700000001
 30
0.0
 11
36.868157
 21
93.14332699999999
 31
0.0
  0
LINE
  5
A90
330
1E
100
AcDbEntity
  8
HIDDEN
100
AcDbLine
 10
37.03215699999999
 20
92.924327
 30
0.0
 11
36.868157
 21
92.924327
 31
0.0
  0
LINE
  5
A91
330
1E
100
AcDbEntity
  8
HIDDEN
100
AcDbLine
 10
37.001157
 20
92.924327
 30
0.0
 11
36.899157
 21
92.924327
 31
0.0
  0
LINE
  5
A92
330
1E
100
AcDbEntity
  8
HIDDEN
100
AcDbLine
 10
37.001157
 20
92.924327
 30
0.0
 11
36.899157
 21
92.924327
 31
0.0
  0
LINE
  5
A93
330
1E
100
AcDbEntity
  8
HIDDEN
100
AcDbLine
 10
37.03215699999999
 20
92.924327
 30
0.0
 11
36.868157
 21
92.924327
 31
0.0
  0
LINE
  5
A94
330
1E
100
AcDbEntity
  8
HIDDEN
100
AcDbLine
 10
36.868157
 20
93.17432700000001
 30
0.0
 11
36.868157
 21
93.14332699999999
 31
0.0
  0
LINE
  5
A95
330
1E
100
AcDbEntity
  8
HIDDEN
100
AcDbLine
 10
37.03215699999999
 20
93.17432700000001
 30
0.0
 11
37.03215699999999
 21
93.14332699999999
 31
0.0
  0
LINE
  5
A96
330
1E
100
AcDbEntity
  8
HIDDEN
100
AcDbLine
 10
37.122157
 20
93.14332699999999
 30
0.0
 11
36.778157
 21
93.14332699999999
 31
0.0
  0
LINE
  5
A97
330
1E
100
AcDbEntity
  8
HIDDEN
100
AcDbLine
 10
37.099059
 20
93.14332699999999
 30
0.0
 11
36.80125499999999
 21
93.14332699999999
 31
0.0
  0
LINE
  5
A98
330
1E
100
AcDbEntity
  8
HIDDEN
100
AcDbLine
 10
36.778157
 20
93.14332699999999
 30
0.0
 11
36.778157
 21
93.17432700000001
 31
0.0
  0
LINE
  5
A99
330
1E
100
AcDbEntity
  8
HIDDEN
100
AcDbLine
 10
37.122157
 20
93.14332699999999
 30
0.0
 11
37.122157
 21
93.17432700000001
 31
0.0
  0
ARC
  5
A9A
330
1E
100
AcDbEntity
  8
HIDDEN
100
AcDbCircle
 10
36.95015699999999
 20
92.813406
 30
0.0
 40
0.32992
100
AcDbArc
 50
72.48264499999999
 51
107.517355
  0
ARC
  5
A9B
330
1E
100
AcDbEntity
  8
HIDDEN
100
AcDbCircle
 10
37.099059
 20
93.05528499999999
 30
0.0
 40
0.088042
100
AcDbArc
 50
55.71246500000001
 51
124.287535
  0
ARC
  5
A9C
330
1E
100
AcDbEntity
  8
HIDDEN
100
AcDbCircle
 10
36.80125499999999
 20
93.05528499999999
 30
0.0
 40
0.088042
100
AcDbArc
 50
55.71246500000001
 51
124.287535
  0
LINE
  5
A9D
330
1E
100
AcDbEntity
  8
HIDDEN
100
AcDbLine
 10
37.099059
 20
93.01332700000001
 30
0.0
 11
36.80125499999999
 21
93.01332700000001
 31
0.0
  0
ARC
  5
A9E
330
1E
100
AcDbEntity
  8
HIDDEN
100
AcDbCircle
 10
36.80125499999999
 20
93.101368
 30
0.0
 40
0.088042
100
AcDbArc
 50
235.712465
 51
304.287535
  0
ARC
  5
A9F
330
1E
100
AcDbEntity
  8
HIDDEN
100
AcDbCircle
 10
37.099059
 20
93.101368
 30
0.0
 40
0.088042
100
AcDbArc
 50
235.712465
 51
304.287535
  0
ARC
  5
AA0
330
1E
100
AcDbEntity
  8
HIDDEN
100
AcDbCircle
 10
36.95015699999999
 20
93.34324699999999
 30
0.0
 40
0.32992
100
AcDbArc
 50
252.482645
 51
287.5173549999999
  0
LINE
  5
AA1
330
1E
100
AcDbEntity
  8
HIDDEN
100
AcDbLine
 10
36.850853
 20
93.028626
 30
0.0
 11
36.850853
 21
93.128027
 31
0.0
  0
LINE
  5
AA2
330
1E
100
AcDbEntity
  8
HIDDEN
100
AcDbLine
 10
37.049461
 20
93.028626
 30
0.0
 11
37.049461
 21
93.128027
 31
0.0
  0
LINE
  5
AA3
330
1E
100
AcDbEntity
  8
HIDDEN
100
AcDbLine
 10
36.751657
 20
93.028626
 30
0.0
 11
36.751657
 21
93.128027
 31
0.0
  0
LINE
  5
AA4
330
1E
100
AcDbEntity
  8
HIDDEN
100
AcDbLine
 10
37.148657
 20
93.028626
 30
0.0
 11
37.148657
 21
93.128027
 31
0.0
  0
LINE
  5
AA5
330
1E
100
AcDbEntity
  8
HIDDEN
100
AcDbLine
 10
36.868157
 20
93.01332700000001
 30
0.0
 11
36.868157
 21
92.924327
 31
0.0
  0
LINE
  5
AA6
330
1E
100
AcDbEntity
  8
HIDDEN
100
AcDbLine
 10
37.03215699999999
 20
93.01332700000001
 30
0.0
 11
37.03215699999999
 21
92.924327
 31
0.0
  0
LINE
  5
AA7
330
1E
100
AcDbEntity
  8
CENTER
100
AcDbLine
 10
36.95015699999999
 20
92.76402799999999
 30
0.0
 11
36.95015699999999
 21
93.17432700000001
 31
0.0
  0
LINE
  5
AA8
330
1E
100
AcDbEntity
  8
OBJECT
100
AcDbLine
 10
58.10615699999999
 20
93.14232700000001
 30
0.0
 11
58.20015699999999
 21
93.14232700000001
 31
0.0
  0
LINE
  5
AA9
330
1E
100
AcDbEntity
  8
OBJECT
100
AcDbLine
 10
58.10615699999999
 20
93.236327
 30
0.0
 11
58.10615699999999
 21
93.14232700000001
 31
0.0
  0
LINE
  5
AAA
330
1E
100
AcDbEntity
  8
OBJECT
100
AcDbLine
 10
31.700157
 20
93.14232700000001
 30
0.0
 11
31.794157
 21
93.14232700000001
 31
0.0
  0
LINE
  5
AAB
330
1E
100
AcDbEntity
  8
OBJECT
100
AcDbLine
 10
31.794157
 20
93.14232700000001
 30
0.0
 11
31.794157
 21
93.236327
 31
0.0
  0
LINE
  5
AAC
330
1E
100
AcDbEntity
  8
HIDDEN
100
AcDbLine
 10
58.13815699999999
 20
93.14232700000001
 30
0.0
 11
58.13815699999999
 21
84.73632700000001
 31
0.0
  0
LINE
  5
AAD
330
1E
100
AcDbEntity
  8
HIDDEN
100
AcDbLine
 10
31.762157
 20
84.73632700000001
 30
0.0
 11
31.762157
 21
93.14232700000001
 31
0.0
  0
LINE
  5
AAE
330
1E
100
AcDbEntity
  8
HIDDEN
100
AcDbLine
 10
31.794157
 20
93.17432700000001
 30
0.0
 11
58.10615699999999
 21
93.17432700000001
 31
0.0
  0
LINE
  5
AAF
330
1E
100
AcDbEntity
  8
OBJECT
100
AcDbLine
 10
58.20015699999999
 20
93.14232700000001
 30
0.0
 11
58.20015699999999
 21
84.73632700000001
 31
0.0
  0
LINE
  5
AB0
330
1E
100
AcDbEntity
  8
OBJECT
100
AcDbLine
 10
31.700157
 20
84.73632700000001
 30
0.0
 11
31.700157
 21
93.14232700000001
 31
0.0
  0
LINE
  5
AB1
330
1E
100
AcDbEntity
  8
HIDDEN
100
AcDbLine
 10
33.03215699999999
 20
93.01332700000001
 30
0.0
 11
33.03215699999999
 21
92.924327
 31
0.0
  0
LINE
  5
AB2
330
1E
100
AcDbEntity
  8
HIDDEN
100
AcDbLine
 10
32.868157
 20
93.01332700000001
 30
0.0
 11
32.868157
 21
92.924327
 31
0.0
  0
LINE
  5
AB3
330
1E
100
AcDbEntity
  8
HIDDEN
100
AcDbLine
 10
33.148657
 20
93.028626
 30
0.0
 11
33.148657
 21
93.128027
 31
0.0
  0
LINE
  5
AB4
330
1E
100
AcDbEntity
  8
HIDDEN
100
AcDbLine
 10
32.751657
 20
93.028626
 30
0.0
 11
32.751657
 21
93.128027
 31
0.0
  0
LINE
  5
AB5
330
1E
100
AcDbEntity
  8
HIDDEN
100
AcDbLine
 10
33.049461
 20
93.028626
 30
0.0
 11
33.049461
 21
93.128027
 31
0.0
  0
LINE
  5
AB6
330
1E
100
AcDbEntity
  8
HIDDEN
100
AcDbLine
 10
32.850853
 20
93.028626
 30
0.0
 11
32.850853
 21
93.128027
 31
0.0
  0
ARC
  5
AB7
330
1E
100
AcDbEntity
  8
HIDDEN
100
AcDbCircle
 10
32.95015699999999
 20
93.34324699999999
 30
0.0
 40
0.32992
100
AcDbArc
 50
252.482645
 51
287.5173549999999
  0
ARC
  5
AB8
330
1E
100
AcDbEntity
  8
HIDDEN
100
AcDbCircle
 10
33.099059
 20
93.101368
 30
0.0
 40
0.088042
100
AcDbArc
 50
235.712465
 51
304.287535
  0
ARC
  5
AB9
330
1E
100
AcDbEntity
  8
HIDDEN
100
AcDbCircle
 10
32.801255
 20
93.101368
 30
0.0
 40
0.088042
100
AcDbArc
 50
235.712465
 51
304.287535
  0
LINE
  5
ABA
330
1E
100
AcDbEntity
  8
HIDDEN
100
AcDbLine
 10
33.099059
 20
93.01332700000001
 30
0.0
 11
32.801255
 21
93.01332700000001
 31
0.0
  0
ARC
  5
ABB
330
1E
100
AcDbEntity
  8
HIDDEN
100
AcDbCircle
 10
32.801255
 20
93.05528499999999
 30
0.0
 40
0.088042
100
AcDbArc
 50
55.71246500000001
 51
124.287535
  0
ARC
  5
ABC
330
1E
100
AcDbEntity
  8
HIDDEN
100
AcDbCircle
 10
33.099059
 20
93.05528499999999
 30
0.0
 40
0.088042
100
AcDbArc
 50
55.71246500000001
 51
124.287535
  0
ARC
  5
ABD
330
1E
100
AcDbEntity
  8
HIDDEN
100
AcDbCircle
 10
32.95015699999999
 20
92.813406
 30
0.0
 40
0.32992
100
AcDbArc
 50
72.48264499999999
 51
107.517355
  0
LINE
  5
ABE
330
1E
100
AcDbEntity
  8
HIDDEN
100
AcDbLine
 10
33.122157
 20
93.14332699999999
 30
0.0
 11
33.122157
 21
93.17432700000001
 31
0.0
  0
LINE
  5
ABF
330
1E
100
AcDbEntity
  8
HIDDEN
100
AcDbLine
 10
32.778157
 20
93.14332699999999
 30
0.0
 11
32.778157
 21
93.17432700000001
 31
0.0
  0
LINE
  5
AC0
330
1E
100
AcDbEntity
  8
HIDDEN
100
AcDbLine
 10
33.099059
 20
93.14332699999999
 30
0.0
 11
32.801255
 21
93.14332699999999
 31
0.0
  0
LINE
  5
AC1
330
1E
100
AcDbEntity
  8
HIDDEN
100
AcDbLine
 10
33.122157
 20
93.14332699999999
 30
0.0
 11
32.778157
 21
93.14332699999999
 31
0.0
  0
LINE
  5
AC2
330
1E
100
AcDbEntity
  8
HIDDEN
100
AcDbLine
 10
33.03215699999999
 20
93.17432700000001
 30
0.0
 11
33.03215699999999
 21
93.14332699999999
 31
0.0
  0
LINE
  5
AC3
330
1E
100
AcDbEntity
  8
HIDDEN
100
AcDbLine
 10
32.868157
 20
93.17432700000001
 30
0.0
 11
32.868157
 21
93.14332699999999
 31
0.0
  0
LINE
  5
AC4
330
1E
100
AcDbEntity
  8
HIDDEN
100
AcDbLine
 10
33.03215699999999
 20
92.924327
 30
0.0
 11
32.868157
 21
92.924327
 31
0.0
  0
LINE
  5
AC5
330
1E
100
AcDbEntity
  8
HIDDEN
100
AcDbLine
 10
33.001157
 20
92.924327
 30
0.0
 11
32.899157
 21
92.924327
 31
0.0
  0
LINE
  5
AC6
330
1E
100
AcDbEntity
  8
HIDDEN
100
AcDbLine
 10
33.001157
 20
92.924327
 30
0.0
 11
32.899157
 21
92.924327
 31
0.0
  0
LINE
  5
AC7
330
1E
100
AcDbEntity
  8
HIDDEN
100
AcDbLine
 10
33.03215699999999
 20
92.924327
 30
0.0
 11
32.868157
 21
92.924327
 31
0.0
  0
LINE
  5
AC8
330
1E
100
AcDbEntity
  8
HIDDEN
100
AcDbLine
 10
32.868157
 20
93.17432700000001
 30
0.0
 11
32.868157
 21
93.14332699999999
 31
0.0
  0
LINE
  5
AC9
330
1E
100
AcDbEntity
  8
HIDDEN
100
AcDbLine
 10
33.03215699999999
 20
93.17432700000001
 30
0.0
 11
33.03215699999999
 21
93.14332699999999
 31
0.0
  0
LINE
  5
ACA
330
1E
100
AcDbEntity
  8
HIDDEN
100
AcDbLine
 10
33.122157
 20
93.14332699999999
 30
0.0
 11
32.778157
 21
93.14332699999999
 31
0.0
  0
LINE
  5
ACB
330
1E
100
AcDbEntity
  8
HIDDEN
100
AcDbLine
 10
32.778157
 20
93.14332699999999
 30
0.0
 11
32.778157
 21
93.17432700000001
 31
0.0
  0
LINE
  5
ACC
330
1E
100
AcDbEntity
  8
HIDDEN
100
AcDbLine
 10
33.122157
 20
93.14332699999999
 30
0.0
 11
33.122157
 21
93.17432700000001
 31
0.0
  0
ARC
  5
ACD
330
1E
100
AcDbEntity
  8
HIDDEN
100
AcDbCircle
 10
32.95015699999999
 20
92.813406
 30
0.0
 40
0.32992
100
AcDbArc
 50
72.48264499999999
 51
107.517355
  0
ARC
  5
ACE
330
1E
100
AcDbEntity
  8
HIDDEN
100
AcDbCircle
 10
33.099059
 20
93.05528499999999
 30
0.0
 40
0.088042
100
AcDbArc
 50
55.71246500000001
 51
124.287535
  0
ARC
  5
ACF
330
1E
100
AcDbEntity
  8
HIDDEN
100
AcDbCircle
 10
32.801255
 20
93.05528499999999
 30
0.0
 40
0.088042
100
AcDbArc
 50
55.71246500000001
 51
124.287535
  0
LINE
  5
AD0
330
1E
100
AcDbEntity
  8
HIDDEN
100
AcDbLine
 10
33.099059
 20
93.01332700000001
 30
0.0
 11
32.801255
 21
93.01332700000001
 31
0.0
  0
ARC
  5
AD1
330
1E
100
AcDbEntity
  8
HIDDEN
100
AcDbCircle
 10
32.801255
 20
93.101368
 30
0.0
 40
0.088042
100
AcDbArc
 50
235.712465
 51
304.287535
  0
ARC
  5
AD2
330
1E
100
AcDbEntity
  8
HIDDEN
100
AcDbCircle
 10
33.099059
 20
93.101368
 30
0.0
 40
0.088042
100
AcDbArc
 50
235.712465
 51
304.287535
  0
ARC
  5
AD3
330
1E
100
AcDbEntity
  8
HIDDEN
100
AcDbCircle
 10
32.95015699999999
 20
93.34324699999999
 30
0.0
 40
0.32992
100
AcDbArc
 50
252.482645
 51
287.5173549999999
  0
LINE
  5
AD4
330
1E
100
AcDbEntity
  8
HIDDEN
100
AcDbLine
 10
32.850853
 20
93.028626
 30
0.0
 11
32.850853
 21
93.128027
 31
0.0
  0
LINE
  5
AD5
330
1E
100
AcDbEntity
  8
HIDDEN
100
AcDbLine
 10
33.049461
 20
93.028626
 30
0.0
 11
33.049461
 21
93.128027
 31
0.0
  0
LINE
  5
AD6
330
1E
100
AcDbEntity
  8
HIDDEN
100
AcDbLine
 10
32.751657
 20
93.028626
 30
0.0
 11
32.751657
 21
93.128027
 31
0.0
  0
LINE
  5
AD7
330
1E
100
AcDbEntity
  8
HIDDEN
100
AcDbLine
 10
33.148657
 20
93.028626
 30
0.0
 11
33.148657
 21
93.128027
 31
0.0
  0
LINE
  5
AD8
330
1E
100
AcDbEntity
  8
HIDDEN
100
AcDbLine
 10
32.868157
 20
93.01332700000001
 30
0.0
 11
32.868157
 21
92.924327
 31
0.0
  0
LINE
  5
AD9
330
1E
100
AcDbEntity
  8
HIDDEN
100
AcDbLine
 10
33.03215699999999
 20
93.01332700000001
 30
0.0
 11
33.03215699999999
 21
92.924327
 31
0.0
  0
LINE
  5
ADA
330
1E
100
AcDbEntity
  8
CENTER
100
AcDbLine
 10
56.95015699999999
 20
92.76402799999999
 30
0.0
 11
56.95015699999999
 21
93.17432700000001
 31
0.0
  0
LINE
  5
ADB
330
1E
100
AcDbEntity
  8
HIDDEN
100
AcDbLine
 10
57.032157
 20
93.01332700000001
 30
0.0
 11
57.032157
 21
92.924327
 31
0.0
  0
LINE
  5
ADC
330
1E
100
AcDbEntity
  8
HIDDEN
100
AcDbLine
 10
56.868157
 20
93.01332700000001
 30
0.0
 11
56.868157
 21
92.924327
 31
0.0
  0
LINE
  5
ADD
330
1E
100
AcDbEntity
  8
HIDDEN
100
AcDbLine
 10
57.14865699999999
 20
93.028626
 30
0.0
 11
57.14865699999999
 21
93.128027
 31
0.0
  0
LINE
  5
ADE
330
1E
100
AcDbEntity
  8
HIDDEN
100
AcDbLine
 10
56.75165699999999
 20
93.028626
 30
0.0
 11
56.75165699999999
 21
93.128027
 31
0.0
  0
LINE
  5
ADF
330
1E
100
AcDbEntity
  8
HIDDEN
100
AcDbLine
 10
57.049461
 20
93.028626
 30
0.0
 11
57.049461
 21
93.128027
 31
0.0
  0
LINE
  5
AE0
330
1E
100
AcDbEntity
  8
HIDDEN
100
AcDbLine
 10
56.850853
 20
93.028626
 30
0.0
 11
56.850853
 21
93.128027
 31
0.0
  0
ARC
  5
AE1
330
1E
100
AcDbEntity
  8
HIDDEN
100
AcDbCircle
 10
56.95015699999999
 20
93.34324699999999
 30
0.0
 40
0.32992
100
AcDbArc
 50
252.482645
 51
287.5173549999999
  0
ARC
  5
AE2
330
1E
100
AcDbEntity
  8
HIDDEN
100
AcDbCircle
 10
57.09905899999999
 20
93.101368
 30
0.0
 40
0.088042
100
AcDbArc
 50
235.712465
 51
304.287535
  0
ARC
  5
AE3
330
1E
100
AcDbEntity
  8
HIDDEN
100
AcDbCircle
 10
56.801255
 20
93.101368
 30
0.0
 40
0.088042
100
AcDbArc
 50
235.712465
 51
304.287535
  0
LINE
  5
AE4
330
1E
100
AcDbEntity
  8
HIDDEN
100
AcDbLine
 10
57.09905899999999
 20
93.01332700000001
 30
0.0
 11
56.801255
 21
93.01332700000001
 31
0.0
  0
ARC
  5
AE5
330
1E
100
AcDbEntity
  8
HIDDEN
100
AcDbCircle
 10
56.801255
 20
93.05528499999999
 30
0.0
 40
0.088042
100
AcDbArc
 50
55.71246500000001
 51
124.287535
  0
ARC
  5
AE6
330
1E
100
AcDbEntity
  8
HIDDEN
100
AcDbCircle
 10
57.09905899999999
 20
93.05528499999999
 30
0.0
 40
0.088042
100
AcDbArc
 50
55.71246500000001
 51
124.287535
  0
ARC
  5
AE7
330
1E
100
AcDbEntity
  8
HIDDEN
100
AcDbCircle
 10
56.95015699999999
 20
92.813406
 30
0.0
 40
0.32992
100
AcDbArc
 50
72.48264499999999
 51
107.517355
  0
LINE
  5
AE8
330
1E
100
AcDbEntity
  8
HIDDEN
100
AcDbLine
 10
57.12215699999999
 20
93.14332699999999
 30
0.0
 11
57.12215699999999
 21
93.17432700000001
 31
0.0
  0
LINE
  5
AE9
330
1E
100
AcDbEntity
  8
HIDDEN
100
AcDbLine
 10
56.778157
 20
93.14332699999999
 30
0.0
 11
56.778157
 21
93.17432700000001
 31
0.0
  0
LINE
  5
AEA
330
1E
100
AcDbEntity
  8
HIDDEN
100
AcDbLine
 10
57.09905899999999
 20
93.14332699999999
 30
0.0
 11
56.801255
 21
93.14332699999999
 31
0.0
  0
LINE
  5
AEB
330
1E
100
AcDbEntity
  8
HIDDEN
100
AcDbLine
 10
57.12215699999999
 20
93.14332699999999
 30
0.0
 11
56.778157
 21
93.14332699999999
 31
0.0
  0
LINE
  5
AEC
330
1E
100
AcDbEntity
  8
HIDDEN
100
AcDbLine
 10
57.032157
 20
93.17432700000001
 30
0.0
 11
57.032157
 21
93.14332699999999
 31
0.0
  0
LINE
  5
AED
330
1E
100
AcDbEntity
  8
HIDDEN
100
AcDbLine
 10
56.868157
 20
93.17432700000001
 30
0.0
 11
56.868157
 21
93.14332699999999
 31
0.0
  0
LINE
  5
AEE
330
1E
100
AcDbEntity
  8
HIDDEN
100
AcDbLine
 10
57.032157
 20
92.924327
 30
0.0
 11
56.868157
 21
92.924327
 31
0.0
  0
LINE
  5
AEF
330
1E
100
AcDbEntity
  8
HIDDEN
100
AcDbLine
 10
57.00115699999999
 20
92.924327
 30
0.0
 11
56.899157
 21
92.924327
 31
0.0
  0
LINE
  5
AF0
330
1E
100
AcDbEntity
  8
HIDDEN
100
AcDbLine
 10
57.00115699999999
 20
92.924327
 30
0.0
 11
56.899157
 21
92.924327
 31
0.0
  0
LINE
  5
AF1
330
1E
100
AcDbEntity
  8
HIDDEN
100
AcDbLine
 10
57.032157
 20
92.924327
 30
0.0
 11
56.868157
 21
92.924327
 31
0.0
  0
LINE
  5
AF2
330
1E
100
AcDbEntity
  8
HIDDEN
100
AcDbLine
 10
56.868157
 20
93.17432700000001
 30
0.0
 11
56.868157
 21
93.14332699999999
 31
0.0
  0
LINE
  5
AF3
330
1E
100
AcDbEntity
  8
HIDDEN
100
AcDbLine
 10
57.032157
 20
93.17432700000001
 30
0.0
 11
57.032157
 21
93.14332699999999
 31
0.0
  0
LINE
  5
AF4
330
1E
100
AcDbEntity
  8
HIDDEN
100
AcDbLine
 10
57.12215699999999
 20
93.14332699999999
 30
0.0
 11
56.778157
 21
93.14332699999999
 31
0.0
  0
LINE
  5
AF5
330
1E
100
AcDbEntity
  8
HIDDEN
100
AcDbLine
 10
56.778157
 20
93.14332699999999
 30
0.0
 11
56.778157
 21
93.17432700000001
 31
0.0
  0
LINE
  5
AF6
330
1E
100
AcDbEntity
  8
HIDDEN
100
AcDbLine
 10
57.12215699999999
 20
93.14332699999999
 30
0.0
 11
57.12215699999999
 21
93.17432700000001
 31
0.0
  0
ARC
  5
AF7
330
1E
100
AcDbEntity
  8
HIDDEN
100
AcDbCircle
 10
56.95015699999999
 20
92.813406
 30
0.0
 40
0.32992
100
AcDbArc
 50
72.48264499999999
 51
107.517355
  0
ARC
  5
AF8
330
1E
100
AcDbEntity
  8
HIDDEN
100
AcDbCircle
 10
57.09905899999999
 20
93.05528499999999
 30
0.0
 40
0.088042
100
AcDbArc
 50
55.71246500000001
 51
124.287535
  0
ARC
  5
AF9
330
1E
100
AcDbEntity
  8
HIDDEN
100
AcDbCircle
 10
56.801255
 20
93.05528499999999
 30
0.0
 40
0.088042
100
AcDbArc
 50
55.71246500000001
 51
124.287535
  0
LINE
  5
AFA
330
1E
100
AcDbEntity
  8
HIDDEN
100
AcDbLine
 10
57.09905899999999
 20
93.01332700000001
 30
0.0
 11
56.801255
 21
93.01332700000001
 31
0.0
  0
ARC
  5
AFB
330
1E
100
AcDbEntity
  8
HIDDEN
100
AcDbCircle
 10
56.801255
 20
93.101368
 30
0.0
 40
0.088042
100
AcDbArc
 50
235.712465
 51
304.287535
  0
ARC
  5
AFC
330
1E
100
AcDbEntity
  8
HIDDEN
100
AcDbCircle
 10
57.09905899999999
 20
93.101368
 30
0.0
 40
0.088042
100
AcDbArc
 50
235.712465
 51
304.287535
  0
ARC
  5
AFD
330
1E
100
AcDbEntity
  8
HIDDEN
100
AcDbCircle
 10
56.95015699999999
 20
93.34324699999999
 30
0.0
 40
0.32992
100
AcDbArc
 50
252.482645
 51
287.5173549999999
  0
LINE
  5
AFE
330
1E
100
AcDbEntity
  8
HIDDEN
100
AcDbLine
 10
56.850853
 20
93.028626
 30
0.0
 11
56.850853
 21
93.128027
 31
0.0
  0
LINE
  5
AFF
330
1E
100
AcDbEntity
  8
HIDDEN
100
AcDbLine
 10
57.049461
 20
93.028626
 30
0.0
 11
57.049461
 21
93.128027
 31
0.0
  0
LINE
  5
B00
330
1E
100
AcDbEntity
  8
HIDDEN
100
AcDbLine
 10
56.75165699999999
 20
93.028626
 30
0.0
 11
56.75165699999999
 21
93.128027
 31
0.0
  0
LINE
  5
B01
330
1E
100
AcDbEntity
  8
HIDDEN
100
AcDbLine
 10
57.14865699999999
 20
93.028626
 30
0.0
 11
57.14865699999999
 21
93.128027
 31
0.0
  0
LINE
  5
B02
330
1E
100
AcDbEntity
  8
HIDDEN
100
AcDbLine
 10
56.868157
 20
93.01332700000001
 30
0.0
 11
56.868157
 21
92.924327
 31
0.0
  0
LINE
  5
B03
330
1E
100
AcDbEntity
  8
HIDDEN
100
AcDbLine
 10
57.032157
 20
93.01332700000001
 30
0.0
 11
57.032157
 21
92.924327
 31
0.0
  0
LINE
  5
B04
330
1E
100
AcDbEntity
  8
CENTER
100
AcDbLine
 10
32.95015699999999
 20
92.701022
 30
0.0
 11
32.95015699999999
 21
93.17432700000001
 31
0.0
  0
LINE
  5
B05
330
1E
100
AcDbEntity
  8
HIDDEN
100
AcDbLine
 10
76.95015699999999
 20
57.175787
 30
0.0
 11
69.731657
 21
57.175787
 31
0.0
  0
LINE
  5
B06
330
1E
100
AcDbEntity
  8
HIDDEN
100
AcDbLine
 10
76.95015699999999
 20
58.565787
 30
0.0
 11
69.731657
 21
58.565787
 31
0.0
  0
LINE
  5
B07
330
1E
100
AcDbEntity
  8
OBJECT
100
AcDbLine
 10
31.794157
 20
93.236327
 30
0.0
 11
58.10615699999999
 21
93.236327
 31
0.0
  0
LINE
  5
B08
330
1E
100
AcDbEntity
  8
OBJECT
100
AcDbLine
 10
31.950157
 20
93.236327
 30
0.0
 11
31.950157
 21
93.48632700000001
 31
0.0
  0
LINE
  5
B09
330
1E
100
AcDbEntity
  8
OBJECT
100
AcDbLine
 10
31.950157
 20
93.48632700000001
 30
0.0
 11
50.950157
 21
93.48632700000001
 31
0.0
  0
LINE
  5
B0A
330
1E
100
AcDbEntity
  8
OBJECT
100
AcDbLine
 10
50.950157
 20
76.17432700000001
 30
0.0
 11
52.153533
 21
76.17432700000001
 31
0.0
  0
LWPOLYLINE
  5
B0B
330
1E
100
AcDbEntity
  8
OBJECT
100
AcDbPolyline
 90
        3
 70
     0
 43
0.0
 10
28.679766
 20
57.120787
 42
0.245637
 10
28.35953599999999
 20
57.95259999999999
 42
-0.4295390000000001
 10
28.33426199999999
 20
58.620787
 42
59.383029
  0
LINE
  5
B0C
330
1E
100
AcDbEntity
  8
OBJECT
100
AcDbLine
 10
28.28344899999999
 20
58.558787
 30
0.0
 11
32.447448
 21
58.558787
 31
0.0
  0
LINE
  5
B0D
330
1E
100
AcDbEntity
  8
OBJECT
100
AcDbLine
 10
32.41544799999999
 20
58.042787
 30
0.0
 11
32.41544799999999
 21
58.558787
 31
0.0
  0
TEXT
  5
B0E
330
1E
100
AcDbEntity
  8
DIM
100
AcDbText
 10
20.875563
 20
29.819783
 30
0.0
 40
0.5
  1

  7
STANDARD
100
AcDbText
  0
TEXT
  5
B0F
330
1E
100
AcDbEntity
  8
DIM
100
AcDbText
 10
50.146617
 20
39.926012
 30
0.0
 40
0.5
  1

  7
STANDARD
100
AcDbText
  0
CIRCLE
  5
B10
330
1E
100
AcDbEntity
  8
BEND
100
AcDbCircle
 10
54.06172399999999
 20
93.572661
 30
0.0
 40
4.497995999999999
  0
TEXT
  5
B11
330
1E
100
AcDbEntity
  8
DIM
100
AcDbText
 10
31.39661699999999
 20
39.926012
 30
0.0
 40
0.5
  1

  7
STANDARD
100
AcDbText
  0
SOLID
  5
B12
330
1E
100
AcDbEntity
  8
DIM
100
AcDbTrace
 10
58.524156
 20
97.498005
 30
0.0
 11
58.192315
 21
97.84482099999999
 31
0.0
 12
57.317786
 22
96.675891
 32
0.0
 13
57.317786
 23
96.675891
 33
0.0
  0
LINE
  5
B13
330
1E
100
AcDbEntity
  8
DIM
100
AcDbLine
 10
58.358235
 20
97.671413
 30
0.0
 11
60.433538
 21
99.65710300000001
 31
0.0
  0
LINE
  5
B14
330
1E
100
AcDbEntity
  8
DIM
100
AcDbLine
 10
60.433538
 20
99.65710300000001
 30
0.0
 11
61.873538
 21
99.65710300000001
 31
0.0
  0
TEXT
  5
B15
330
1E
100
AcDbEntity
  8
DIM
100
AcDbText
 10
62.296832
 20
99.05045200000001
 30
0.0
 40
1.0
  1
DETAIL "A"
 41
0.75
  7
STANDARD
100
AcDbText
  0
LINE
  5
B16
330
1E
100
AcDbEntity
  8
OBJECT
100
AcDbLine
 10
15.072448
 20
59.620787
 30
0.0
 11
15.134448
 21
59.620787
 31
0.0
  0
LINE
  5
B17
330
1E
100
AcDbEntity
  8
OBJECT
100
AcDbLine
 10
15.072448
 20
56.120787
 30
0.0
 11
15.134448
 21
56.120787
 31
0.0
  0
LINE
  5
B18
330
1E
100
AcDbEntity
  8
OBJECT
100
AcDbLine
 10
15.484448
 20
57.113787
 30
0.0
 11
15.484448
 21
57.175787
 31
0.0
  0
LINE
  5
B19
330
1E
100
AcDbEntity
  8
OBJECT
100
AcDbLine
 10
15.134448
 20
58.565787
 30
0.0
 11
15.484448
 21
58.565787
 31
0.0
  0
LINE
  5
B1A
330
1E
100
AcDbEntity
  8
OBJECT
100
AcDbLine
 10
15.134448
 20
57.175787
 30
0.0
 11
15.484448
 21
57.175787
 31
0.0
  0
LINE
  5
B1B
330
1E
100
AcDbEntity
  8
OBJECT
100
AcDbLine
 10
15.134448
 20
58.62778699999999
 30
0.0
 11
15.484448
 21
58.62778699999999
 31
0.0
  0
LINE
  5
B1C
330
1E
100
AcDbEntity
  8
OBJECT
100
AcDbLine
 10
15.134448
 20
57.113787
 30
0.0
 11
15.484448
 21
57.113787
 31
0.0
  0
LINE
  5
B1D
330
1E
100
AcDbEntity
  8
OBJECT
100
AcDbLine
 10
15.484448
 20
58.565787
 30
0.0
 11
15.484448
 21
58.62778699999999
 31
0.0
  0
LINE
  5
B1E
330
1E
100
AcDbEntity
  8
OBJECT
100
AcDbLine
 10
14.54144800000001
 20
56.682787
 30
0.0
 11
14.54144800000001
 21
59.058787
 31
0.0
  0
LINE
  5
B1F
330
1E
100
AcDbEntity
  8
OBJECT
100
AcDbLine
 10
15.134448
 20
59.245787
 30
0.0
 11
14.72844800000001
 21
59.245787
 31
0.0
  0
LINE
  5
B20
330
1E
100
AcDbEntity
  8
OBJECT
100
AcDbLine
 10
15.134448
 20
56.495787
 30
0.0
 11
14.72844800000001
 21
56.495787
 31
0.0
  0
ARC
  5
B21
330
1E
100
AcDbEntity
  8
OBJECT
100
AcDbCircle
 10
14.72844800000001
 20
59.058787
 30
0.0
 40
0.187
100
AcDbArc
 50
90.0
 51
180.0
  0
ARC
  5
B22
330
1E
100
AcDbEntity
  8
OBJECT
100
AcDbCircle
 10
14.72844800000001
 20
56.682787
 30
0.0
 40
0.187
100
AcDbArc
 50
180.0
 51
270.0
  0
LINE
  5
B23
330
1E
100
AcDbEntity
  8
HIDDEN
100
AcDbLine
 10
15.072448
 20
56.495787
 30
0.0
 11
15.072448
 21
56.886787
 31
0.0
  0
LINE
  5
B24
330
1E
100
AcDbEntity
  8
OBJECT
100
AcDbLine
 10
15.072448
 20
59.245787
 30
0.0
 11
15.072448
 21
59.620787
 31
0.0
  0
LINE
  5
B25
330
1E
100
AcDbEntity
  8
HIDDEN
100
AcDbLine
 10
15.072448
 20
58.854787
 30
0.0
 11
15.072448
 21
59.245787
 31
0.0
  0
LINE
  5
B26
330
1E
100
AcDbEntity
  8
OBJECT
100
AcDbLine
 10
15.072448
 20
58.636787
 30
0.0
 11
15.072448
 21
58.854787
 31
0.0
  0
LINE
  5
B27
330
1E
100
AcDbEntity
  8
HIDDEN
100
AcDbLine
 10
15.072448
 20
58.229787
 30
0.0
 11
15.072448
 21
58.636787
 31
0.0
  0
LINE
  5
B28
330
1E
100
AcDbEntity
  8
OBJECT
100
AcDbLine
 10
15.072448
 20
58.011787
 30
0.0
 11
15.072448
 21
58.229787
 31
0.0
  0
LINE
  5
B29
330
1E
100
AcDbEntity
  8
HIDDEN
100
AcDbLine
 10
15.072448
 20
57.729787
 30
0.0
 11
15.072448
 21
58.011787
 31
0.0
  0
LINE
  5
B2A
330
1E
100
AcDbEntity
  8
OBJECT
100
AcDbLine
 10
15.072448
 20
57.511787
 30
0.0
 11
15.072448
 21
57.729787
 31
0.0
  0
LINE
  5
B2B
330
1E
100
AcDbEntity
  8
HIDDEN
100
AcDbLine
 10
15.072448
 20
57.104787
 30
0.0
 11
15.072448
 21
57.511787
 31
0.0
  0
LINE
  5
B2C
330
1E
100
AcDbEntity
  8
OBJECT
100
AcDbLine
 10
15.072448
 20
56.886787
 30
0.0
 11
15.072448
 21
57.104787
 31
0.0
  0
LINE
  5
B2D
330
1E
100
AcDbEntity
  8
OBJECT
100
AcDbLine
 10
32.94644799999999
 20
56.886787
 30
0.0
 11
32.94644799999999
 21
57.104787
 31
0.0
  0
LINE
  5
B2E
330
1E
100
AcDbEntity
  8
HIDDEN
100
AcDbLine
 10
32.94644799999999
 20
57.104787
 30
0.0
 11
32.94644799999999
 21
57.511787
 31
0.0
  0
LINE
  5
B2F
330
1E
100
AcDbEntity
  8
OBJECT
100
AcDbLine
 10
32.94644799999999
 20
57.511787
 30
0.0
 11
32.94644799999999
 21
57.729787
 31
0.0
  0
LINE
  5
B30
330
1E
100
AcDbEntity
  8
HIDDEN
100
AcDbLine
 10
32.94644799999999
 20
57.729787
 30
0.0
 11
32.94644799999999
 21
58.011787
 31
0.0
  0
LINE
  5
B31
330
1E
100
AcDbEntity
  8
OBJECT
100
AcDbLine
 10
32.94644799999999
 20
58.011787
 30
0.0
 11
32.94644799999999
 21
58.229787
 31
0.0
  0
LINE
  5
B32
330
1E
100
AcDbEntity
  8
HIDDEN
100
AcDbLine
 10
32.94644799999999
 20
58.229787
 30
0.0
 11
32.94644799999999
 21
58.636787
 31
0.0
  0
LINE
  5
B33
330
1E
100
AcDbEntity
  8
OBJECT
100
AcDbLine
 10
32.94644799999999
 20
58.636787
 30
0.0
 11
32.94644799999999
 21
58.854787
 31
0.0
  0
LINE
  5
B34
330
1E
100
AcDbEntity
  8
HIDDEN
100
AcDbLine
 10
32.94644799999999
 20
58.854787
 30
0.0
 11
32.94644799999999
 21
59.245787
 31
0.0
  0
LINE
  5
B35
330
1E
100
AcDbEntity
  8
OBJECT
100
AcDbLine
 10
32.884448
 20
58.854787
 30
0.0
 11
33.30844799999999
 21
58.854787
 31
0.0
  0
LINE
  5
B36
330
1E
100
AcDbEntity
  8
OBJECT
100
AcDbLine
 10
32.884448
 20
58.636787
 30
0.0
 11
33.30844799999999
 21
58.636787
 31
0.0
  0
LINE
  5
B37
330
1E
100
AcDbEntity
  8
OBJECT
100
AcDbLine
 10
32.94644799999999
 20
59.245787
 30
0.0
 11
32.94644799999999
 21
59.620787
 31
0.0
  0
LINE
  5
B38
330
1E
100
AcDbEntity
  8
HIDDEN
100
AcDbLine
 10
32.94644799999999
 20
56.495787
 30
0.0
 11
32.94644799999999
 21
56.886787
 31
0.0
  0
ARC
  5
B39
330
1E
100
AcDbEntity
  8
OBJECT
100
AcDbCircle
 10
33.29044799999999
 20
56.682787
 30
0.0
 40
0.187
100
AcDbArc
 50
270.0
 51
0.0
  0
ARC
  5
B3A
330
1E
100
AcDbEntity
  8
OBJECT
100
AcDbCircle
 10
33.29044799999999
 20
59.058787
 30
0.0
 40
0.187
100
AcDbArc
 50
0.0
 51
90.0
  0
LINE
  5
B3B
330
1E
100
AcDbEntity
  8
OBJECT
100
AcDbLine
 10
32.884448
 20
56.495787
 30
0.0
 11
33.29044799999999
 21
56.495787
 31
0.0
  0
LINE
  5
B3C
330
1E
100
AcDbEntity
  8
OBJECT
100
AcDbLine
 10
32.884448
 20
59.245787
 30
0.0
 11
33.29044799999999
 21
59.245787
 31
0.0
  0
LINE
  5
B3D
330
1E
100
AcDbEntity
  8
OBJECT
100
AcDbLine
 10
33.47744799999999
 20
56.682787
 30
0.0
 11
33.47744799999999
 21
59.058787
 31
0.0
  0
LINE
  5
B3E
330
1E
100
AcDbEntity
  8
OBJECT
100
AcDbLine
 10
32.94644799999999
 20
56.120787
 30
0.0
 11
32.884448
 21
56.120787
 31
0.0
  0
LINE
  5
B3F
330
1E
100
AcDbEntity
  8
OBJECT
100
AcDbLine
 10
32.94644799999999
 20
59.620787
 30
0.0
 11
32.884448
 21
59.620787
 31
0.0
  0
LINE
  5
B40
330
1E
100
AcDbEntity
  8
HIDDEN
100
AcDbLine
 10
33.197448
 20
57.952787
 30
0.0
 11
33.197448
 21
57.78878699999999
 31
0.0
  0
LINE
  5
B41
330
1E
100
AcDbEntity
  8
HIDDEN
100
AcDbLine
 10
33.08744799999999
 20
57.952787
 30
0.0
 11
33.197448
 21
57.952787
 31
0.0
  0
LINE
  5
B42
330
1E
100
AcDbEntity
  8
HIDDEN
100
AcDbLine
 10
33.08744799999999
 20
57.78878699999999
 30
0.0
 11
33.197448
 21
57.78878699999999
 31
0.0
  0
LINE
  5
B43
330
1E
100
AcDbEntity
  8
HIDDEN
100
AcDbLine
 10
32.978448
 20
57.698787
 30
0.0
 11
32.978448
 21
58.042787
 31
0.0
  0
LINE
  5
B44
330
1E
100
AcDbEntity
  8
HIDDEN
100
AcDbLine
 10
32.94644799999999
 20
58.042787
 30
0.0
 11
33.08744799999999
 21
58.042787
 31
0.0
  0
LINE
  5
B45
330
1E
100
AcDbEntity
  8
HIDDEN
100
AcDbLine
 10
32.94644799999999
 20
57.698787
 30
0.0
 11
33.08744799999999
 21
57.698787
 31
0.0
  0
LINE
  5
B46
330
1E
100
AcDbEntity
  8
HIDDEN
100
AcDbLine
 10
33.08744799999999
 20
57.698787
 30
0.0
 11
33.08744799999999
 21
58.042787
 31
0.0
  0
LINE
  5
B47
330
1E
100
AcDbEntity
  8
OBJECT
100
AcDbLine
 10
32.94644799999999
 20
56.120787
 30
0.0
 11
32.94644799999999
 21
56.495787
 31
0.0
  0
LINE
  5
B48
330
1E
100
AcDbEntity
  8
OBJECT
100
AcDbLine
 10
32.884448
 20
56.120787
 30
0.0
 11
32.884448
 21
59.620787
 31
0.0
  0
LINE
  5
B49
330
1E
100
AcDbEntity
  8
OBJECT
100
AcDbLine
 10
32.534448
 20
58.565787
 30
0.0
 11
32.534448
 21
58.62778699999999
 31
0.0
  0
LINE
  5
B4A
330
1E
100
AcDbEntity
  8
OBJECT
100
AcDbLine
 10
32.884448
 20
58.62778699999999
 30
0.0
 11
32.534448
 21
58.62778699999999
 31
0.0
  0
LINE
  5
B4B
330
1E
100
AcDbEntity
  8
OBJECT
100
AcDbLine
 10
32.884448
 20
58.565787
 30
0.0
 11
32.534448
 21
58.565787
 31
0.0
  0
LINE
  5
B4C
330
1E
100
AcDbEntity
  8
OBJECT
100
AcDbLine
 10
32.71244799999999
 20
58.565787
 30
0.0
 11
32.71244799999999
 21
58.565787
 31
0.0
  0
LINE
  5
B4D
330
1E
100
AcDbEntity
  8
OBJECT
100
AcDbLine
 10
32.884448
 20
57.113787
 30
0.0
 11
32.534448
 21
57.113787
 31
0.0
  0
LINE
  5
B4E
330
1E
100
AcDbEntity
  8
OBJECT
100
AcDbLine
 10
32.884448
 20
57.175787
 30
0.0
 11
32.534448
 21
57.175787
 31
0.0
  0
LINE
  5
B4F
330
1E
100
AcDbEntity
  8
OBJECT
100
AcDbLine
 10
32.534448
 20
57.113787
 30
0.0
 11
32.534448
 21
57.175787
 31
0.0
  0
LINE
  5
B50
330
1E
100
AcDbEntity
  8
OBJECT
100
AcDbLine
 10
32.71244799999999
 20
57.175787
 30
0.0
 11
32.71244799999999
 21
57.175787
 31
0.0
  0
LINE
  5
B51
330
1E
100
AcDbEntity
  8
HIDDEN
100
AcDbLine
 10
72.032157
 20
76.459327
 30
0.0
 11
72.032157
 21
76.548327
 31
0.0
  0
LINE
  5
B52
330
1E
100
AcDbEntity
  8
HIDDEN
100
AcDbLine
 10
71.868157
 20
76.459327
 30
0.0
 11
71.868157
 21
76.548327
 31
0.0
  0
LINE
  5
B53
330
1E
100
AcDbEntity
  8
HIDDEN
100
AcDbLine
 10
72.148657
 20
76.444027
 30
0.0
 11
72.148657
 21
76.344626
 31
0.0
  0
LINE
  5
B54
330
1E
100
AcDbEntity
  8
HIDDEN
100
AcDbLine
 10
71.75165699999999
 20
76.444027
 30
0.0
 11
71.75165699999999
 21
76.344626
 31
0.0
  0
LINE
  5
B55
330
1E
100
AcDbEntity
  8
HIDDEN
100
AcDbLine
 10
72.04946099999999
 20
76.444027
 30
0.0
 11
72.04946099999999
 21
76.344626
 31
0.0
  0
LINE
  5
B56
330
1E
100
AcDbEntity
  8
HIDDEN
100
AcDbLine
 10
71.850853
 20
76.444027
 30
0.0
 11
71.850853
 21
76.344626
 31
0.0
  0
ARC
  5
B57
330
1E
100
AcDbEntity
  8
HIDDEN
100
AcDbCircle
 10
71.95015699999999
 20
76.129406
 30
0.0
 40
0.32992
100
AcDbArc
 50
72.48264499999999
 51
107.517355
  0
ARC
  5
B58
330
1E
100
AcDbEntity
  8
HIDDEN
100
AcDbCircle
 10
72.09905899999999
 20
76.371285
 30
0.0
 40
0.088042
100
AcDbArc
 50
55.71246500000001
 51
124.287535
  0
ARC
  5
B59
330
1E
100
AcDbEntity
  8
HIDDEN
100
AcDbCircle
 10
71.80125499999999
 20
76.371285
 30
0.0
 40
0.088042
100
AcDbArc
 50
55.71246500000001
 51
124.287535
  0
LINE
  5
B5A
330
1E
100
AcDbEntity
  8
HIDDEN
100
AcDbLine
 10
72.09905899999999
 20
76.459327
 30
0.0
 11
71.80125499999999
 21
76.459327
 31
0.0
  0
ARC
  5
B5B
330
1E
100
AcDbEntity
  8
HIDDEN
100
AcDbCircle
 10
71.80125499999999
 20
76.41736800000001
 30
0.0
 40
0.088042
100
AcDbArc
 50
235.712465
 51
304.287535
  0
ARC
  5
B5C
330
1E
100
AcDbEntity
  8
HIDDEN
100
AcDbCircle
 10
72.09905899999999
 20
76.41736800000001
 30
0.0
 40
0.088042
100
AcDbArc
 50
235.712465
 51
304.287535
  0
ARC
  5
B5D
330
1E
100
AcDbEntity
  8
HIDDEN
100
AcDbCircle
 10
71.95015699999999
 20
76.65924699999999
 30
0.0
 40
0.32992
100
AcDbArc
 50
252.482645
 51
287.5173549999999
  0
LINE
  5
B5E
330
1E
100
AcDbEntity
  8
HIDDEN
100
AcDbLine
 10
72.122157
 20
76.32932700000001
 30
0.0
 11
72.122157
 21
76.298327
 31
0.0
  0
LINE
  5
B5F
330
1E
100
AcDbEntity
  8
HIDDEN
100
AcDbLine
 10
71.778157
 20
76.32932700000001
 30
0.0
 11
71.778157
 21
76.298327
 31
0.0
  0
LINE
  5
B60
330
1E
100
AcDbEntity
  8
HIDDEN
100
AcDbLine
 10
72.122157
 20
76.32932700000001
 30
0.0
 11
71.778157
 21
76.32932700000001
 31
0.0
  0
LINE
  5
B61
330
1E
100
AcDbEntity
  8
HIDDEN
100
AcDbLine
 10
72.032157
 20
76.298327
 30
0.0
 11
72.032157
 21
76.32932700000001
 31
0.0
  0
LINE
  5
B62
330
1E
100
AcDbEntity
  8
HIDDEN
100
AcDbLine
 10
71.868157
 20
76.298327
 30
0.0
 11
71.868157
 21
76.32932700000001
 31
0.0
  0
LINE
  5
B63
330
1E
100
AcDbEntity
  8
HIDDEN
100
AcDbLine
 10
72.032157
 20
76.548327
 30
0.0
 11
71.868157
 21
76.548327
 31
0.0
  0
LINE
  5
B64
330
1E
100
AcDbEntity
  8
HIDDEN
100
AcDbLine
 10
72.00115699999999
 20
76.548327
 30
0.0
 11
71.89915699999999
 21
76.548327
 31
0.0
  0
LINE
  5
B65
330
1E
100
AcDbEntity
  8
HIDDEN
100
AcDbLine
 10
72.00115699999999
 20
76.548327
 30
0.0
 11
71.89915699999999
 21
76.548327
 31
0.0
  0
LINE
  5
B66
330
1E
100
AcDbEntity
  8
HIDDEN
100
AcDbLine
 10
72.032157
 20
76.548327
 30
0.0
 11
71.868157
 21
76.548327
 31
0.0
  0
LINE
  5
B67
330
1E
100
AcDbEntity
  8
HIDDEN
100
AcDbLine
 10
71.868157
 20
76.298327
 30
0.0
 11
71.868157
 21
76.32932700000001
 31
0.0
  0
LINE
  5
B68
330
1E
100
AcDbEntity
  8
HIDDEN
100
AcDbLine
 10
72.032157
 20
76.298327
 30
0.0
 11
72.032157
 21
76.32932700000001
 31
0.0
  0
LINE
  5
B69
330
1E
100
AcDbEntity
  8
HIDDEN
100
AcDbLine
 10
72.122157
 20
76.32932700000001
 30
0.0
 11
71.778157
 21
76.32932700000001
 31
0.0
  0
LINE
  5
B6A
330
1E
100
AcDbEntity
  8
HIDDEN
100
AcDbLine
 10
72.09905899999999
 20
76.32932700000001
 30
0.0
 11
71.80125499999999
 21
76.32932700000001
 31
0.0
  0
LINE
  5
B6B
330
1E
100
AcDbEntity
  8
HIDDEN
100
AcDbLine
 10
71.778157
 20
76.32932700000001
 30
0.0
 11
71.778157
 21
76.298327
 31
0.0
  0
LINE
  5
B6C
330
1E
100
AcDbEntity
  8
HIDDEN
100
AcDbLine
 10
72.122157
 20
76.32932700000001
 30
0.0
 11
72.122157
 21
76.298327
 31
0.0
  0
ARC
  5
B6D
330
1E
100
AcDbEntity
  8
HIDDEN
100
AcDbCircle
 10
71.95015699999999
 20
76.65924699999999
 30
0.0
 40
0.32992
100
AcDbArc
 50
252.482645
 51
287.5173549999999
  0
ARC
  5
B6E
330
1E
100
AcDbEntity
  8
HIDDEN
100
AcDbCircle
 10
72.09905899999999
 20
76.41736800000001
 30
0.0
 40
0.088042
100
AcDbArc
 50
235.712465
 51
304.287535
  0
ARC
  5
B6F
330
1E
100
AcDbEntity
  8
HIDDEN
100
AcDbCircle
 10
71.80125499999999
 20
76.41736800000001
 30
0.0
 40
0.088042
100
AcDbArc
 50
235.712465
 51
304.287535
  0
LINE
  5
B70
330
1E
100
AcDbEntity
  8
HIDDEN
100
AcDbLine
 10
72.09905899999999
 20
76.459327
 30
0.0
 11
71.80125499999999
 21
76.459327
 31
0.0
  0
ARC
  5
B71
330
1E
100
AcDbEntity
  8
HIDDEN
100
AcDbCircle
 10
71.80125499999999
 20
76.371285
 30
0.0
 40
0.088042
100
AcDbArc
 50
55.71246500000001
 51
124.287535
  0
ARC
  5
B72
330
1E
100
AcDbEntity
  8
HIDDEN
100
AcDbCircle
 10
72.09905899999999
 20
76.371285
 30
0.0
 40
0.088042
100
AcDbArc
 50
55.71246500000001
 51
124.287535
  0
ARC
  5
B73
330
1E
100
AcDbEntity
  8
HIDDEN
100
AcDbCircle
 10
71.95015699999999
 20
76.129406
 30
0.0
 40
0.32992
100
AcDbArc
 50
72.48264499999999
 51
107.517355
  0
LINE
  5
B74
330
1E
100
AcDbEntity
  8
HIDDEN
100
AcDbLine
 10
71.850853
 20
76.444027
 30
0.0
 11
71.850853
 21
76.344626
 31
0.0
  0
LINE
  5
B75
330
1E
100
AcDbEntity
  8
HIDDEN
100
AcDbLine
 10
72.04946099999999
 20
76.444027
 30
0.0
 11
72.04946099999999
 21
76.344626
 31
0.0
  0
LINE
  5
B76
330
1E
100
AcDbEntity
  8
HIDDEN
100
AcDbLine
 10
71.75165699999999
 20
76.444027
 30
0.0
 11
71.75165699999999
 21
76.344626
 31
0.0
  0
LINE
  5
B77
330
1E
100
AcDbEntity
  8
HIDDEN
100
AcDbLine
 10
72.148657
 20
76.444027
 30
0.0
 11
72.148657
 21
76.344626
 31
0.0
  0
LINE
  5
B78
330
1E
100
AcDbEntity
  8
HIDDEN
100
AcDbLine
 10
71.868157
 20
76.459327
 30
0.0
 11
71.868157
 21
76.548327
 31
0.0
  0
LINE
  5
B79
330
1E
100
AcDbEntity
  8
HIDDEN
100
AcDbLine
 10
72.032157
 20
76.459327
 30
0.0
 11
72.032157
 21
76.548327
 31
0.0
  0
LINE
  5
B7A
330
1E
100
AcDbEntity
  8
CENTER
100
AcDbLine
 10
71.95015699999999
 20
76.708625
 30
0.0
 11
71.95015699999999
 21
76.298327
 31
0.0
  0
LINE
  5
B7B
330
1E
100
AcDbEntity
  8
CENTER
100
AcDbLine
 10
71.95015699999999
 20
76.236327
 30
0.0
 11
71.95015699999999
 21
76.003372
 31
0.0
  0
LINE
  5
B7C
330
1E
100
AcDbEntity
  8
CENTER
100
AcDbLine
 10
75.82515699999999
 20
75.54085500000001
 30
0.0
 11
75.82515699999999
 21
75.861327
 31
0.0
  0
LINE
  5
B7D
330
1E
100
AcDbEntity
  8
CENTER
100
AcDbLine
 10
76.32515699999999
 20
75.54085500000001
 30
0.0
 11
76.32515699999999
 21
75.861327
 31
0.0
  0
LINE
  5
B7F
330
1E
100
AcDbEntity
  8
OBJECT
100
AcDbLine
 10
53.480157
 20
76.211327
 30
0.0
 11
52.310157
 21
76.211327
 31
0.0
  0
LINE
  5
B80
330
1E
100
AcDbEntity
  8
OBJECT
100
AcDbLine
 10
50.652157
 20
75.26832699999999
 30
0.0
 11
50.59015699999999
 21
75.26832699999999
 31
0.0
  0
LINE
  5
B81
330
1E
100
AcDbEntity
  8
OBJECT
100
AcDbLine
 10
50.652157
 20
75.799327
 30
0.0
 11
50.652157
 21
75.26832699999999
 31
0.0
  0
LINE
  5
B82
330
1E
100
AcDbEntity
  8
OBJECT
100
AcDbLine
 10
57.83715700000001
 20
75.799327
 30
0.0
 11
50.652157
 21
75.799327
 31
0.0
  0
LINE
  5
B83
330
1E
100
AcDbEntity
  8
OBJECT
100
AcDbLine
 10
50.59015699999999
 20
75.861327
 30
0.0
 11
50.59015699999999
 21
75.26832699999999
 31
0.0
  0
LINE
  5
B84
330
1E
100
AcDbEntity
  8
OBJECT
100
AcDbLine
 10
57.83715700000001
 20
75.861327
 30
0.0
 11
50.59015699999999
 21
75.861327
 31
0.0
  0
LINE
  5
B85
330
1E
100
AcDbEntity
  8
OBJECT
100
AcDbLine
 10
57.83715700000001
 20
75.861327
 30
0.0
 11
57.83715700000001
 21
75.799327
 31
0.0
  0
CIRCLE
  5
BB9
330
1E
100
AcDbEntity
  8
OBJECT
100
AcDbCircle
 10
71.45015699999999
 20
57.870787
 30
0.0
 40
0.172
  0
LWPOLYLINE
  5
BBA
330
1E
100
AcDbEntity
  8
OBJECT
100
AcDbPolyline
 90
        6
 70
     1
 43
0.0
 10
71.549461
 20
58.042787
 10
71.64876600000001
 20
57.870787
 10
71.549461
 20
57.698787
 10
71.350853
 20
57.698787
 10
71.251549
 20
57.870787
 10
71.350853
 20
58.042787
  0
CIRCLE
  5
BBB
330
1E
100
AcDbEntity
  8
OBJECT
100
AcDbCircle
 10
71.45015699999999
 20
57.870787
 30
0.0
 40
0.082
  0
LINE
  5
BED
330
1E
100
AcDbEntity
  8
OBJECT
100
AcDbLine
 10
76.916657
 20
75.26832699999999
 30
0.0
 11
76.978657
 21
75.26832699999999
 31
0.0
  0
LINE
  5
BEE
330
1E
100
AcDbEntity
  8
OBJECT
100
AcDbLine
 10
76.916657
 20
75.799327
 30
0.0
 11
76.916657
 21
75.26832699999999
 31
0.0
  0
LINE
  5
BEF
330
1E
100
AcDbEntity
  8
OBJECT
100
AcDbLine
 10
69.731657
 20
75.799327
 30
0.0
 11
76.916657
 21
75.799327
 31
0.0
  0
LINE
  5
BF0
330
1E
100
AcDbEntity
  8
OBJECT
100
AcDbLine
 10
76.978657
 20
75.861327
 30
0.0
 11
76.978657
 21
75.26832699999999
 31
0.0
  0
LINE
  5
BF1
330
1E
100
AcDbEntity
  8
OBJECT
100
AcDbLine
 10
69.731657
 20
75.861327
 30
0.0
 11
76.978657
 21
75.861327
 31
0.0
  0
LINE
  5
BF2
330
1E
100
AcDbEntity
  8
OBJECT
100
AcDbLine
 10
69.731657
 20
75.861327
 30
0.0
 11
69.731657
 21
75.799327
 31
0.0
  0
LINE
  5
BF3
330
1E
100
AcDbEntity
  8
OBJECT
100
AcDbLine
 10
57.83715700000001
 20
58.621287
 30
0.0
 11
69.731657
 21
58.621287
 31
0.0
  0
LINE
  5
BF4
330
1E
100
AcDbEntity
  8
HIDDEN
100
AcDbLine
 10
69.731657
 20
58.621287
 30
0.0
 11
76.978657
 21
58.621287
 31
0.0
  0
LINE
  5
BF5
330
1E
100
AcDbEntity
  8
OBJECT
100
AcDbLine
 10
57.83715700000001
 20
57.121287
 30
0.0
 11
69.731657
 21
57.121287
 31
0.0
  0
LINE
  5
BF6
330
1E
100
AcDbEntity
  8
HIDDEN
100
AcDbLine
 10
69.731657
 20
57.121287
 30
0.0
 11
76.978657
 21
57.121287
 31
0.0
  0
LINE
  5
BFC
330
1E
100
AcDbEntity
  8
OBJECT
100
AcDbLine
 10
71.532157
 20
75.638327
 30
0.0
 11
71.532157
 21
75.54932700000001
 31
0.0
  0
LINE
  5
BFD
330
1E
100
AcDbEntity
  8
OBJECT
100
AcDbLine
 10
71.36815699999999
 20
75.638327
 30
0.0
 11
71.36815699999999
 21
75.54932700000001
 31
0.0
  0
LINE
  5
BFE
330
1E
100
AcDbEntity
  8
OBJECT
100
AcDbLine
 10
71.648657
 20
75.653626
 30
0.0
 11
71.648657
 21
75.753027
 31
0.0
  0
LINE
  5
BFF
330
1E
100
AcDbEntity
  8
OBJECT
100
AcDbLine
 10
71.251657
 20
75.653626
 30
0.0
 11
71.251657
 21
75.753027
 31
0.0
  0
LINE
  5
C00
330
1E
100
AcDbEntity
  8
OBJECT
100
AcDbLine
 10
71.549461
 20
75.653626
 30
0.0
 11
71.549461
 21
75.753027
 31
0.0
  0
LINE
  5
C01
330
1E
100
AcDbEntity
  8
OBJECT
100
AcDbLine
 10
71.350853
 20
75.653626
 30
0.0
 11
71.350853
 21
75.753027
 31
0.0
  0
ARC
  5
C02
330
1E
100
AcDbEntity
  8
OBJECT
100
AcDbCircle
 10
71.45015699999999
 20
75.96824699999999
 30
0.0
 40
0.32992
100
AcDbArc
 50
252.482645
 51
287.5173549999999
  0
ARC
  5
C03
330
1E
100
AcDbEntity
  8
OBJECT
100
AcDbCircle
 10
71.599059
 20
75.72636800000001
 30
0.0
 40
0.088042
100
AcDbArc
 50
235.712465
 51
304.287535
  0
ARC
  5
C04
330
1E
100
AcDbEntity
  8
OBJECT
100
AcDbCircle
 10
71.301255
 20
75.72636800000001
 30
0.0
 40
0.088042
100
AcDbArc
 50
235.712465
 51
304.287535
  0
LINE
  5
C05
330
1E
100
AcDbEntity
  8
OBJECT
100
AcDbLine
 10
71.599059
 20
75.638327
 30
0.0
 11
71.301255
 21
75.638327
 31
0.0
  0
ARC
  5
C06
330
1E
100
AcDbEntity
  8
OBJECT
100
AcDbCircle
 10
71.301255
 20
75.680285
 30
0.0
 40
0.088042
100
AcDbArc
 50
55.71246500000001
 51
124.287535
  0
ARC
  5
C07
330
1E
100
AcDbEntity
  8
OBJECT
100
AcDbCircle
 10
71.599059
 20
75.680285
 30
0.0
 40
0.088042
100
AcDbArc
 50
55.71246500000001
 51
124.287535
  0
ARC
  5
C08
330
1E
100
AcDbEntity
  8
OBJECT
100
AcDbCircle
 10
71.45015699999999
 20
75.438406
 30
0.0
 40
0.32992
100
AcDbArc
 50
72.48264499999999
 51
107.517355
  0
LINE
  5
C09
330
1E
100
AcDbEntity
  8
OBJECT
100
AcDbLine
 10
71.622157
 20
75.768327
 30
0.0
 11
71.622157
 21
75.799327
 31
0.0
  0
LINE
  5
C0A
330
1E
100
AcDbEntity
  8
OBJECT
100
AcDbLine
 10
71.27815699999999
 20
75.768327
 30
0.0
 11
71.27815699999999
 21
75.799327
 31
0.0
  0
LINE
  5
C0B
330
1E
100
AcDbEntity
  8
OBJECT
100
AcDbLine
 10
71.599059
 20
75.768327
 30
0.0
 11
71.301255
 21
75.768327
 31
0.0
  0
LINE
  5
C0C
330
1E
100
AcDbEntity
  8
OBJECT
100
AcDbLine
 10
71.622157
 20
75.768327
 30
0.0
 11
71.27815699999999
 21
75.768327
 31
0.0
  0
LINE
  5
C0D
330
1E
100
AcDbEntity
  8
OBJECT
100
AcDbLine
 10
71.532157
 20
75.799327
 30
0.0
 11
71.532157
 21
75.768327
 31
0.0
  0
LINE
  5
C0E
330
1E
100
AcDbEntity
  8
OBJECT
100
AcDbLine
 10
71.36815699999999
 20
75.799327
 30
0.0
 11
71.36815699999999
 21
75.768327
 31
0.0
  0
LINE
  5
C0F
330
1E
100
AcDbEntity
  8
OBJECT
100
AcDbLine
 10
71.532157
 20
75.54932700000001
 30
0.0
 11
71.36815699999999
 21
75.54932700000001
 31
0.0
  0
LINE
  5
C10
330
1E
100
AcDbEntity
  8
OBJECT
100
AcDbLine
 10
71.50115699999999
 20
75.54932700000001
 30
0.0
 11
71.39915699999999
 21
75.54932700000001
 31
0.0
  0
LINE
  5
C11
330
1E
100
AcDbEntity
  8
OBJECT
100
AcDbLine
 10
71.50115699999999
 20
75.54932700000001
 30
0.0
 11
71.39915699999999
 21
75.54932700000001
 31
0.0
  0
LINE
  5
C12
330
1E
100
AcDbEntity
  8
OBJECT
100
AcDbLine
 10
71.532157
 20
75.54932700000001
 30
0.0
 11
71.36815699999999
 21
75.54932700000001
 31
0.0
  0
LINE
  5
C13
330
1E
100
AcDbEntity
  8
OBJECT
100
AcDbLine
 10
71.36815699999999
 20
75.799327
 30
0.0
 11
71.36815699999999
 21
75.768327
 31
0.0
  0
LINE
  5
C14
330
1E
100
AcDbEntity
  8
OBJECT
100
AcDbLine
 10
71.532157
 20
75.799327
 30
0.0
 11
71.532157
 21
75.768327
 31
0.0
  0
LINE
  5
C15
330
1E
100
AcDbEntity
  8
OBJECT
100
AcDbLine
 10
71.622157
 20
75.768327
 30
0.0
 11
71.27815699999999
 21
75.768327
 31
0.0
  0
LINE
  5
C16
330
1E
100
AcDbEntity
  8
OBJECT
100
AcDbLine
 10
71.27815699999999
 20
75.768327
 30
0.0
 11
71.27815699999999
 21
75.799327
 31
0.0
  0
LINE
  5
C17
330
1E
100
AcDbEntity
  8
OBJECT
100
AcDbLine
 10
71.622157
 20
75.768327
 30
0.0
 11
71.622157
 21
75.799327
 31
0.0
  0
ARC
  5
C18
330
1E
100
AcDbEntity
  8
OBJECT
100
AcDbCircle
 10
71.45015699999999
 20
75.438406
 30
0.0
 40
0.32992
100
AcDbArc
 50
72.48264499999999
 51
107.517355
  0
ARC
  5
C19
330
1E
100
AcDbEntity
  8
OBJECT
100
AcDbCircle
 10
71.599059
 20
75.680285
 30
0.0
 40
0.088042
100
AcDbArc
 50
55.71246500000001
 51
124.287535
  0
ARC
  5
C1A
330
1E
100
AcDbEntity
  8
OBJECT
100
AcDbCircle
 10
71.301255
 20
75.680285
 30
0.0
 40
0.088042
100
AcDbArc
 50
55.71246500000001
 51
124.287535
  0
LINE
  5
C1B
330
1E
100
AcDbEntity
  8
OBJECT
100
AcDbLine
 10
71.599059
 20
75.638327
 30
0.0
 11
71.301255
 21
75.638327
 31
0.0
  0
ARC
  5
C1C
330
1E
100
AcDbEntity
  8
OBJECT
100
AcDbCircle
 10
71.301255
 20
75.72636800000001
 30
0.0
 40
0.088042
100
AcDbArc
 50
235.712465
 51
304.287535
  0
ARC
  5
C1D
330
1E
100
AcDbEntity
  8
OBJECT
100
AcDbCircle
 10
71.599059
 20
75.72636800000001
 30
0.0
 40
0.088042
100
AcDbArc
 50
235.712465
 51
304.287535
  0
ARC
  5
C1E
330
1E
100
AcDbEntity
  8
OBJECT
100
AcDbCircle
 10
71.45015699999999
 20
75.96824699999999
 30
0.0
 40
0.32992
100
AcDbArc
 50
252.482645
 51
287.5173549999999
  0
LINE
  5
C1F
330
1E
100
AcDbEntity
  8
OBJECT
100
AcDbLine
 10
71.350853
 20
75.653626
 30
0.0
 11
71.350853
 21
75.753027
 31
0.0
  0
LINE
  5
C20
330
1E
100
AcDbEntity
  8
OBJECT
100
AcDbLine
 10
71.549461
 20
75.653626
 30
0.0
 11
71.549461
 21
75.753027
 31
0.0
  0
LINE
  5
C21
330
1E
100
AcDbEntity
  8
OBJECT
100
AcDbLine
 10
71.251657
 20
75.653626
 30
0.0
 11
71.251657
 21
75.753027
 31
0.0
  0
LINE
  5
C22
330
1E
100
AcDbEntity
  8
OBJECT
100
AcDbLine
 10
71.648657
 20
75.653626
 30
0.0
 11
71.648657
 21
75.753027
 31
0.0
  0
LINE
  5
C23
330
1E
100
AcDbEntity
  8
OBJECT
100
AcDbLine
 10
71.36815699999999
 20
75.638327
 30
0.0
 11
71.36815699999999
 21
75.54932700000001
 31
0.0
  0
LINE
  5
C24
330
1E
100
AcDbEntity
  8
OBJECT
100
AcDbLine
 10
71.532157
 20
75.638327
 30
0.0
 11
71.532157
 21
75.54932700000001
 31
0.0
  0
LINE
  5
C25
330
1E
100
AcDbEntity
  8
OBJECT
100
AcDbLine
 10
76.407157
 20
75.638327
 30
0.0
 11
76.407157
 21
75.54932700000001
 31
0.0
  0
LINE
  5
C26
330
1E
100
AcDbEntity
  8
OBJECT
100
AcDbLine
 10
76.243157
 20
75.638327
 30
0.0
 11
76.243157
 21
75.54932700000001
 31
0.0
  0
LINE
  5
C27
330
1E
100
AcDbEntity
  8
OBJECT
100
AcDbLine
 10
76.523657
 20
75.653626
 30
0.0
 11
76.523657
 21
75.753027
 31
0.0
  0
LINE
  5
C28
330
1E
100
AcDbEntity
  8
OBJECT
100
AcDbLine
 10
76.12665699999999
 20
75.653626
 30
0.0
 11
76.12665699999999
 21
75.753027
 31
0.0
  0
LINE
  5
C29
330
1E
100
AcDbEntity
  8
OBJECT
100
AcDbLine
 10
76.42446099999999
 20
75.653626
 30
0.0
 11
76.42446099999999
 21
75.753027
 31
0.0
  0
LINE
  5
C2A
330
1E
100
AcDbEntity
  8
OBJECT
100
AcDbLine
 10
76.225853
 20
75.653626
 30
0.0
 11
76.225853
 21
75.753027
 31
0.0
  0
ARC
  5
C2B
330
1E
100
AcDbEntity
  8
OBJECT
100
AcDbCircle
 10
76.32515699999999
 20
75.96824699999999
 30
0.0
 40
0.32992
100
AcDbArc
 50
252.482645
 51
287.5173549999999
  0
ARC
  5
C2C
330
1E
100
AcDbEntity
  8
OBJECT
100
AcDbCircle
 10
76.47405899999999
 20
75.72636800000001
 30
0.0
 40
0.088042
100
AcDbArc
 50
235.712465
 51
304.287535
  0
ARC
  5
C2D
330
1E
100
AcDbEntity
  8
OBJECT
100
AcDbCircle
 10
76.17625499999999
 20
75.72636800000001
 30
0.0
 40
0.088042
100
AcDbArc
 50
235.712465
 51
304.287535
  0
LINE
  5
C2E
330
1E
100
AcDbEntity
  8
OBJECT
100
AcDbLine
 10
76.47405899999999
 20
75.638327
 30
0.0
 11
76.17625499999999
 21
75.638327
 31
0.0
  0
ARC
  5
C2F
330
1E
100
AcDbEntity
  8
OBJECT
100
AcDbCircle
 10
76.17625499999999
 20
75.680285
 30
0.0
 40
0.088042
100
AcDbArc
 50
55.71246500000001
 51
124.287535
  0
ARC
  5
C30
330
1E
100
AcDbEntity
  8
OBJECT
100
AcDbCircle
 10
76.47405899999999
 20
75.680285
 30
0.0
 40
0.088042
100
AcDbArc
 50
55.71246500000001
 51
124.287535
  0
ARC
  5
C31
330
1E
100
AcDbEntity
  8
OBJECT
100
AcDbCircle
 10
76.32515699999999
 20
75.438406
 30
0.0
 40
0.32992
100
AcDbArc
 50
72.48264499999999
 51
107.517355
  0
LINE
  5
C32
330
1E
100
AcDbEntity
  8
OBJECT
100
AcDbLine
 10
76.497157
 20
75.768327
 30
0.0
 11
76.497157
 21
75.799327
 31
0.0
  0
LINE
  5
C33
330
1E
100
AcDbEntity
  8
OBJECT
100
AcDbLine
 10
76.153157
 20
75.768327
 30
0.0
 11
76.153157
 21
75.799327
 31
0.0
  0
LINE
  5
C34
330
1E
100
AcDbEntity
  8
OBJECT
100
AcDbLine
 10
76.497157
 20
75.768327
 30
0.0
 11
76.153157
 21
75.768327
 31
0.0
  0
LINE
  5
C35
330
1E
100
AcDbEntity
  8
OBJECT
100
AcDbLine
 10
76.407157
 20
75.799327
 30
0.0
 11
76.407157
 21
75.768327
 31
0.0
  0
LINE
  5
C36
330
1E
100
AcDbEntity
  8
OBJECT
100
AcDbLine
 10
76.243157
 20
75.799327
 30
0.0
 11
76.243157
 21
75.768327
 31
0.0
  0
LINE
  5
C37
330
1E
100
AcDbEntity
  8
OBJECT
100
AcDbLine
 10
76.407157
 20
75.54932700000001
 30
0.0
 11
76.243157
 21
75.54932700000001
 31
0.0
  0
LINE
  5
C38
330
1E
100
AcDbEntity
  8
OBJECT
100
AcDbLine
 10
76.37615699999999
 20
75.54932700000001
 30
0.0
 11
76.27415699999999
 21
75.54932700000001
 31
0.0
  0
LINE
  5
C39
330
1E
100
AcDbEntity
  8
OBJECT
100
AcDbLine
 10
76.37615699999999
 20
75.54932700000001
 30
0.0
 11
76.27415699999999
 21
75.54932700000001
 31
0.0
  0
LINE
  5
C3A
330
1E
100
AcDbEntity
  8
OBJECT
100
AcDbLine
 10
76.407157
 20
75.54932700000001
 30
0.0
 11
76.243157
 21
75.54932700000001
 31
0.0
  0
LINE
  5
C3B
330
1E
100
AcDbEntity
  8
OBJECT
100
AcDbLine
 10
76.243157
 20
75.799327
 30
0.0
 11
76.243157
 21
75.768327
 31
0.0
  0
LINE
  5
C3C
330
1E
100
AcDbEntity
  8
OBJECT
100
AcDbLine
 10
76.407157
 20
75.799327
 30
0.0
 11
76.407157
 21
75.768327
 31
0.0
  0
LINE
  5
C3D
330
1E
100
AcDbEntity
  8
OBJECT
100
AcDbLine
 10
76.497157
 20
75.768327
 30
0.0
 11
76.153157
 21
75.768327
 31
0.0
  0
LINE
  5
C3E
330
1E
100
AcDbEntity
  8
OBJECT
100
AcDbLine
 10
76.47405899999999
 20
75.768327
 30
0.0
 11
76.17625499999999
 21
75.768327
 31
0.0
  0
LINE
  5
C3F
330
1E
100
AcDbEntity
  8
OBJECT
100
AcDbLine
 10
76.153157
 20
75.768327
 30
0.0
 11
76.153157
 21
75.799327
 31
0.0
  0
LINE
  5
C40
330
1E
100
AcDbEntity
  8
OBJECT
100
AcDbLine
 10
76.497157
 20
75.768327
 30
0.0
 11
76.497157
 21
75.799327
 31
0.0
  0
ARC
  5
C41
330
1E
100
AcDbEntity
  8
OBJECT
100
AcDbCircle
 10
76.32515699999999
 20
75.438406
 30
0.0
 40
0.32992
100
AcDbArc
 50
72.48264499999999
 51
107.517355
  0
ARC
  5
C42
330
1E
100
AcDbEntity
  8
OBJECT
100
AcDbCircle
 10
76.47405899999999
 20
75.680285
 30
0.0
 40
0.088042
100
AcDbArc
 50
55.71246500000001
 51
124.287535
  0
ARC
  5
C43
330
1E
100
AcDbEntity
  8
OBJECT
100
AcDbCircle
 10
76.17625499999999
 20
75.680285
 30
0.0
 40
0.088042
100
AcDbArc
 50
55.71246500000001
 51
124.287535
  0
LINE
  5
C44
330
1E
100
AcDbEntity
  8
OBJECT
100
AcDbLine
 10
76.47405899999999
 20
75.638327
 30
0.0
 11
76.17625499999999
 21
75.638327
 31
0.0
  0
ARC
  5
C45
330
1E
100
AcDbEntity
  8
OBJECT
100
AcDbCircle
 10
76.17625499999999
 20
75.72636800000001
 30
0.0
 40
0.088042
100
AcDbArc
 50
235.712465
 51
304.287535
  0
ARC
  5
C46
330
1E
100
AcDbEntity
  8
OBJECT
100
AcDbCircle
 10
76.47405899999999
 20
75.72636800000001
 30
0.0
 40
0.088042
100
AcDbArc
 50
235.712465
 51
304.287535
  0
ARC
  5
C47
330
1E
100
AcDbEntity
  8
OBJECT
100
AcDbCircle
 10
76.32515699999999
 20
75.96824699999999
 30
0.0
 40
0.32992
100
AcDbArc
 50
252.482645
 51
287.5173549999999
  0
LINE
  5
C48
330
1E
100
AcDbEntity
  8
OBJECT
100
AcDbLine
 10
76.225853
 20
75.653626
 30
0.0
 11
76.225853
 21
75.753027
 31
0.0
  0
LINE
  5
C49
330
1E
100
AcDbEntity
  8
OBJECT
100
AcDbLine
 10
76.42446099999999
 20
75.653626
 30
0.0
 11
76.42446099999999
 21
75.753027
 31
0.0
  0
LINE
  5
C4A
330
1E
100
AcDbEntity
  8
OBJECT
100
AcDbLine
 10
76.12665699999999
 20
75.653626
 30
0.0
 11
76.12665699999999
 21
75.753027
 31
0.0
  0
LINE
  5
C4B
330
1E
100
AcDbEntity
  8
OBJECT
100
AcDbLine
 10
76.523657
 20
75.653626
 30
0.0
 11
76.523657
 21
75.753027
 31
0.0
  0
LINE
  5
C4C
330
1E
100
AcDbEntity
  8
OBJECT
100
AcDbLine
 10
76.243157
 20
75.638327
 30
0.0
 11
76.243157
 21
75.54932700000001
 31
0.0
  0
LINE
  5
C4D
330
1E
100
AcDbEntity
  8
OBJECT
100
AcDbLine
 10
76.407157
 20
75.638327
 30
0.0
 11
76.407157
 21
75.54932700000001
 31
0.0
  0
LINE
  5
C4E
330
1E
100
AcDbEntity
  8
CENTER
100
AcDbLine
 10
52.950157
 20
92.76402799999999
 30
0.0
 11
52.950157
 21
93.17432700000001
 31
0.0
  0
LINE
  5
C4F
330
1E
100
AcDbEntity
  8
HIDDEN
100
AcDbLine
 10
53.03215699999999
 20
93.01332700000001
 30
0.0
 11
53.03215699999999
 21
92.924327
 31
0.0
  0
LINE
  5
C50
330
1E
100
AcDbEntity
  8
HIDDEN
100
AcDbLine
 10
52.868157
 20
93.01332700000001
 30
0.0
 11
52.868157
 21
92.924327
 31
0.0
  0
LINE
  5
C51
330
1E
100
AcDbEntity
  8
HIDDEN
100
AcDbLine
 10
53.14865699999999
 20
93.028626
 30
0.0
 11
53.14865699999999
 21
93.128027
 31
0.0
  0
LINE
  5
C52
330
1E
100
AcDbEntity
  8
HIDDEN
100
AcDbLine
 10
52.75165699999999
 20
93.028626
 30
0.0
 11
52.75165699999999
 21
93.128027
 31
0.0
  0
LINE
  5
C53
330
1E
100
AcDbEntity
  8
HIDDEN
100
AcDbLine
 10
53.049461
 20
93.028626
 30
0.0
 11
53.049461
 21
93.128027
 31
0.0
  0
LINE
  5
C54
330
1E
100
AcDbEntity
  8
HIDDEN
100
AcDbLine
 10
52.850853
 20
93.028626
 30
0.0
 11
52.850853
 21
93.128027
 31
0.0
  0
ARC
  5
C55
330
1E
100
AcDbEntity
  8
HIDDEN
100
AcDbCircle
 10
52.950157
 20
93.34324699999999
 30
0.0
 40
0.32992
100
AcDbArc
 50
252.482645
 51
287.5173549999999
  0
ARC
  5
C56
330
1E
100
AcDbEntity
  8
HIDDEN
100
AcDbCircle
 10
53.099059
 20
93.101368
 30
0.0
 40
0.088042
100
AcDbArc
 50
235.712465
 51
304.287535
  0
ARC
  5
C57
330
1E
100
AcDbEntity
  8
HIDDEN
100
AcDbCircle
 10
52.801255
 20
93.101368
 30
0.0
 40
0.088042
100
AcDbArc
 50
235.712465
 51
304.287535
  0
LINE
  5
C58
330
1E
100
AcDbEntity
  8
HIDDEN
100
AcDbLine
 10
53.099059
 20
93.01332700000001
 30
0.0
 11
52.801255
 21
93.01332700000001
 31
0.0
  0
ARC
  5
C59
330
1E
100
AcDbEntity
  8
HIDDEN
100
AcDbCircle
 10
52.801255
 20
93.05528499999999
 30
0.0
 40
0.088042
100
AcDbArc
 50
55.71246500000001
 51
124.287535
  0
ARC
  5
C5A
330
1E
100
AcDbEntity
  8
HIDDEN
100
AcDbCircle
 10
53.099059
 20
93.05528499999999
 30
0.0
 40
0.088042
100
AcDbArc
 50
55.71246500000001
 51
124.287535
  0
ARC
  5
C5B
330
1E
100
AcDbEntity
  8
HIDDEN
100
AcDbCircle
 10
52.950157
 20
92.813406
 30
0.0
 40
0.32992
100
AcDbArc
 50
72.48264499999999
 51
107.517355
  0
LINE
  5
C5C
330
1E
100
AcDbEntity
  8
HIDDEN
100
AcDbLine
 10
53.12215699999999
 20
93.14332699999999
 30
0.0
 11
53.12215699999999
 21
93.17432700000001
 31
0.0
  0
LINE
  5
C5D
330
1E
100
AcDbEntity
  8
HIDDEN
100
AcDbLine
 10
52.77815699999999
 20
93.14332699999999
 30
0.0
 11
52.77815699999999
 21
93.17432700000001
 31
0.0
  0
LINE
  5
C5E
330
1E
100
AcDbEntity
  8
HIDDEN
100
AcDbLine
 10
53.099059
 20
93.14332699999999
 30
0.0
 11
52.801255
 21
93.14332699999999
 31
0.0
  0
LINE
  5
C5F
330
1E
100
AcDbEntity
  8
HIDDEN
100
AcDbLine
 10
53.12215699999999
 20
93.14332699999999
 30
0.0
 11
52.77815699999999
 21
93.14332699999999
 31
0.0
  0
LINE
  5
C60
330
1E
100
AcDbEntity
  8
HIDDEN
100
AcDbLine
 10
53.03215699999999
 20
93.17432700000001
 30
0.0
 11
53.03215699999999
 21
93.14332699999999
 31
0.0
  0
LINE
  5
C61
330
1E
100
AcDbEntity
  8
HIDDEN
100
AcDbLine
 10
52.868157
 20
93.17432700000001
 30
0.0
 11
52.868157
 21
93.14332699999999
 31
0.0
  0
LINE
  5
C62
330
1E
100
AcDbEntity
  8
HIDDEN
100
AcDbLine
 10
53.03215699999999
 20
92.924327
 30
0.0
 11
52.868157
 21
92.924327
 31
0.0
  0
LINE
  5
C63
330
1E
100
AcDbEntity
  8
HIDDEN
100
AcDbLine
 10
53.00115699999999
 20
92.924327
 30
0.0
 11
52.89915699999999
 21
92.924327
 31
0.0
  0
LINE
  5
C64
330
1E
100
AcDbEntity
  8
HIDDEN
100
AcDbLine
 10
53.00115699999999
 20
92.924327
 30
0.0
 11
52.89915699999999
 21
92.924327
 31
0.0
  0
LINE
  5
C65
330
1E
100
AcDbEntity
  8
HIDDEN
100
AcDbLine
 10
53.03215699999999
 20
92.924327
 30
0.0
 11
52.868157
 21
92.924327
 31
0.0
  0
LINE
  5
C66
330
1E
100
AcDbEntity
  8
HIDDEN
100
AcDbLine
 10
52.868157
 20
93.17432700000001
 30
0.0
 11
52.868157
 21
93.14332699999999
 31
0.0
  0
LINE
  5
C67
330
1E
100
AcDbEntity
  8
HIDDEN
100
AcDbLine
 10
53.03215699999999
 20
93.17432700000001
 30
0.0
 11
53.03215699999999
 21
93.14332699999999
 31
0.0
  0
LINE
  5
C68
330
1E
100
AcDbEntity
  8
HIDDEN
100
AcDbLine
 10
53.12215699999999
 20
93.14332699999999
 30
0.0
 11
52.77815699999999
 21
93.14332699999999
 31
0.0
  0
LINE
  5
C69
330
1E
100
AcDbEntity
  8
HIDDEN
100
AcDbLine
 10
52.77815699999999
 20
93.14332699999999
 30
0.0
 11
52.77815699999999
 21
93.17432700000001
 31
0.0
  0
LINE
  5
C6A
330
1E
100
AcDbEntity
  8
HIDDEN
100
AcDbLine
 10
53.12215699999999
 20
93.14332699999999
 30
0.0
 11
53.12215699999999
 21
93.17432700000001
 31
0.0
  0
ARC
  5
C6B
330
1E
100
AcDbEntity
  8
HIDDEN
100
AcDbCircle
 10
52.950157
 20
92.813406
 30
0.0
 40
0.32992
100
AcDbArc
 50
72.48264499999999
 51
107.517355
  0
ARC
  5
C6C
330
1E
100
AcDbEntity
  8
HIDDEN
100
AcDbCircle
 10
53.099059
 20
93.05528499999999
 30
0.0
 40
0.088042
100
AcDbArc
 50
55.71246500000001
 51
124.287535
  0
ARC
  5
C6D
330
1E
100
AcDbEntity
  8
HIDDEN
100
AcDbCircle
 10
52.801255
 20
93.05528499999999
 30
0.0
 40
0.088042
100
AcDbArc
 50
55.71246500000001
 51
124.287535
  0
LINE
  5
C6E
330
1E
100
AcDbEntity
  8
HIDDEN
100
AcDbLine
 10
53.099059
 20
93.01332700000001
 30
0.0
 11
52.801255
 21
93.01332700000001
 31
0.0
  0
ARC
  5
C6F
330
1E
100
AcDbEntity
  8
HIDDEN
100
AcDbCircle
 10
52.801255
 20
93.101368
 30
0.0
 40
0.088042
100
AcDbArc
 50
235.712465
 51
304.287535
  0
ARC
  5
C70
330
1E
100
AcDbEntity
  8
HIDDEN
100
AcDbCircle
 10
53.099059
 20
93.101368
 30
0.0
 40
0.088042
100
AcDbArc
 50
235.712465
 51
304.287535
  0
ARC
  5
C71
330
1E
100
AcDbEntity
  8
HIDDEN
100
AcDbCircle
 10
52.950157
 20
93.34324699999999
 30
0.0
 40
0.32992
100
AcDbArc
 50
252.482645
 51
287.5173549999999
  0
LINE
  5
C72
330
1E
100
AcDbEntity
  8
HIDDEN
100
AcDbLine
 10
52.850853
 20
93.028626
 30
0.0
 11
52.850853
 21
93.128027
 31
0.0
  0
LINE
  5
C73
330
1E
100
AcDbEntity
  8
HIDDEN
100
AcDbLine
 10
53.049461
 20
93.028626
 30
0.0
 11
53.049461
 21
93.128027
 31
0.0
  0
LINE
  5
C74
330
1E
100
AcDbEntity
  8
HIDDEN
100
AcDbLine
 10
52.75165699999999
 20
93.028626
 30
0.0
 11
52.75165699999999
 21
93.128027
 31
0.0
  0
LINE
  5
C75
330
1E
100
AcDbEntity
  8
HIDDEN
100
AcDbLine
 10
53.14865699999999
 20
93.028626
 30
0.0
 11
53.14865699999999
 21
93.128027
 31
0.0
  0
LINE
  5
C76
330
1E
100
AcDbEntity
  8
HIDDEN
100
AcDbLine
 10
52.868157
 20
93.01332700000001
 30
0.0
 11
52.868157
 21
92.924327
 31
0.0
  0
LINE
  5
C77
330
1E
100
AcDbEntity
  8
HIDDEN
100
AcDbLine
 10
53.03215699999999
 20
93.01332700000001
 30
0.0
 11
53.03215699999999
 21
92.924327
 31
0.0
  0
LINE
  5
C78
330
1E
100
AcDbEntity
  8
OBJECT
100
AcDbLine
 10
53.63678100000001
 20
76.17432700000001
 30
0.0
 11
55.14353299999999
 21
76.17432700000001
 31
0.0
  0
LINE
  5
C79
330
1E
100
AcDbEntity
  8
OBJECT
100
AcDbLine
 10
56.626781
 20
76.17432700000001
 30
0.0
 11
70.942033
 21
76.17432700000001
 31
0.0
  0
LINE
  5
C7A
330
1E
100
AcDbEntity
  8
OBJECT
100
AcDbLine
 10
72.42528100000001
 20
76.17432700000001
 30
0.0
 11
73.93203299999999
 21
76.17432700000001
 31
0.0
  0
LINE
  5
C7B
330
1E
100
AcDbEntity
  8
OBJECT
100
AcDbLine
 10
72.42528100000001
 20
93.298327
 30
0.0
 11
73.93203299999999
 21
93.298327
 31
0.0
  0
LINE
  5
C7C
330
1E
100
AcDbEntity
  8
OBJECT
100
AcDbLine
 10
56.626781
 20
93.298327
 30
0.0
 11
70.942033
 21
93.298327
 31
0.0
  0
LINE
  5
C7D
330
1E
100
AcDbEntity
  8
OBJECT
100
AcDbLine
 10
53.63678100000001
 20
93.298327
 30
0.0
 11
55.14353299999999
 21
93.298327
 31
0.0
  0
LINE
  5
C7E
330
1E
100
AcDbEntity
  8
OBJECT
100
AcDbLine
 10
76.407157
 20
93.834327
 30
0.0
 11
76.407157
 21
93.923327
 31
0.0
  0
LINE
  5
C7F
330
1E
100
AcDbEntity
  8
OBJECT
100
AcDbLine
 10
76.243157
 20
93.834327
 30
0.0
 11
76.243157
 21
93.923327
 31
0.0
  0
LINE
  5
C80
330
1E
100
AcDbEntity
  8
OBJECT
100
AcDbLine
 10
76.523657
 20
93.81902700000001
 30
0.0
 11
76.523657
 21
93.71962600000001
 31
0.0
  0
LINE
  5
C81
330
1E
100
AcDbEntity
  8
OBJECT
100
AcDbLine
 10
76.12665699999999
 20
93.81902700000001
 30
0.0
 11
76.12665699999999
 21
93.71962600000001
 31
0.0
  0
LINE
  5
C82
330
1E
100
AcDbEntity
  8
OBJECT
100
AcDbLine
 10
76.42446099999999
 20
93.81902700000001
 30
0.0
 11
76.42446099999999
 21
93.71962600000001
 31
0.0
  0
LINE
  5
C83
330
1E
100
AcDbEntity
  8
OBJECT
100
AcDbLine
 10
76.225853
 20
93.81902700000001
 30
0.0
 11
76.225853
 21
93.71962600000001
 31
0.0
  0
ARC
  5
C84
330
1E
100
AcDbEntity
  8
OBJECT
100
AcDbCircle
 10
76.32515699999999
 20
93.504406
 30
0.0
 40
0.32992
100
AcDbArc
 50
72.48264499999999
 51
107.517355
  0
ARC
  5
C85
330
1E
100
AcDbEntity
  8
OBJECT
100
AcDbCircle
 10
76.47405899999999
 20
93.746285
 30
0.0
 40
0.088042
100
AcDbArc
 50
55.71246500000001
 51
124.287535
  0
ARC
  5
C86
330
1E
100
AcDbEntity
  8
OBJECT
100
AcDbCircle
 10
76.17625499999999
 20
93.746285
 30
0.0
 40
0.088042
100
AcDbArc
 50
55.71246500000001
 51
124.287535
  0
LINE
  5
C87
330
1E
100
AcDbEntity
  8
OBJECT
100
AcDbLine
 10
76.47405899999999
 20
93.834327
 30
0.0
 11
76.17625499999999
 21
93.834327
 31
0.0
  0
ARC
  5
C88
330
1E
100
AcDbEntity
  8
OBJECT
100
AcDbCircle
 10
76.17625499999999
 20
93.79236800000001
 30
0.0
 40
0.088042
100
AcDbArc
 50
235.712465
 51
304.287535
  0
ARC
  5
C89
330
1E
100
AcDbEntity
  8
OBJECT
100
AcDbCircle
 10
76.47405899999999
 20
93.79236800000001
 30
0.0
 40
0.088042
100
AcDbArc
 50
235.712465
 51
304.287535
  0
ARC
  5
C8A
330
1E
100
AcDbEntity
  8
OBJECT
100
AcDbCircle
 10
76.32515699999999
 20
94.034247
 30
0.0
 40
0.32992
100
AcDbArc
 50
252.482645
 51
287.5173549999999
  0
LINE
  5
C8B
330
1E
100
AcDbEntity
  8
OBJECT
100
AcDbLine
 10
76.497157
 20
93.704327
 30
0.0
 11
76.497157
 21
93.673327
 31
0.0
  0
LINE
  5
C8C
330
1E
100
AcDbEntity
  8
OBJECT
100
AcDbLine
 10
76.153157
 20
93.704327
 30
0.0
 11
76.153157
 21
93.673327
 31
0.0
  0
LINE
  5
C8D
330
1E
100
AcDbEntity
  8
OBJECT
100
AcDbLine
 10
76.47405899999999
 20
93.704327
 30
0.0
 11
76.17625499999999
 21
93.704327
 31
0.0
  0
LINE
  5
C8E
330
1E
100
AcDbEntity
  8
OBJECT
100
AcDbLine
 10
76.497157
 20
93.704327
 30
0.0
 11
76.153157
 21
93.704327
 31
0.0
  0
LINE
  5
C8F
330
1E
100
AcDbEntity
  8
OBJECT
100
AcDbLine
 10
76.407157
 20
93.673327
 30
0.0
 11
76.407157
 21
93.704327
 31
0.0
  0
LINE
  5
C90
330
1E
100
AcDbEntity
  8
OBJECT
100
AcDbLine
 10
76.243157
 20
93.673327
 30
0.0
 11
76.243157
 21
93.704327
 31
0.0
  0
LINE
  5
C91
330
1E
100
AcDbEntity
  8
OBJECT
100
AcDbLine
 10
76.407157
 20
93.923327
 30
0.0
 11
76.243157
 21
93.923327
 31
0.0
  0
LINE
  5
C92
330
1E
100
AcDbEntity
  8
OBJECT
100
AcDbLine
 10
76.37615699999999
 20
93.923327
 30
0.0
 11
76.27415699999999
 21
93.923327
 31
0.0
  0
LINE
  5
C93
330
1E
100
AcDbEntity
  8
OBJECT
100
AcDbLine
 10
76.37615699999999
 20
93.923327
 30
0.0
 11
76.27415699999999
 21
93.923327
 31
0.0
  0
LINE
  5
C94
330
1E
100
AcDbEntity
  8
OBJECT
100
AcDbLine
 10
76.407157
 20
93.923327
 30
0.0
 11
76.243157
 21
93.923327
 31
0.0
  0
LINE
  5
C95
330
1E
100
AcDbEntity
  8
OBJECT
100
AcDbLine
 10
76.243157
 20
93.673327
 30
0.0
 11
76.243157
 21
93.704327
 31
0.0
  0
LINE
  5
C96
330
1E
100
AcDbEntity
  8
OBJECT
100
AcDbLine
 10
76.407157
 20
93.673327
 30
0.0
 11
76.407157
 21
93.704327
 31
0.0
  0
LINE
  5
C97
330
1E
100
AcDbEntity
  8
OBJECT
100
AcDbLine
 10
76.497157
 20
93.704327
 30
0.0
 11
76.153157
 21
93.704327
 31
0.0
  0
LINE
  5
C98
330
1E
100
AcDbEntity
  8
OBJECT
100
AcDbLine
 10
76.153157
 20
93.704327
 30
0.0
 11
76.153157
 21
93.673327
 31
0.0
  0
LINE
  5
C99
330
1E
100
AcDbEntity
  8
OBJECT
100
AcDbLine
 10
76.497157
 20
93.704327
 30
0.0
 11
76.497157
 21
93.673327
 31
0.0
  0
ARC
  5
C9A
330
1E
100
AcDbEntity
  8
OBJECT
100
AcDbCircle
 10
76.32515699999999
 20
94.034247
 30
0.0
 40
0.32992
100
AcDbArc
 50
252.482645
 51
287.5173549999999
  0
ARC
  5
C9B
330
1E
100
AcDbEntity
  8
OBJECT
100
AcDbCircle
 10
76.47405899999999
 20
93.79236800000001
 30
0.0
 40
0.088042
100
AcDbArc
 50
235.712465
 51
304.287535
  0
ARC
  5
C9C
330
1E
100
AcDbEntity
  8
OBJECT
100
AcDbCircle
 10
76.17625499999999
 20
93.79236800000001
 30
0.0
 40
0.088042
100
AcDbArc
 50
235.712465
 51
304.287535
  0
LINE
  5
C9D
330
1E
100
AcDbEntity
  8
OBJECT
100
AcDbLine
 10
76.47405899999999
 20
93.834327
 30
0.0
 11
76.17625499999999
 21
93.834327
 31
0.0
  0
ARC
  5
C9E
330
1E
100
AcDbEntity
  8
OBJECT
100
AcDbCircle
 10
76.17625499999999
 20
93.746285
 30
0.0
 40
0.088042
100
AcDbArc
 50
55.71246500000001
 51
124.287535
  0
ARC
  5
C9F
330
1E
100
AcDbEntity
  8
OBJECT
100
AcDbCircle
 10
76.47405899999999
 20
93.746285
 30
0.0
 40
0.088042
100
AcDbArc
 50
55.71246500000001
 51
124.287535
  0
ARC
  5
CA0
330
1E
100
AcDbEntity
  8
OBJECT
100
AcDbCircle
 10
76.32515699999999
 20
93.504406
 30
0.0
 40
0.32992
100
AcDbArc
 50
72.48264499999999
 51
107.517355
  0
LINE
  5
CA1
330
1E
100
AcDbEntity
  8
OBJECT
100
AcDbLine
 10
76.225853
 20
93.81902700000001
 30
0.0
 11
76.225853
 21
93.71962600000001
 31
0.0
  0
LINE
  5
CA2
330
1E
100
AcDbEntity
  8
OBJECT
100
AcDbLine
 10
76.42446099999999
 20
93.81902700000001
 30
0.0
 11
76.42446099999999
 21
93.71962600000001
 31
0.0
  0
LINE
  5
CA3
330
1E
100
AcDbEntity
  8
OBJECT
100
AcDbLine
 10
76.12665699999999
 20
93.81902700000001
 30
0.0
 11
76.12665699999999
 21
93.71962600000001
 31
0.0
  0
LINE
  5
CA4
330
1E
100
AcDbEntity
  8
OBJECT
100
AcDbLine
 10
76.523657
 20
93.81902700000001
 30
0.0
 11
76.523657
 21
93.71962600000001
 31
0.0
  0
LINE
  5
CA5
330
1E
100
AcDbEntity
  8
OBJECT
100
AcDbLine
 10
76.243157
 20
93.834327
 30
0.0
 11
76.243157
 21
93.923327
 31
0.0
  0
LINE
  5
CA6
330
1E
100
AcDbEntity
  8
OBJECT
100
AcDbLine
 10
76.407157
 20
93.834327
 30
0.0
 11
76.407157
 21
93.923327
 31
0.0
  0
LINE
  5
CA7
330
1E
100
AcDbEntity
  8
OBJECT
100
AcDbLine
 10
71.532157
 20
93.834327
 30
0.0
 11
71.532157
 21
93.923327
 31
0.0
  0
LINE
  5
CA8
330
1E
100
AcDbEntity
  8
OBJECT
100
AcDbLine
 10
71.36815699999999
 20
93.834327
 30
0.0
 11
71.36815699999999
 21
93.923327
 31
0.0
  0
LINE
  5
CA9
330
1E
100
AcDbEntity
  8
OBJECT
100
AcDbLine
 10
71.648657
 20
93.81902700000001
 30
0.0
 11
71.648657
 21
93.71962600000001
 31
0.0
  0
LINE
  5
CAA
330
1E
100
AcDbEntity
  8
OBJECT
100
AcDbLine
 10
71.251657
 20
93.81902700000001
 30
0.0
 11
71.251657
 21
93.71962600000001
 31
0.0
  0
LINE
  5
CAB
330
1E
100
AcDbEntity
  8
OBJECT
100
AcDbLine
 10
71.549461
 20
93.81902700000001
 30
0.0
 11
71.549461
 21
93.71962600000001
 31
0.0
  0
LINE
  5
CAC
330
1E
100
AcDbEntity
  8
OBJECT
100
AcDbLine
 10
71.350853
 20
93.81902700000001
 30
0.0
 11
71.350853
 21
93.71962600000001
 31
0.0
  0
ARC
  5
CAD
330
1E
100
AcDbEntity
  8
OBJECT
100
AcDbCircle
 10
71.45015699999999
 20
93.504406
 30
0.0
 40
0.32992
100
AcDbArc
 50
72.48264499999999
 51
107.517355
  0
ARC
  5
CAE
330
1E
100
AcDbEntity
  8
OBJECT
100
AcDbCircle
 10
71.599059
 20
93.746285
 30
0.0
 40
0.088042
100
AcDbArc
 50
55.71246500000001
 51
124.287535
  0
ARC
  5
CAF
330
1E
100
AcDbEntity
  8
OBJECT
100
AcDbCircle
 10
71.301255
 20
93.746285
 30
0.0
 40
0.088042
100
AcDbArc
 50
55.71246500000001
 51
124.287535
  0
LINE
  5
CB0
330
1E
100
AcDbEntity
  8
OBJECT
100
AcDbLine
 10
71.599059
 20
93.834327
 30
0.0
 11
71.301255
 21
93.834327
 31
0.0
  0
ARC
  5
CB1
330
1E
100
AcDbEntity
  8
OBJECT
100
AcDbCircle
 10
71.301255
 20
93.79236800000001
 30
0.0
 40
0.088042
100
AcDbArc
 50
235.712465
 51
304.287535
  0
ARC
  5
CB2
330
1E
100
AcDbEntity
  8
OBJECT
100
AcDbCircle
 10
71.599059
 20
93.79236800000001
 30
0.0
 40
0.088042
100
AcDbArc
 50
235.712465
 51
304.287535
  0
ARC
  5
CB3
330
1E
100
AcDbEntity
  8
OBJECT
100
AcDbCircle
 10
71.45015699999999
 20
94.034247
 30
0.0
 40
0.32992
100
AcDbArc
 50
252.482645
 51
287.5173549999999
  0
LINE
  5
CB4
330
1E
100
AcDbEntity
  8
OBJECT
100
AcDbLine
 10
71.622157
 20
93.704327
 30
0.0
 11
71.622157
 21
93.673327
 31
0.0
  0
LINE
  5
CB5
330
1E
100
AcDbEntity
  8
OBJECT
100
AcDbLine
 10
71.27815699999999
 20
93.704327
 30
0.0
 11
71.27815699999999
 21
93.673327
 31
0.0
  0
LINE
  5
CB6
330
1E
100
AcDbEntity
  8
OBJECT
100
AcDbLine
 10
71.622157
 20
93.704327
 30
0.0
 11
71.27815699999999
 21
93.704327
 31
0.0
  0
LINE
  5
CB7
330
1E
100
AcDbEntity
  8
OBJECT
100
AcDbLine
 10
71.532157
 20
93.673327
 30
0.0
 11
71.532157
 21
93.704327
 31
0.0
  0
LINE
  5
CB8
330
1E
100
AcDbEntity
  8
OBJECT
100
AcDbLine
 10
71.36815699999999
 20
93.673327
 30
0.0
 11
71.36815699999999
 21
93.704327
 31
0.0
  0
LINE
  5
CB9
330
1E
100
AcDbEntity
  8
OBJECT
100
AcDbLine
 10
71.532157
 20
93.923327
 30
0.0
 11
71.36815699999999
 21
93.923327
 31
0.0
  0
LINE
  5
CBA
330
1E
100
AcDbEntity
  8
OBJECT
100
AcDbLine
 10
71.50115699999999
 20
93.923327
 30
0.0
 11
71.39915699999999
 21
93.923327
 31
0.0
  0
LINE
  5
CBB
330
1E
100
AcDbEntity
  8
OBJECT
100
AcDbLine
 10
71.50115699999999
 20
93.923327
 30
0.0
 11
71.39915699999999
 21
93.923327
 31
0.0
  0
LINE
  5
CBC
330
1E
100
AcDbEntity
  8
OBJECT
100
AcDbLine
 10
71.532157
 20
93.923327
 30
0.0
 11
71.36815699999999
 21
93.923327
 31
0.0
  0
LINE
  5
CBD
330
1E
100
AcDbEntity
  8
OBJECT
100
AcDbLine
 10
71.36815699999999
 20
93.673327
 30
0.0
 11
71.36815699999999
 21
93.704327
 31
0.0
  0
LINE
  5
CBE
330
1E
100
AcDbEntity
  8
OBJECT
100
AcDbLine
 10
71.532157
 20
93.673327
 30
0.0
 11
71.532157
 21
93.704327
 31
0.0
  0
LINE
  5
CBF
330
1E
100
AcDbEntity
  8
OBJECT
100
AcDbLine
 10
71.622157
 20
93.704327
 30
0.0
 11
71.27815699999999
 21
93.704327
 31
0.0
  0
LINE
  5
CC0
330
1E
100
AcDbEntity
  8
OBJECT
100
AcDbLine
 10
71.599059
 20
93.704327
 30
0.0
 11
71.301255
 21
93.704327
 31
0.0
  0
LINE
  5
CC1
330
1E
100
AcDbEntity
  8
OBJECT
100
AcDbLine
 10
71.27815699999999
 20
93.704327
 30
0.0
 11
71.27815699999999
 21
93.673327
 31
0.0
  0
LINE
  5
CC2
330
1E
100
AcDbEntity
  8
OBJECT
100
AcDbLine
 10
71.622157
 20
93.704327
 30
0.0
 11
71.622157
 21
93.673327
 31
0.0
  0
ARC
  5
CC3
330
1E
100
AcDbEntity
  8
OBJECT
100
AcDbCircle
 10
71.45015699999999
 20
94.034247
 30
0.0
 40
0.32992
100
AcDbArc
 50
252.482645
 51
287.5173549999999
  0
ARC
  5
CC4
330
1E
100
AcDbEntity
  8
OBJECT
100
AcDbCircle
 10
71.599059
 20
93.79236800000001
 30
0.0
 40
0.088042
100
AcDbArc
 50
235.712465
 51
304.287535
  0
ARC
  5
CC5
330
1E
100
AcDbEntity
  8
OBJECT
100
AcDbCircle
 10
71.301255
 20
93.79236800000001
 30
0.0
 40
0.088042
100
AcDbArc
 50
235.712465
 51
304.287535
  0
LINE
  5
CC6
330
1E
100
AcDbEntity
  8
OBJECT
100
AcDbLine
 10
71.599059
 20
93.834327
 30
0.0
 11
71.301255
 21
93.834327
 31
0.0
  0
ARC
  5
CC7
330
1E
100
AcDbEntity
  8
OBJECT
100
AcDbCircle
 10
71.301255
 20
93.746285
 30
0.0
 40
0.088042
100
AcDbArc
 50
55.71246500000001
 51
124.287535
  0
ARC
  5
CC8
330
1E
100
AcDbEntity
  8
OBJECT
100
AcDbCircle
 10
71.599059
 20
93.746285
 30
0.0
 40
0.088042
100
AcDbArc
 50
55.71246500000001
 51
124.287535
  0
ARC
  5
CC9
330
1E
100
AcDbEntity
  8
OBJECT
100
AcDbCircle
 10
71.45015699999999
 20
93.504406
 30
0.0
 40
0.32992
100
AcDbArc
 50
72.48264499999999
 51
107.517355
  0
LINE
  5
CCA
330
1E
100
AcDbEntity
  8
OBJECT
100
AcDbLine
 10
71.350853
 20
93.81902700000001
 30
0.0
 11
71.350853
 21
93.71962600000001
 31
0.0
  0
LINE
  5
CCB
330
1E
100
AcDbEntity
  8
OBJECT
100
AcDbLine
 10
71.549461
 20
93.81902700000001
 30
0.0
 11
71.549461
 21
93.71962600000001
 31
0.0
  0
LINE
  5
CCC
330
1E
100
AcDbEntity
  8
OBJECT
100
AcDbLine
 10
71.251657
 20
93.81902700000001
 30
0.0
 11
71.251657
 21
93.71962600000001
 31
0.0
  0
LINE
  5
CCD
330
1E
100
AcDbEntity
  8
OBJECT
100
AcDbLine
 10
71.648657
 20
93.81902700000001
 30
0.0
 11
71.648657
 21
93.71962600000001
 31
0.0
  0
LINE
  5
CCE
330
1E
100
AcDbEntity
  8
OBJECT
100
AcDbLine
 10
71.36815699999999
 20
93.834327
 30
0.0
 11
71.36815699999999
 21
93.923327
 31
0.0
  0
LINE
  5
CCF
330
1E
100
AcDbEntity
  8
OBJECT
100
AcDbLine
 10
71.532157
 20
93.834327
 30
0.0
 11
71.532157
 21
93.923327
 31
0.0
  0
LINE
  5
CD0
330
1E
100
AcDbEntity
  8
OBJECT
100
AcDbLine
 10
69.731657
 20
93.611327
 30
0.0
 11
69.731657
 21
93.673327
 31
0.0
  0
LINE
  5
CD1
330
1E
100
AcDbEntity
  8
OBJECT
100
AcDbLine
 10
69.731657
 20
93.611327
 30
0.0
 11
76.978657
 21
93.611327
 31
0.0
  0
LINE
  5
CD2
330
1E
100
AcDbEntity
  8
OBJECT
100
AcDbLine
 10
76.978657
 20
93.611327
 30
0.0
 11
76.978657
 21
94.204327
 31
0.0
  0
LINE
  5
CD3
330
1E
100
AcDbEntity
  8
OBJECT
100
AcDbLine
 10
69.731657
 20
93.673327
 30
0.0
 11
76.916657
 21
93.673327
 31
0.0
  0
LINE
  5
CD4
330
1E
100
AcDbEntity
  8
OBJECT
100
AcDbLine
 10
76.916657
 20
93.673327
 30
0.0
 11
76.916657
 21
94.204327
 31
0.0
  0
LINE
  5
CD5
330
1E
100
AcDbEntity
  8
OBJECT
100
AcDbLine
 10
76.916657
 20
94.204327
 30
0.0
 11
76.978657
 21
94.204327
 31
0.0
  0
LINE
  5
CD6
330
1E
100
AcDbEntity
  8
OBJECT
100
AcDbLine
 10
57.83715700000001
 20
93.611327
 30
0.0
 11
57.83715700000001
 21
93.673327
 31
0.0
  0
LINE
  5
CD7
330
1E
100
AcDbEntity
  8
OBJECT
100
AcDbLine
 10
57.83715700000001
 20
93.611327
 30
0.0
 11
50.59015699999999
 21
93.611327
 31
0.0
  0
LINE
  5
CD8
330
1E
100
AcDbEntity
  8
OBJECT
100
AcDbLine
 10
50.59015699999999
 20
93.611327
 30
0.0
 11
50.59015699999999
 21
94.204327
 31
0.0
  0
LINE
  5
CD9
330
1E
100
AcDbEntity
  8
OBJECT
100
AcDbLine
 10
57.83715700000001
 20
93.673327
 30
0.0
 11
50.652157
 21
93.673327
 31
0.0
  0
LINE
  5
CDA
330
1E
100
AcDbEntity
  8
OBJECT
100
AcDbLine
 10
50.652157
 20
93.673327
 30
0.0
 11
50.652157
 21
94.204327
 31
0.0
  0
LINE
  5
CDB
330
1E
100
AcDbEntity
  8
OBJECT
100
AcDbLine
 10
50.652157
 20
94.204327
 30
0.0
 11
50.59015699999999
 21
94.204327
 31
0.0
  0
LINE
  5
CDC
330
1E
100
AcDbEntity
  8
CENTER
100
AcDbLine
 10
76.32515699999999
 20
93.93179899999999
 30
0.0
 11
76.32515699999999
 21
93.611327
 31
0.0
  0
LINE
  5
CDD
330
1E
100
AcDbEntity
  8
CENTER
100
AcDbLine
 10
75.82515699999999
 20
93.93179899999999
 30
0.0
 11
75.82515699999999
 21
93.611327
 31
0.0
  0
LINE
  5
CDE
330
1E
100
AcDbEntity
  8
OBJECT
100
AcDbLine
 10
50.950157
 20
93.298327
 30
0.0
 11
52.153533
 21
93.298327
 31
0.0
  0
LINE
  5
CDF
330
1E
100
AcDbEntity
  8
OBJECT
100
AcDbLine
 10
51.65715699999999
 20
93.834327
 30
0.0
 11
51.65715699999999
 21
93.923327
 31
0.0
  0
LINE
  5
CE0
330
1E
100
AcDbEntity
  8
OBJECT
100
AcDbLine
 10
51.493157
 20
93.834327
 30
0.0
 11
51.493157
 21
93.923327
 31
0.0
  0
LINE
  5
CE1
330
1E
100
AcDbEntity
  8
OBJECT
100
AcDbLine
 10
51.773657
 20
93.81902700000001
 30
0.0
 11
51.773657
 21
93.71962600000001
 31
0.0
  0
LINE
  5
CE2
330
1E
100
AcDbEntity
  8
OBJECT
100
AcDbLine
 10
51.376657
 20
93.81902700000001
 30
0.0
 11
51.376657
 21
93.71962600000001
 31
0.0
  0
LINE
  5
CE3
330
1E
100
AcDbEntity
  8
OBJECT
100
AcDbLine
 10
51.674461
 20
93.81902700000001
 30
0.0
 11
51.674461
 21
93.71962600000001
 31
0.0
  0
LINE
  5
CE4
330
1E
100
AcDbEntity
  8
OBJECT
100
AcDbLine
 10
51.475853
 20
93.81902700000001
 30
0.0
 11
51.475853
 21
93.71962600000001
 31
0.0
  0
ARC
  5
CE5
330
1E
100
AcDbEntity
  8
OBJECT
100
AcDbCircle
 10
51.575157
 20
93.504406
 30
0.0
 40
0.32992
100
AcDbArc
 50
72.48264499999999
 51
107.517355
  0
ARC
  5
CE6
330
1E
100
AcDbEntity
  8
OBJECT
100
AcDbCircle
 10
51.72405900000001
 20
93.746285
 30
0.0
 40
0.088042
100
AcDbArc
 50
55.71246500000001
 51
124.287535
  0
ARC
  5
CE7
330
1E
100
AcDbEntity
  8
OBJECT
100
AcDbCircle
 10
51.426255
 20
93.746285
 30
0.0
 40
0.088042
100
AcDbArc
 50
55.71246500000001
 51
124.287535
  0
LINE
  5
CE8
330
1E
100
AcDbEntity
  8
OBJECT
100
AcDbLine
 10
51.72405900000001
 20
93.834327
 30
0.0
 11
51.426255
 21
93.834327
 31
0.0
  0
ARC
  5
CE9
330
1E
100
AcDbEntity
  8
OBJECT
100
AcDbCircle
 10
51.426255
 20
93.79236800000001
 30
0.0
 40
0.088042
100
AcDbArc
 50
235.712465
 51
304.287535
  0
ARC
  5
CEA
330
1E
100
AcDbEntity
  8
OBJECT
100
AcDbCircle
 10
51.72405900000001
 20
93.79236800000001
 30
0.0
 40
0.088042
100
AcDbArc
 50
235.712465
 51
304.287535
  0
ARC
  5
CEB
330
1E
100
AcDbEntity
  8
OBJECT
100
AcDbCircle
 10
51.575157
 20
94.034247
 30
0.0
 40
0.32992
100
AcDbArc
 50
252.482645
 51
287.5173549999999
  0
LINE
  5
CEC
330
1E
100
AcDbEntity
  8
OBJECT
100
AcDbLine
 10
51.747157
 20
93.704327
 30
0.0
 11
51.747157
 21
93.673327
 31
0.0
  0
LINE
  5
CED
330
1E
100
AcDbEntity
  8
OBJECT
100
AcDbLine
 10
51.403157
 20
93.704327
 30
0.0
 11
51.403157
 21
93.673327
 31
0.0
  0
LINE
  5
CEE
330
1E
100
AcDbEntity
  8
OBJECT
100
AcDbLine
 10
51.747157
 20
93.704327
 30
0.0
 11
51.403157
 21
93.704327
 31
0.0
  0
LINE
  5
CEF
330
1E
100
AcDbEntity
  8
OBJECT
100
AcDbLine
 10
51.65715699999999
 20
93.673327
 30
0.0
 11
51.65715699999999
 21
93.704327
 31
0.0
  0
LINE
  5
CF0
330
1E
100
AcDbEntity
  8
OBJECT
100
AcDbLine
 10
51.493157
 20
93.673327
 30
0.0
 11
51.493157
 21
93.704327
 31
0.0
  0
LINE
  5
CF1
330
1E
100
AcDbEntity
  8
OBJECT
100
AcDbLine
 10
51.65715699999999
 20
93.923327
 30
0.0
 11
51.493157
 21
93.923327
 31
0.0
  0
LINE
  5
CF2
330
1E
100
AcDbEntity
  8
OBJECT
100
AcDbLine
 10
51.62615699999999
 20
93.923327
 30
0.0
 11
51.524157
 21
93.923327
 31
0.0
  0
LINE
  5
CF3
330
1E
100
AcDbEntity
  8
OBJECT
100
AcDbLine
 10
51.62615699999999
 20
93.923327
 30
0.0
 11
51.524157
 21
93.923327
 31
0.0
  0
LINE
  5
CF4
330
1E
100
AcDbEntity
  8
OBJECT
100
AcDbLine
 10
51.65715699999999
 20
93.923327
 30
0.0
 11
51.493157
 21
93.923327
 31
0.0
  0
LINE
  5
CF5
330
1E
100
AcDbEntity
  8
OBJECT
100
AcDbLine
 10
51.493157
 20
93.673327
 30
0.0
 11
51.493157
 21
93.704327
 31
0.0
  0
LINE
  5
CF6
330
1E
100
AcDbEntity
  8
OBJECT
100
AcDbLine
 10
51.65715699999999
 20
93.673327
 30
0.0
 11
51.65715699999999
 21
93.704327
 31
0.0
  0
LINE
  5
CF7
330
1E
100
AcDbEntity
  8
OBJECT
100
AcDbLine
 10
51.747157
 20
93.704327
 30
0.0
 11
51.403157
 21
93.704327
 31
0.0
  0
LINE
  5
CF8
330
1E
100
AcDbEntity
  8
OBJECT
100
AcDbLine
 10
51.72405900000001
 20
93.704327
 30
0.0
 11
51.426255
 21
93.704327
 31
0.0
  0
LINE
  5
CF9
330
1E
100
AcDbEntity
  8
OBJECT
100
AcDbLine
 10
51.403157
 20
93.704327
 30
0.0
 11
51.403157
 21
93.673327
 31
0.0
  0
LINE
  5
CFA
330
1E
100
AcDbEntity
  8
OBJECT
100
AcDbLine
 10
51.747157
 20
93.704327
 30
0.0
 11
51.747157
 21
93.673327
 31
0.0
  0
ARC
  5
CFB
330
1E
100
AcDbEntity
  8
OBJECT
100
AcDbCircle
 10
51.575157
 20
94.034247
 30
0.0
 40
0.32992
100
AcDbArc
 50
252.482645
 51
287.5173549999999
  0
ARC
  5
CFC
330
1E
100
AcDbEntity
  8
OBJECT
100
AcDbCircle
 10
51.72405900000001
 20
93.79236800000001
 30
0.0
 40
0.088042
100
AcDbArc
 50
235.712465
 51
304.287535
  0
ARC
  5
CFD
330
1E
100
AcDbEntity
  8
OBJECT
100
AcDbCircle
 10
51.426255
 20
93.79236800000001
 30
0.0
 40
0.088042
100
AcDbArc
 50
235.712465
 51
304.287535
  0
LINE
  5
CFE
330
1E
100
AcDbEntity
  8
OBJECT
100
AcDbLine
 10
51.72405900000001
 20
93.834327
 30
0.0
 11
51.426255
 21
93.834327
 31
0.0
  0
ARC
  5
CFF
330
1E
100
AcDbEntity
  8
OBJECT
100
AcDbCircle
 10
51.426255
 20
93.746285
 30
0.0
 40
0.088042
100
AcDbArc
 50
55.71246500000001
 51
124.287535
  0
ARC
  5
D00
330
1E
100
AcDbEntity
  8
OBJECT
100
AcDbCircle
 10
51.72405900000001
 20
93.746285
 30
0.0
 40
0.088042
100
AcDbArc
 50
55.71246500000001
 51
124.287535
  0
ARC
  5
D01
330
1E
100
AcDbEntity
  8
OBJECT
100
AcDbCircle
 10
51.575157
 20
93.504406
 30
0.0
 40
0.32992
100
AcDbArc
 50
72.48264499999999
 51
107.517355
  0
LINE
  5
D02
330
1E
100
AcDbEntity
  8
OBJECT
100
AcDbLine
 10
51.475853
 20
93.81902700000001
 30
0.0
 11
51.475853
 21
93.71962600000001
 31
0.0
  0
LINE
  5
D03
330
1E
100
AcDbEntity
  8
OBJECT
100
AcDbLine
 10
51.674461
 20
93.81902700000001
 30
0.0
 11
51.674461
 21
93.71962600000001
 31
0.0
  0
LINE
  5
D04
330
1E
100
AcDbEntity
  8
OBJECT
100
AcDbLine
 10
51.376657
 20
93.81902700000001
 30
0.0
 11
51.376657
 21
93.71962600000001
 31
0.0
  0
LINE
  5
D05
330
1E
100
AcDbEntity
  8
OBJECT
100
AcDbLine
 10
51.773657
 20
93.81902700000001
 30
0.0
 11
51.773657
 21
93.71962600000001
 31
0.0
  0
LINE
  5
D06
330
1E
100
AcDbEntity
  8
OBJECT
100
AcDbLine
 10
51.493157
 20
93.834327
 30
0.0
 11
51.493157
 21
93.923327
 31
0.0
  0
LINE
  5
D07
330
1E
100
AcDbEntity
  8
OBJECT
100
AcDbLine
 10
51.65715699999999
 20
93.834327
 30
0.0
 11
51.65715699999999
 21
93.923327
 31
0.0
  0
LINE
  5
D08
330
1E
100
AcDbEntity
  8
OBJECT
100
AcDbLine
 10
56.03215699999999
 20
93.834327
 30
0.0
 11
56.03215699999999
 21
93.923327
 31
0.0
  0
LINE
  5
D09
330
1E
100
AcDbEntity
  8
OBJECT
100
AcDbLine
 10
55.86815699999999
 20
93.834327
 30
0.0
 11
55.86815699999999
 21
93.923327
 31
0.0
  0
LINE
  5
D0A
330
1E
100
AcDbEntity
  8
OBJECT
100
AcDbLine
 10
56.14865699999999
 20
93.81902700000001
 30
0.0
 11
56.14865699999999
 21
93.71962600000001
 31
0.0
  0
LINE
  5
D0B
330
1E
100
AcDbEntity
  8
OBJECT
100
AcDbLine
 10
55.75165699999999
 20
93.81902700000001
 30
0.0
 11
55.75165699999999
 21
93.71962600000001
 31
0.0
  0
LINE
  5
D0C
330
1E
100
AcDbEntity
  8
OBJECT
100
AcDbLine
 10
56.049461
 20
93.81902700000001
 30
0.0
 11
56.049461
 21
93.71962600000001
 31
0.0
  0
LINE
  5
D0D
330
1E
100
AcDbEntity
  8
OBJECT
100
AcDbLine
 10
55.850853
 20
93.81902700000001
 30
0.0
 11
55.850853
 21
93.71962600000001
 31
0.0
  0
ARC
  5
D0E
330
1E
100
AcDbEntity
  8
OBJECT
100
AcDbCircle
 10
55.950157
 20
93.504406
 30
0.0
 40
0.32992
100
AcDbArc
 50
72.48264499999999
 51
107.517355
  0
ARC
  5
D0F
330
1E
100
AcDbEntity
  8
OBJECT
100
AcDbCircle
 10
56.099059
 20
93.746285
 30
0.0
 40
0.088042
100
AcDbArc
 50
55.71246500000001
 51
124.287535
  0
ARC
  5
D10
330
1E
100
AcDbEntity
  8
OBJECT
100
AcDbCircle
 10
55.80125500000001
 20
93.746285
 30
0.0
 40
0.088042
100
AcDbArc
 50
55.71246500000001
 51
124.287535
  0
LINE
  5
D11
330
1E
100
AcDbEntity
  8
OBJECT
100
AcDbLine
 10
56.099059
 20
93.834327
 30
0.0
 11
55.80125500000001
 21
93.834327
 31
0.0
  0
ARC
  5
D12
330
1E
100
AcDbEntity
  8
OBJECT
100
AcDbCircle
 10
55.80125500000001
 20
93.79236800000001
 30
0.0
 40
0.088042
100
AcDbArc
 50
235.712465
 51
304.287535
  0
ARC
  5
D13
330
1E
100
AcDbEntity
  8
OBJECT
100
AcDbCircle
 10
56.099059
 20
93.79236800000001
 30
0.0
 40
0.088042
100
AcDbArc
 50
235.712465
 51
304.287535
  0
ARC
  5
D14
330
1E
100
AcDbEntity
  8
OBJECT
100
AcDbCircle
 10
55.950157
 20
94.034247
 30
0.0
 40
0.32992
100
AcDbArc
 50
252.482645
 51
287.5173549999999
  0
LINE
  5
D15
330
1E
100
AcDbEntity
  8
OBJECT
100
AcDbLine
 10
56.122157
 20
93.704327
 30
0.0
 11
56.122157
 21
93.673327
 31
0.0
  0
LINE
  5
D16
330
1E
100
AcDbEntity
  8
OBJECT
100
AcDbLine
 10
55.77815699999999
 20
93.704327
 30
0.0
 11
55.77815699999999
 21
93.673327
 31
0.0
  0
LINE
  5
D17
330
1E
100
AcDbEntity
  8
OBJECT
100
AcDbLine
 10
56.099059
 20
93.704327
 30
0.0
 11
55.80125500000001
 21
93.704327
 31
0.0
  0
LINE
  5
D18
330
1E
100
AcDbEntity
  8
OBJECT
100
AcDbLine
 10
56.122157
 20
93.704327
 30
0.0
 11
55.77815699999999
 21
93.704327
 31
0.0
  0
LINE
  5
D19
330
1E
100
AcDbEntity
  8
OBJECT
100
AcDbLine
 10
56.03215699999999
 20
93.673327
 30
0.0
 11
56.03215699999999
 21
93.704327
 31
0.0
  0
LINE
  5
D1A
330
1E
100
AcDbEntity
  8
OBJECT
100
AcDbLine
 10
55.86815699999999
 20
93.673327
 30
0.0
 11
55.86815699999999
 21
93.704327
 31
0.0
  0
LINE
  5
D1B
330
1E
100
AcDbEntity
  8
OBJECT
100
AcDbLine
 10
56.03215699999999
 20
93.923327
 30
0.0
 11
55.86815699999999
 21
93.923327
 31
0.0
  0
LINE
  5
D1C
330
1E
100
AcDbEntity
  8
OBJECT
100
AcDbLine
 10
56.00115699999999
 20
93.923327
 30
0.0
 11
55.89915699999999
 21
93.923327
 31
0.0
  0
LINE
  5
D1D
330
1E
100
AcDbEntity
  8
OBJECT
100
AcDbLine
 10
56.00115699999999
 20
93.923327
 30
0.0
 11
55.89915699999999
 21
93.923327
 31
0.0
  0
LINE
  5
D1E
330
1E
100
AcDbEntity
  8
OBJECT
100
AcDbLine
 10
56.03215699999999
 20
93.923327
 30
0.0
 11
55.86815699999999
 21
93.923327
 31
0.0
  0
LINE
  5
D1F
330
1E
100
AcDbEntity
  8
OBJECT
100
AcDbLine
 10
55.86815699999999
 20
93.673327
 30
0.0
 11
55.86815699999999
 21
93.704327
 31
0.0
  0
LINE
  5
D20
330
1E
100
AcDbEntity
  8
OBJECT
100
AcDbLine
 10
56.03215699999999
 20
93.673327
 30
0.0
 11
56.03215699999999
 21
93.704327
 31
0.0
  0
LINE
  5
D21
330
1E
100
AcDbEntity
  8
OBJECT
100
AcDbLine
 10
56.122157
 20
93.704327
 30
0.0
 11
55.77815699999999
 21
93.704327
 31
0.0
  0
LINE
  5
D22
330
1E
100
AcDbEntity
  8
OBJECT
100
AcDbLine
 10
55.77815699999999
 20
93.704327
 30
0.0
 11
55.77815699999999
 21
93.673327
 31
0.0
  0
LINE
  5
D23
330
1E
100
AcDbEntity
  8
OBJECT
100
AcDbLine
 10
56.122157
 20
93.704327
 30
0.0
 11
56.122157
 21
93.673327
 31
0.0
  0
ARC
  5
D24
330
1E
100
AcDbEntity
  8
OBJECT
100
AcDbCircle
 10
55.950157
 20
94.034247
 30
0.0
 40
0.32992
100
AcDbArc
 50
252.482645
 51
287.5173549999999
  0
ARC
  5
D25
330
1E
100
AcDbEntity
  8
OBJECT
100
AcDbCircle
 10
56.099059
 20
93.79236800000001
 30
0.0
 40
0.088042
100
AcDbArc
 50
235.712465
 51
304.287535
  0
ARC
  5
D26
330
1E
100
AcDbEntity
  8
OBJECT
100
AcDbCircle
 10
55.80125500000001
 20
93.79236800000001
 30
0.0
 40
0.088042
100
AcDbArc
 50
235.712465
 51
304.287535
  0
LINE
  5
D27
330
1E
100
AcDbEntity
  8
OBJECT
100
AcDbLine
 10
56.099059
 20
93.834327
 30
0.0
 11
55.80125500000001
 21
93.834327
 31
0.0
  0
ARC
  5
D28
330
1E
100
AcDbEntity
  8
OBJECT
100
AcDbCircle
 10
55.80125500000001
 20
93.746285
 30
0.0
 40
0.088042
100
AcDbArc
 50
55.71246500000001
 51
124.287535
  0
ARC
  5
D29
330
1E
100
AcDbEntity
  8
OBJECT
100
AcDbCircle
 10
56.099059
 20
93.746285
 30
0.0
 40
0.088042
100
AcDbArc
 50
55.71246500000001
 51
124.287535
  0
ARC
  5
D2A
330
1E
100
AcDbEntity
  8
OBJECT
100
AcDbCircle
 10
55.950157
 20
93.504406
 30
0.0
 40
0.32992
100
AcDbArc
 50
72.48264499999999
 51
107.517355
  0
LINE
  5
D2B
330
1E
100
AcDbEntity
  8
OBJECT
100
AcDbLine
 10
55.850853
 20
93.81902700000001
 30
0.0
 11
55.850853
 21
93.71962600000001
 31
0.0
  0
LINE
  5
D2C
330
1E
100
AcDbEntity
  8
OBJECT
100
AcDbLine
 10
56.049461
 20
93.81902700000001
 30
0.0
 11
56.049461
 21
93.71962600000001
 31
0.0
  0
LINE
  5
D2D
330
1E
100
AcDbEntity
  8
OBJECT
100
AcDbLine
 10
55.75165699999999
 20
93.81902700000001
 30
0.0
 11
55.75165699999999
 21
93.71962600000001
 31
0.0
  0
LINE
  5
D2E
330
1E
100
AcDbEntity
  8
OBJECT
100
AcDbLine
 10
56.14865699999999
 20
93.81902700000001
 30
0.0
 11
56.14865699999999
 21
93.71962600000001
 31
0.0
  0
LINE
  5
D2F
330
1E
100
AcDbEntity
  8
OBJECT
100
AcDbLine
 10
55.86815699999999
 20
93.834327
 30
0.0
 11
55.86815699999999
 21
93.923327
 31
0.0
  0
LINE
  5
D30
330
1E
100
AcDbEntity
  8
OBJECT
100
AcDbLine
 10
56.03215699999999
 20
93.834327
 30
0.0
 11
56.03215699999999
 21
93.923327
 31
0.0
  0
LINE
  5
D31
330
1E
100
AcDbEntity
  8
OBJECT
100
AcDbLine
 10
76.95015699999999
 20
93.611327
 30
0.0
 11
76.95015699999999
 21
93.298327
 31
0.0
  0
LINE
  5
D32
330
1E
100
AcDbEntity
  8
OBJECT
100
AcDbLine
 10
50.950157
 20
93.298327
 30
0.0
 11
50.950157
 21
93.611327
 31
0.0
  0
LINE
  5
D33
330
1E
100
AcDbEntity
  8
CENTER
100
AcDbLine
 10
51.575157
 20
93.93179899999999
 30
0.0
 11
51.575157
 21
93.611327
 31
0.0
  0
LINE
  5
D34
330
1E
100
AcDbEntity
  8
CENTER
100
AcDbLine
 10
52.075157
 20
93.876723
 30
0.0
 11
52.075157
 21
93.611327
 31
0.0
  0
LINE
  5
D35
330
1E
100
AcDbEntity
  8
CENTER
100
AcDbLine
 10
52.57515699999999
 20
93.876723
 30
0.0
 11
52.57515699999999
 21
93.611327
 31
0.0
  0
LINE
  5
D36
330
1E
100
AcDbEntity
  8
CENTER
100
AcDbLine
 10
55.950157
 20
93.944059
 30
0.0
 11
55.950157
 21
93.60929399999999
 31
0.0
  0
LINE
  5
D37
330
1E
100
AcDbEntity
  8
OBJECT
100
AcDbLine
 10
50.652157
 20
94.20507699999999
 30
0.0
 11
50.652157
 21
93.705077
 31
0.0
  0
LINE
  5
D38
330
1E
100
AcDbEntity
  8
OBJECT
100
AcDbLine
 10
50.777157
 20
94.330077
 30
0.0
 11
52.121157
 21
94.330077
 31
0.0
  0
LINE
  5
D39
330
1E
100
AcDbEntity
  8
OBJECT
100
AcDbLine
 10
52.24615700000001
 20
94.20507699999999
 30
0.0
 11
52.24615700000001
 21
93.830077
 31
0.0
  0
LINE
  5
D3A
330
1E
100
AcDbEntity
  8
OBJECT
100
AcDbLine
 10
50.76115699999999
 20
94.20507699999999
 30
0.0
 11
50.76115699999999
 21
93.705077
 31
0.0
  0
LINE
  5
D3B
330
1E
100
AcDbEntity
  8
OBJECT
100
AcDbLine
 10
52.137157
 20
94.20507699999999
 30
0.0
 11
52.137157
 21
93.830077
 31
0.0
  0
LINE
  5
D3C
330
1E
100
AcDbEntity
  8
OBJECT
100
AcDbLine
 10
50.777157
 20
94.22107700000001
 30
0.0
 11
52.121157
 21
94.22107700000001
 31
0.0
  0
LINE
  5
D3D
330
1E
100
AcDbEntity
  8
OBJECT
100
AcDbLine
 10
50.652157
 20
93.705077
 30
0.0
 11
50.76115699999999
 21
93.705077
 31
0.0
  0
LINE
  5
D3E
330
1E
100
AcDbEntity
  8
OBJECT
100
AcDbLine
 10
52.825157
 20
93.814077
 30
0.0
 11
52.825157
 21
93.705077
 31
0.0
  0
LINE
  5
D3F
330
1E
100
AcDbEntity
  8
OBJECT
100
AcDbLine
 10
52.262157
 20
93.705077
 30
0.0
 11
52.825157
 21
93.705077
 31
0.0
  0
LINE
  5
D40
330
1E
100
AcDbEntity
  8
OBJECT
100
AcDbLine
 10
52.262157
 20
93.814077
 30
0.0
 11
52.825157
 21
93.814077
 31
0.0
  0
LINE
  5
D41
330
1E
100
AcDbEntity
  8
CENTER
100
AcDbLine
 10
52.57515699999999
 20
94.19018900000001
 30
0.0
 11
52.57515699999999
 21
93.705077
 31
0.0
  0
ARC
  5
D42
330
1E
100
AcDbEntity
  8
OBJECT
100
AcDbCircle
 10
50.777157
 20
94.20507699999999
 30
0.0
 40
0.125
100
AcDbArc
 50
90.0
 51
180.0
  0
ARC
  5
D43
330
1E
100
AcDbEntity
  8
OBJECT
100
AcDbCircle
 10
52.121157
 20
94.20507699999999
 30
0.0
 40
0.125
100
AcDbArc
 50
0.0
 51
90.0
  0
ARC
  5
D44
330
1E
100
AcDbEntity
  8
OBJECT
100
AcDbCircle
 10
52.262157
 20
93.830077
 30
0.0
 40
0.125
100
AcDbArc
 50
180.0
 51
270.0
  0
ARC
  5
D45
330
1E
100
AcDbEntity
  8
OBJECT
100
AcDbCircle
 10
50.777157
 20
94.20507699999999
 30
0.0
 40
0.016
100
AcDbArc
 50
90.0
 51
180.0
  0
ARC
  5
D46
330
1E
100
AcDbEntity
  8
OBJECT
100
AcDbCircle
 10
52.121157
 20
94.20507699999999
 30
0.0
 40
0.016
100
AcDbArc
 50
0.0
 51
90.0
  0
ARC
  5
D47
330
1E
100
AcDbEntity
  8
OBJECT
100
AcDbCircle
 10
52.262157
 20
93.830077
 30
0.0
 40
0.016
100
AcDbArc
 50
180.0
 51
270.0
  0
ARC
  5
D48
330
1E
100
AcDbEntity
  8
OBJECT
100
AcDbCircle
 10
75.306657
 20
93.830077
 30
0.0
 40
0.016
100
AcDbArc
 50
270.0
 51
0.0
  0
ARC
  5
D49
330
1E
100
AcDbEntity
  8
OBJECT
100
AcDbCircle
 10
75.44765699999999
 20
94.20507699999999
 30
0.0
 40
0.016
100
AcDbArc
 50
90.0
 51
180.0
  0
ARC
  5
D4A
330
1E
100
AcDbEntity
  8
OBJECT
100
AcDbCircle
 10
76.791657
 20
94.20507699999999
 30
0.0
 40
0.016
100
AcDbArc
 50
0.0
 51
90.0
  0
ARC
  5
D4B
330
1E
100
AcDbEntity
  8
OBJECT
100
AcDbCircle
 10
75.306657
 20
93.830077
 30
0.0
 40
0.125
100
AcDbArc
 50
270.0
 51
0.0
  0
ARC
  5
D4C
330
1E
100
AcDbEntity
  8
OBJECT
100
AcDbCircle
 10
75.44765699999999
 20
94.20507699999999
 30
0.0
 40
0.125
100
AcDbArc
 50
90.0
 51
180.0
  0
ARC
  5
D4D
330
1E
100
AcDbEntity
  8
OBJECT
100
AcDbCircle
 10
76.791657
 20
94.20507699999999
 30
0.0
 40
0.125
100
AcDbArc
 50
0.0
 51
90.0
  0
LINE
  5
D4E
330
1E
100
AcDbEntity
  8
OBJECT
100
AcDbLine
 10
75.306657
 20
93.814077
 30
0.0
 11
74.74365699999999
 21
93.814077
 31
0.0
  0
LINE
  5
D4F
330
1E
100
AcDbEntity
  8
OBJECT
100
AcDbLine
 10
75.306657
 20
93.705077
 30
0.0
 11
74.74365699999999
 21
93.705077
 31
0.0
  0
LINE
  5
D50
330
1E
100
AcDbEntity
  8
OBJECT
100
AcDbLine
 10
74.74365699999999
 20
93.814077
 30
0.0
 11
74.74365699999999
 21
93.705077
 31
0.0
  0
LINE
  5
D51
330
1E
100
AcDbEntity
  8
OBJECT
100
AcDbLine
 10
76.916657
 20
93.705077
 30
0.0
 11
76.80765699999999
 21
93.705077
 31
0.0
  0
LINE
  5
D52
330
1E
100
AcDbEntity
  8
OBJECT
100
AcDbLine
 10
76.791657
 20
94.22107700000001
 30
0.0
 11
75.44765699999999
 21
94.22107700000001
 31
0.0
  0
LINE
  5
D53
330
1E
100
AcDbEntity
  8
OBJECT
100
AcDbLine
 10
75.431657
 20
94.20507699999999
 30
0.0
 11
75.431657
 21
93.830077
 31
0.0
  0
LINE
  5
D54
330
1E
100
AcDbEntity
  8
OBJECT
100
AcDbLine
 10
76.80765699999999
 20
94.20507699999999
 30
0.0
 11
76.80765699999999
 21
93.705077
 31
0.0
  0
LINE
  5
D55
330
1E
100
AcDbEntity
  8
OBJECT
100
AcDbLine
 10
75.32265699999999
 20
94.20507699999999
 30
0.0
 11
75.32265699999999
 21
93.830077
 31
0.0
  0
LINE
  5
D56
330
1E
100
AcDbEntity
  8
OBJECT
100
AcDbLine
 10
76.791657
 20
94.330077
 30
0.0
 11
75.44765699999999
 21
94.330077
 31
0.0
  0
LINE
  5
D57
330
1E
100
AcDbEntity
  8
OBJECT
100
AcDbLine
 10
76.916657
 20
94.20507699999999
 30
0.0
 11
76.916657
 21
93.705077
 31
0.0
  0
LINE
  5
D58
330
1E
100
AcDbEntity
  8
CENTER
100
AcDbLine
 10
74.993657
 20
93.943214
 30
0.0
 11
74.993657
 21
93.705077
 31
0.0
  0
LINE
  5
D59
330
1E
100
AcDbEntity
  8
OBJECT
100
AcDbLine
 10
50.950157
 20
93.611327
 30
0.0
 11
76.95015699999999
 21
93.611327
 31
0.0
  0
LINE
  5
D5A
330
1E
100
AcDbEntity
  8
HIDDEN
100
AcDbLine
 10
57.83715700000001
 20
57.175787
 30
0.0
 11
50.950157
 21
57.175787
 31
0.0
  0
LINE
  5
D5B
330
1E
100
AcDbEntity
  8
OBJECT
100
AcDbLine
 10
69.731657
 20
57.175787
 30
0.0
 11
57.83715700000001
 21
57.175787
 31
0.0
  0
LINE
  5
D5C
330
1E
100
AcDbEntity
  8
OBJECT
100
AcDbLine
 10
69.731657
 20
58.565787
 30
0.0
 11
57.83715700000001
 21
58.565787
 31
0.0
  0
LINE
  5
D5D
330
1E
100
AcDbEntity
  8
HIDDEN
100
AcDbLine
 10
57.83715700000001
 20
58.565787
 30
0.0
 11
50.950157
 21
58.565787
 31
0.0
  0
LINE
  5
D5E
330
1E
100
AcDbEntity
  8
OBJECT
100
AcDbLine
 10
28.024596
 20
35.73561199999999
 30
0.0
 11
56.67560899999999
 21
35.73561199999999
 31
0.0
  0
ARC
  5
D5F
330
1E
100
AcDbEntity
  8
OBJECT
100
AcDbCircle
 10
33.272596
 20
36.61061199999999
 30
0.0
 40
0.064
100
AcDbArc
 50
180.0
 51
270.0
  0
ARC
  5
D60
330
1E
100
AcDbEntity
  8
OBJECT
100
AcDbCircle
 10
32.708596
 20
38.11061199999999
 30
0.0
 40
0.064
100
AcDbArc
 50
0.0
 51
90.0
  0
ARC
  5
D61
330
1E
100
AcDbEntity
  8
OBJECT
100
AcDbCircle
 10
27.332596
 20
38.11061199999999
 30
0.0
 40
0.064
100
AcDbArc
 50
90.0
 51
180.0
  0
ARC
  5
D62
330
1E
100
AcDbEntity
  8
OBJECT
100
AcDbCircle
 10
33.272596
 20
36.61061199999999
 30
0.0
 40
0.5
100
AcDbArc
 50
180.0
 51
270.0
  0
ARC
  5
D63
330
1E
100
AcDbEntity
  8
OBJECT
100
AcDbCircle
 10
32.708596
 20
38.11061199999999
 30
0.0
 40
0.5
100
AcDbArc
 50
0.0
 51
90.0
  0
ARC
  5
D64
330
1E
100
AcDbEntity
  8
OBJECT
100
AcDbCircle
 10
27.332596
 20
38.11061199999999
 30
0.0
 40
0.5
100
AcDbArc
 50
90.0
 51
180.0
  0
LINE
  5
D65
330
1E
100
AcDbEntity
  8
CENTER
100
AcDbLine
 10
34.524596
 20
38.051063
 30
0.0
 11
34.524596
 21
36.11061199999999
 31
0.0
  0
LINE
  5
D66
330
1E
100
AcDbEntity
  8
OBJECT
100
AcDbLine
 10
33.272596
 20
36.54661199999999
 30
0.0
 11
35.524596
 21
36.54661199999999
 31
0.0
  0
LINE
  5
D67
330
1E
100
AcDbEntity
  8
OBJECT
100
AcDbLine
 10
33.272596
 20
36.11061199999999
 30
0.0
 11
35.524596
 21
36.11061199999999
 31
0.0
  0
LINE
  5
D68
330
1E
100
AcDbEntity
  8
OBJECT
100
AcDbLine
 10
35.524596
 20
36.54661199999999
 30
0.0
 11
35.524596
 21
36.11061199999999
 31
0.0
  0
LINE
  5
D69
330
1E
100
AcDbEntity
  8
OBJECT
100
AcDbLine
 10
26.832596
 20
36.11061199999999
 30
0.0
 11
27.268596
 21
36.11061199999999
 31
0.0
  0
LINE
  5
D6A
330
1E
100
AcDbEntity
  8
OBJECT
100
AcDbLine
 10
27.332596
 20
38.17461199999999
 30
0.0
 11
32.708596
 21
38.17461199999999
 31
0.0
  0
LINE
  5
D6B
330
1E
100
AcDbEntity
  8
OBJECT
100
AcDbLine
 10
32.772596
 20
38.11061199999999
 30
0.0
 11
32.772596
 21
36.61061199999999
 31
0.0
  0
LINE
  5
D6C
330
1E
100
AcDbEntity
  8
OBJECT
100
AcDbLine
 10
27.268596
 20
38.11061199999999
 30
0.0
 11
27.268596
 21
36.11061199999999
 31
0.0
  0
LINE
  5
D6D
330
1E
100
AcDbEntity
  8
OBJECT
100
AcDbLine
 10
33.208596
 20
38.11061199999999
 30
0.0
 11
33.208596
 21
36.61061199999999
 31
0.0
  0
LINE
  5
D6E
330
1E
100
AcDbEntity
  8
OBJECT
100
AcDbLine
 10
27.332596
 20
38.61061199999999
 30
0.0
 11
32.708596
 21
38.61061199999999
 31
0.0
  0
LINE
  5
D6F
330
1E
100
AcDbEntity
  8
OBJECT
100
AcDbLine
 10
26.832596
 20
38.11061199999999
 30
0.0
 11
26.832596
 21
36.11061199999999
 31
0.0
  0
LINE
  5
D70
330
1E
100
AcDbEntity
  8
CENTER
100
AcDbLine
 10
34.524596
 20
36.79719699999999
 30
0.0
 11
34.524596
 21
35.73561199999999
 31
0.0
  0
LINE
  5
D71
330
1E
100
AcDbEntity
  8
OBJECT
100
AcDbLine
 10
28.024596
 20
34.483612
 30
0.0
 11
28.024596
 21
35.73561199999999
 31
0.0
  0
LINE
  5
D72
330
1E
100
AcDbEntity
  8
OBJECT
100
AcDbLine
 10
28.024596
 20
34.483612
 30
0.0
 11
32.838101
 21
34.483612
 31
0.0
  0
LINE
  5
D73
330
1E
100
AcDbEntity
  8
OBJECT
100
AcDbLine
 10
26.832596
 20
38.10761199999999
 30
0.0
 11
26.584596
 21
38.10761199999999
 31
0.0
  0
LINE
  5
D74
330
1E
100
AcDbEntity
  8
OBJECT
100
AcDbLine
 10
26.832596
 20
35.983612
 30
0.0
 11
26.832596
 21
38.10761199999999
 31
0.0
  0
LINE
  5
D75
330
1E
100
AcDbEntity
  8
OBJECT
100
AcDbLine
 10
55.572596
 20
35.983612
 30
0.0
 11
26.832596
 21
35.983612
 31
0.0
  0
LINE
  5
D76
330
1E
100
AcDbEntity
  8
OBJECT
100
AcDbLine
 10
26.584596
 20
35.73561199999999
 30
0.0
 11
26.584596
 21
38.10761199999999
 31
0.0
  0
LINE
  5
D77
330
1E
100
AcDbEntity
  8
OBJECT
100
AcDbLine
 10
55.572596
 20
35.73561199999999
 30
0.0
 11
26.584596
 21
35.73561199999999
 31
0.0
  0
LINE
  5
D78
330
1E
100
AcDbEntity
  8
OBJECT
100
AcDbLine
 10
55.572596
 20
35.73561199999999
 30
0.0
 11
55.572596
 21
35.983612
 31
0.0
  0
LINE
  5
D79
330
1E
100
AcDbEntity
  8
OBJECT
100
AcDbLine
 10
53.157874
 20
34.483612
 30
0.0
 11
56.70929499999999
 21
34.483612
 31
0.0
  0
LINE
  5
D7A
330
1E
100
AcDbEntity
  8
OBJECT
100
AcDbLine
 10
25.157322
 20
35.23561199999999
 30
0.0
 11
28.024596
 21
35.23561199999999
 31
0.0
  0
LINE
  5
D7B
330
1E
100
AcDbEntity
  8
OBJECT
100
AcDbLine
 10
25.36583699999999
 20
34.23561199999999
 30
0.0
 11
56.64859599999999
 21
34.23561199999999
 31
0.0
  0
LINE
  5
D7C
330
1E
100
AcDbEntity
  8
OBJECT
100
AcDbLine
 10
57.024596
 20
33.859612
 30
0.0
 11
57.024596
 21
30.530983
 31
0.0
  0
LINE
  5
D7D
330
1E
100
AcDbEntity
  8
HIDDEN
100
AcDbLine
 10
25.361418
 20
33.987612
 30
0.0
 11
50.44677899999999
 21
33.987612
 31
0.0
  0
LINE
  5
D7E
330
1E
100
AcDbEntity
  8
HIDDEN
100
AcDbLine
 10
56.776596
 20
33.859612
 30
0.0
 11
56.776596
 21
30.53805
 31
0.0
  0
LINE
  5
D7F
330
1E
100
AcDbEntity
  8
OBJECT
100
AcDbLine
 10
56.64859599999999
 20
34.23561199999999
 30
0.0
 11
56.64859599999999
 21
33.859612
 31
0.0
  0
LINE
  5
D80
330
1E
100
AcDbEntity
  8
OBJECT
100
AcDbLine
 10
56.64859599999999
 20
33.859612
 30
0.0
 11
57.024596
 21
33.859612
 31
0.0
  0
LINE
  5
D81
330
1E
100
AcDbEntity
  8
OBJECT
100
AcDbLine
 10
48.71259600000001
 20
35.48761199999999
 30
0.0
 11
49.361334
 21
35.48761199999999
 31
0.0
  0
LINE
  5
D82
330
1E
100
AcDbEntity
  8
OBJECT
100
AcDbLine
 10
47.336596
 20
35.48761199999999
 30
0.0
 11
46.15487499999999
 21
35.48761199999999
 31
0.0
  0
LINE
  5
D83
330
1E
100
AcDbEntity
  8
OBJECT
100
AcDbLine
 10
48.586596
 20
35.73561199999999
 30
0.0
 11
48.586596
 21
35.983612
 31
0.0
  0
LINE
  5
D84
330
1E
100
AcDbEntity
  8
OBJECT
100
AcDbLine
 10
47.46259600000001
 20
35.73561199999999
 30
0.0
 11
47.46259600000001
 21
35.983612
 31
0.0
  0
LINE
  5
D85
330
1E
100
AcDbEntity
  8
CENTER
100
AcDbLine
 10
48.024596
 20
35.183525
 30
0.0
 11
48.024596
 21
37.463799
 31
0.0
  0
LINE
  5
D86
330
1E
100
AcDbEntity
  8
OBJECT
100
AcDbLine
 10
47.60459599999999
 20
35.48761199999999
 30
0.0
 11
47.60459599999999
 21
35.73561199999999
 31
0.0
  0
LINE
  5
D87
330
1E
100
AcDbEntity
  8
OBJECT
100
AcDbLine
 10
48.444596
 20
35.48761199999999
 30
0.0
 11
48.444596
 21
35.73561199999999
 31
0.0
  0
LINE
  5
D88
330
1E
100
AcDbEntity
  8
OBJECT
100
AcDbLine
 10
47.820596
 20
35.623612
 30
0.0
 11
48.22859600000001
 21
35.623612
 31
0.0
  0
LINE
  5
D89
330
1E
100
AcDbEntity
  8
OBJECT
100
AcDbLine
 10
47.820596
 20
35.871612
 30
0.0
 11
48.22859600000001
 21
35.871612
 31
0.0
  0
LINE
  5
D8A
330
1E
100
AcDbEntity
  8
OBJECT
100
AcDbLine
 10
47.69659599999999
 20
35.739612
 30
0.0
 11
48.352596
 21
35.739612
 31
0.0
  0
ARC
  5
D8B
330
1E
100
AcDbEntity
  8
OBJECT
100
AcDbCircle
 10
48.024596
 20
36.69474
 30
0.0
 40
1.595128
100
AcDbArc
 50
244.449066
 51
266.1177529999999
  0
LINE
  5
D8C
330
1E
100
AcDbEntity
  8
OBJECT
100
AcDbLine
 10
48.132596
 20
35.255612
 30
0.0
 11
48.71259600000001
 21
35.255612
 31
0.0
  0
LINE
  5
D8D
330
1E
100
AcDbEntity
  8
OBJECT
100
AcDbLine
 10
48.132596
 20
35.359612
 30
0.0
 11
48.132596
 21
35.10327199999999
 31
0.0
  0
LINE
  5
D8E
330
1E
100
AcDbEntity
  8
OBJECT
100
AcDbLine
 10
47.916596
 20
35.359612
 30
0.0
 11
47.916596
 21
35.099612
 31
0.0
  0
LINE
  5
D8F
330
1E
100
AcDbEntity
  8
OBJECT
100
AcDbLine
 10
47.916596
 20
35.359612
 30
0.0
 11
48.132596
 21
35.359612
 31
0.0
  0
ARC
  5
D90
330
1E
100
AcDbEntity
  8
OBJECT
100
AcDbCircle
 10
48.024596
 20
36.69474
 30
0.0
 40
1.595128
100
AcDbArc
 50
273.882247
 51
295.5509339999999
  0
LINE
  5
D91
330
1E
100
AcDbEntity
  8
OBJECT
100
AcDbLine
 10
47.336596
 20
35.255612
 30
0.0
 11
47.916596
 21
35.255612
 31
0.0
  0
LINE
  5
D92
330
1E
100
AcDbEntity
  8
OBJECT
100
AcDbLine
 10
48.71259600000001
 20
35.48761199999999
 30
0.0
 11
48.71259600000001
 21
35.255612
 31
0.0
  0
LINE
  5
D93
330
1E
100
AcDbEntity
  8
OBJECT
100
AcDbLine
 10
47.336596
 20
35.48761199999999
 30
0.0
 11
47.336596
 21
35.255612
 31
0.0
  0
LINE
  5
D94
330
1E
100
AcDbEntity
  8
OBJECT
100
AcDbLine
 10
47.336596
 20
35.48761199999999
 30
0.0
 11
48.71259600000001
 21
35.48761199999999
 31
0.0
  0
LINE
  5
D95
330
1E
100
AcDbEntity
  8
OBJECT
100
AcDbLine
 10
48.818596
 20
36.56641299999999
 30
0.0
 11
48.818596
 21
36.168811
 31
0.0
  0
LINE
  5
D96
330
1E
100
AcDbEntity
  8
OBJECT
100
AcDbLine
 10
47.230596
 20
36.56641299999999
 30
0.0
 11
47.230596
 21
36.168811
 31
0.0
  0
LINE
  5
D97
330
1E
100
AcDbEntity
  8
OBJECT
100
AcDbLine
 10
47.627379
 20
36.56641299999999
 30
0.0
 11
47.627379
 21
36.168811
 31
0.0
  0
LINE
  5
D98
330
1E
100
AcDbEntity
  8
OBJECT
100
AcDbLine
 10
48.421813
 20
36.56641299999999
 30
0.0
 11
48.421813
 21
36.168811
 31
0.0
  0
ARC
  5
D99
330
1E
100
AcDbEntity
  8
OBJECT
100
AcDbCircle
 10
48.024596
 20
35.30793099999999
 30
0.0
 40
1.319680999999999
100
AcDbArc
 50
72.48264499999999
 51
107.517355
  0
ARC
  5
D9A
330
1E
100
AcDbEntity
  8
OBJECT
100
AcDbCircle
 10
47.428987
 20
36.275446
 30
0.0
 40
0.352166
100
AcDbArc
 50
55.71246500000001
 51
124.287535
  0
ARC
  5
D9B
330
1E
100
AcDbEntity
  8
OBJECT
100
AcDbCircle
 10
48.620204
 20
36.275446
 30
0.0
 40
0.352166
100
AcDbArc
 50
55.71246500000001
 51
124.287535
  0
LINE
  5
D9C
330
1E
100
AcDbEntity
  8
OBJECT
100
AcDbLine
 10
47.428987
 20
36.627612
 30
0.0
 11
48.620204
 21
36.627612
 31
0.0
  0
ARC
  5
D9D
330
1E
100
AcDbEntity
  8
OBJECT
100
AcDbCircle
 10
48.620204
 20
36.459778
 30
0.0
 40
0.352166
100
AcDbArc
 50
235.712465
 51
304.287535
  0
ARC
  5
D9E
330
1E
100
AcDbEntity
  8
OBJECT
100
AcDbCircle
 10
47.428987
 20
36.459778
 30
0.0
 40
0.352166
100
AcDbArc
 50
235.712465
 51
304.287535
  0
ARC
  5
D9F
330
1E
100
AcDbEntity
  8
OBJECT
100
AcDbCircle
 10
48.024596
 20
37.427293
 30
0.0
 40
1.319680999999999
100
AcDbArc
 50
252.482645
 51
287.5173549999999
  0
LINE
  5
DA0
330
1E
100
AcDbEntity
  8
OBJECT
100
AcDbLine
 10
47.336596
 20
36.10761199999999
 30
0.0
 11
47.336596
 21
35.983612
 31
0.0
  0
LINE
  5
DA1
330
1E
100
AcDbEntity
  8
OBJECT
100
AcDbLine
 10
48.71259600000001
 20
36.10761199999999
 30
0.0
 11
48.71259600000001
 21
35.983612
 31
0.0
  0
LINE
  5
DA2
330
1E
100
AcDbEntity
  8
OBJECT
100
AcDbLine
 10
47.428987
 20
36.10761199999999
 30
0.0
 11
48.620204
 21
36.10761199999999
 31
0.0
  0
LINE
  5
DA3
330
1E
100
AcDbEntity
  8
OBJECT
100
AcDbLine
 10
47.336596
 20
36.10761199999999
 30
0.0
 11
48.71259600000001
 21
36.10761199999999
 31
0.0
  0
LINE
  5
DA4
330
1E
100
AcDbEntity
  8
OBJECT
100
AcDbLine
 10
47.69659599999999
 20
36.98761199999999
 30
0.0
 11
48.352596
 21
36.98761199999999
 31
0.0
  0
LINE
  5
DA5
330
1E
100
AcDbEntity
  8
OBJECT
100
AcDbLine
 10
48.352596
 20
35.48761199999999
 30
0.0
 11
48.352596
 21
36.10761199999999
 31
0.0
  0
LINE
  5
DA6
330
1E
100
AcDbEntity
  8
OBJECT
100
AcDbLine
 10
47.69659599999999
 20
35.48761199999999
 30
0.0
 11
47.69659599999999
 21
36.10761199999999
 31
0.0
  0
LINE
  5
DA7
330
1E
100
AcDbEntity
  8
OBJECT
100
AcDbLine
 10
47.648596
 20
35.983612
 30
0.0
 11
47.648596
 21
36.10761199999999
 31
0.0
  0
LINE
  5
DA8
330
1E
100
AcDbEntity
  8
OBJECT
100
AcDbLine
 10
48.400596
 20
35.983612
 30
0.0
 11
48.400596
 21
36.10761199999999
 31
0.0
  0
LINE
  5
DA9
330
1E
100
AcDbEntity
  8
OBJECT
100
AcDbLine
 10
47.336596
 20
35.983612
 30
0.0
 11
47.69659599999999
 21
35.983612
 31
0.0
  0
LINE
  5
DAA
330
1E
100
AcDbEntity
  8
OBJECT
100
AcDbLine
 10
48.352596
 20
35.983612
 30
0.0
 11
48.71259600000001
 21
35.983612
 31
0.0
  0
LINE
  5
DAB
330
1E
100
AcDbEntity
  8
OBJECT
100
AcDbLine
 10
47.820596
 20
36.867612
 30
0.0
 11
48.22859600000001
 21
36.867612
 31
0.0
  0
LINE
  5
DAC
330
1E
100
AcDbEntity
  8
OBJECT
100
AcDbLine
 10
47.69659599999999
 20
36.739612
 30
0.0
 11
48.352596
 21
36.739612
 31
0.0
  0
LINE
  5
DAD
330
1E
100
AcDbEntity
  8
OBJECT
100
AcDbLine
 10
47.69659599999999
 20
36.627612
 30
0.0
 11
47.69659599999999
 21
36.98761199999999
 31
0.0
  0
LINE
  5
DAE
330
1E
100
AcDbEntity
  8
OBJECT
100
AcDbLine
 10
48.352596
 20
36.627612
 30
0.0
 11
48.352596
 21
36.98761199999999
 31
0.0
  0
LINE
  5
DAF
330
1E
100
AcDbEntity
  8
OBJECT
100
AcDbLine
 10
47.69659599999999
 20
35.987612
 30
0.0
 11
48.352596
 21
35.987612
 31
0.0
  0
LWPOLYLINE
  5
DB0
330
1E
100
AcDbEntity
  8
OBJECT
100
AcDbPolyline
 90
       10
 70
     0
 43
0.0
 10
46.28389799999999
 20
35.983612
 42
-0.011291
 10
46.153083
 20
35.481309
 42
0.263696
 10
46.270553
 20
34.997723
 42
0.128428
 10
46.69897299999999
 20
34.728297
 42
0.158299
 10
47.55581399999999
 20
34.735205
 42
-0.197975
 10
48.357374
 20
34.679938
 42
0.238553
 10
49.158935
 20
34.686846
 42
0.267991
 10
49.331685
 20
34.95627299999999
 42
-0.006149
 10
49.373145
 20
35.660927
 42
0.048778
 10
49.36462
 20
35.983612
 42
-0.125137
  0
LWPOLYLINE
  5
DB1
330
1E
100
AcDbEntity
  8
OBJECT
100
AcDbPolyline
 90
       10
 70
     0
 43
0.0
 10
28.78389799999999
 20
35.983612
 42
-0.011291
 10
28.653083
 20
35.481309
 42
0.263696
 10
28.770553
 20
34.997723
 42
0.128428
 10
29.198973
 20
34.728297
 42
0.158299
 10
30.055814
 20
34.735205
 42
-0.197975
 10
30.857374
 20
34.679938
 42
0.238553
 10
31.65893499999999
 20
34.686846
 42
0.267991
 10
31.83168499999999
 20
34.95627299999999
 42
-0.006149
 10
31.873145
 20
35.660927
 42
0.048778
 10
31.86462
 20
35.983612
 42
-0.125137
  0
LINE
  5
DB2
330
1E
100
AcDbEntity
  8
OBJECT
100
AcDbLine
 10
30.196596
 20
35.987612
 30
0.0
 11
30.852596
 21
35.987612
 31
0.0
  0
LINE
  5
DB3
330
1E
100
AcDbEntity
  8
OBJECT
100
AcDbLine
 10
30.852596
 20
36.627612
 30
0.0
 11
30.852596
 21
36.98761199999999
 31
0.0
  0
LINE
  5
DB4
330
1E
100
AcDbEntity
  8
OBJECT
100
AcDbLine
 10
30.196596
 20
36.627612
 30
0.0
 11
30.196596
 21
36.98761199999999
 31
0.0
  0
LINE
  5
DB5
330
1E
100
AcDbEntity
  8
OBJECT
100
AcDbLine
 10
30.196596
 20
36.739612
 30
0.0
 11
30.852596
 21
36.739612
 31
0.0
  0
LINE
  5
DB6
330
1E
100
AcDbEntity
  8
OBJECT
100
AcDbLine
 10
30.320596
 20
36.867612
 30
0.0
 11
30.728596
 21
36.867612
 31
0.0
  0
LINE
  5
DB7
330
1E
100
AcDbEntity
  8
OBJECT
100
AcDbLine
 10
30.852596
 20
35.983612
 30
0.0
 11
31.212596
 21
35.983612
 31
0.0
  0
LINE
  5
DB8
330
1E
100
AcDbEntity
  8
OBJECT
100
AcDbLine
 10
29.836596
 20
35.983612
 30
0.0
 11
30.196596
 21
35.983612
 31
0.0
  0
LINE
  5
DB9
330
1E
100
AcDbEntity
  8
OBJECT
100
AcDbLine
 10
30.900596
 20
35.983612
 30
0.0
 11
30.900596
 21
36.10761199999999
 31
0.0
  0
LINE
  5
DBA
330
1E
100
AcDbEntity
  8
OBJECT
100
AcDbLine
 10
30.148596
 20
35.983612
 30
0.0
 11
30.148596
 21
36.10761199999999
 31
0.0
  0
LINE
  5
DBB
330
1E
100
AcDbEntity
  8
OBJECT
100
AcDbLine
 10
30.196596
 20
35.48761199999999
 30
0.0
 11
30.196596
 21
36.10761199999999
 31
0.0
  0
LINE
  5
DBC
330
1E
100
AcDbEntity
  8
OBJECT
100
AcDbLine
 10
30.852596
 20
35.48761199999999
 30
0.0
 11
30.852596
 21
36.10761199999999
 31
0.0
  0
LINE
  5
DBD
330
1E
100
AcDbEntity
  8
OBJECT
100
AcDbLine
 10
30.196596
 20
36.98761199999999
 30
0.0
 11
30.852596
 21
36.98761199999999
 31
0.0
  0
LINE
  5
DBE
330
1E
100
AcDbEntity
  8
OBJECT
100
AcDbLine
 10
29.836596
 20
36.10761199999999
 30
0.0
 11
31.212596
 21
36.10761199999999
 31
0.0
  0
LINE
  5
DBF
330
1E
100
AcDbEntity
  8
OBJECT
100
AcDbLine
 10
29.92898699999999
 20
36.10761199999999
 30
0.0
 11
31.120204
 21
36.10761199999999
 31
0.0
  0
LINE
  5
DC0
330
1E
100
AcDbEntity
  8
OBJECT
100
AcDbLine
 10
31.212596
 20
36.10761199999999
 30
0.0
 11
31.212596
 21
35.983612
 31
0.0
  0
LINE
  5
DC1
330
1E
100
AcDbEntity
  8
OBJECT
100
AcDbLine
 10
29.836596
 20
36.10761199999999
 30
0.0
 11
29.836596
 21
35.983612
 31
0.0
  0
ARC
  5
DC2
330
1E
100
AcDbEntity
  8
OBJECT
100
AcDbCircle
 10
30.524596
 20
37.427293
 30
0.0
 40
1.319680999999999
100
AcDbArc
 50
252.482645
 51
287.5173549999999
  0
ARC
  5
DC3
330
1E
100
AcDbEntity
  8
OBJECT
100
AcDbCircle
 10
29.92898699999999
 20
36.459778
 30
0.0
 40
0.352166
100
AcDbArc
 50
235.712465
 51
304.287535
  0
ARC
  5
DC4
330
1E
100
AcDbEntity
  8
OBJECT
100
AcDbCircle
 10
31.120204
 20
36.459778
 30
0.0
 40
0.352166
100
AcDbArc
 50
235.712465
 51
304.287535
  0
LINE
  5
DC5
330
1E
100
AcDbEntity
  8
OBJECT
100
AcDbLine
 10
29.92898699999999
 20
36.627612
 30
0.0
 11
31.120204
 21
36.627612
 31
0.0
  0
ARC
  5
DC6
330
1E
100
AcDbEntity
  8
OBJECT
100
AcDbCircle
 10
31.120204
 20
36.275446
 30
0.0
 40
0.352166
100
AcDbArc
 50
55.71246500000001
 51
124.287535
  0
ARC
  5
DC7
330
1E
100
AcDbEntity
  8
OBJECT
100
AcDbCircle
 10
29.92898699999999
 20
36.275446
 30
0.0
 40
0.352166
100
AcDbArc
 50
55.71246500000001
 51
124.287535
  0
ARC
  5
DC8
330
1E
100
AcDbEntity
  8
OBJECT
100
AcDbCircle
 10
30.524596
 20
35.30793099999999
 30
0.0
 40
1.319680999999999
100
AcDbArc
 50
72.48264499999999
 51
107.517355
  0
LINE
  5
DC9
330
1E
100
AcDbEntity
  8
OBJECT
100
AcDbLine
 10
30.921813
 20
36.56641299999999
 30
0.0
 11
30.921813
 21
36.168811
 31
0.0
  0
LINE
  5
DCA
330
1E
100
AcDbEntity
  8
OBJECT
100
AcDbLine
 10
30.12737899999999
 20
36.56641299999999
 30
0.0
 11
30.12737899999999
 21
36.168811
 31
0.0
  0
LINE
  5
DCB
330
1E
100
AcDbEntity
  8
OBJECT
100
AcDbLine
 10
29.730596
 20
36.56641299999999
 30
0.0
 11
29.730596
 21
36.168811
 31
0.0
  0
LINE
  5
DCC
330
1E
100
AcDbEntity
  8
OBJECT
100
AcDbLine
 10
31.318596
 20
36.56641299999999
 30
0.0
 11
31.318596
 21
36.168811
 31
0.0
  0
LINE
  5
DCD
330
1E
100
AcDbEntity
  8
OBJECT
100
AcDbLine
 10
29.836596
 20
35.48761199999999
 30
0.0
 11
31.212596
 21
35.48761199999999
 31
0.0
  0
LINE
  5
DCE
330
1E
100
AcDbEntity
  8
OBJECT
100
AcDbLine
 10
29.836596
 20
35.48761199999999
 30
0.0
 11
29.836596
 21
35.255612
 31
0.0
  0
LINE
  5
DCF
330
1E
100
AcDbEntity
  8
OBJECT
100
AcDbLine
 10
31.212596
 20
35.48761199999999
 30
0.0
 11
31.212596
 21
35.255612
 31
0.0
  0
LINE
  5
DD0
330
1E
100
AcDbEntity
  8
OBJECT
100
AcDbLine
 10
29.836596
 20
35.255612
 30
0.0
 11
30.416596
 21
35.255612
 31
0.0
  0
ARC
  5
DD1
330
1E
100
AcDbEntity
  8
OBJECT
100
AcDbCircle
 10
30.524596
 20
36.69474
 30
0.0
 40
1.595128
100
AcDbArc
 50
273.882247
 51
295.5509339999999
  0
LINE
  5
DD2
330
1E
100
AcDbEntity
  8
OBJECT
100
AcDbLine
 10
30.416596
 20
35.359612
 30
0.0
 11
30.632596
 21
35.359612
 31
0.0
  0
LINE
  5
DD3
330
1E
100
AcDbEntity
  8
OBJECT
100
AcDbLine
 10
30.416596
 20
35.359612
 30
0.0
 11
30.416596
 21
35.099612
 31
0.0
  0
LINE
  5
DD4
330
1E
100
AcDbEntity
  8
OBJECT
100
AcDbLine
 10
30.632596
 20
35.359612
 30
0.0
 11
30.632596
 21
35.099612
 31
0.0
  0
LINE
  5
DD5
330
1E
100
AcDbEntity
  8
OBJECT
100
AcDbLine
 10
30.632596
 20
35.255612
 30
0.0
 11
31.212596
 21
35.255612
 31
0.0
  0
ARC
  5
DD6
330
1E
100
AcDbEntity
  8
OBJECT
100
AcDbCircle
 10
30.524596
 20
36.69474
 30
0.0
 40
1.595128
100
AcDbArc
 50
244.449066
 51
266.1177529999999
  0
LINE
  5
DD7
330
1E
100
AcDbEntity
  8
OBJECT
100
AcDbLine
 10
30.196596
 20
35.739612
 30
0.0
 11
30.852596
 21
35.739612
 31
0.0
  0
LINE
  5
DD8
330
1E
100
AcDbEntity
  8
OBJECT
100
AcDbLine
 10
30.320596
 20
35.871612
 30
0.0
 11
30.728596
 21
35.871612
 31
0.0
  0
LINE
  5
DD9
330
1E
100
AcDbEntity
  8
OBJECT
100
AcDbLine
 10
30.320596
 20
35.623612
 30
0.0
 11
30.728596
 21
35.623612
 31
0.0
  0
LINE
  5
DDA
330
1E
100
AcDbEntity
  8
OBJECT
100
AcDbLine
 10
30.944596
 20
35.48761199999999
 30
0.0
 11
30.944596
 21
35.73561199999999
 31
0.0
  0
LINE
  5
DDB
330
1E
100
AcDbEntity
  8
OBJECT
100
AcDbLine
 10
30.104596
 20
35.48761199999999
 30
0.0
 11
30.104596
 21
35.73561199999999
 31
0.0
  0
LINE
  5
DDC
330
1E
100
AcDbEntity
  8
CENTER
100
AcDbLine
 10
30.524596
 20
35.183525
 30
0.0
 11
30.524596
 21
37.463799
 31
0.0
  0
LINE
  5
DDD
330
1E
100
AcDbEntity
  8
OBJECT
100
AcDbLine
 10
29.962596
 20
35.73561199999999
 30
0.0
 11
29.962596
 21
35.983612
 31
0.0
  0
LINE
  5
DDE
330
1E
100
AcDbEntity
  8
OBJECT
100
AcDbLine
 10
31.086596
 20
35.73561199999999
 30
0.0
 11
31.086596
 21
35.983612
 31
0.0
  0
LINE
  5
DDF
330
1E
100
AcDbEntity
  8
OBJECT
100
AcDbLine
 10
29.836596
 20
35.48761199999999
 30
0.0
 11
28.654875
 21
35.48761199999999
 31
0.0
  0
LINE
  5
DE0
330
1E
100
AcDbEntity
  8
OBJECT
100
AcDbLine
 10
31.212596
 20
35.48761199999999
 30
0.0
 11
31.861334
 21
35.48761199999999
 31
0.0
  0
LINE
  5
DE1
330
1E
100
AcDbEntity
  8
OBJECT
100
AcDbLine
 10
50.44677899999999
 20
33.987612
 30
0.0
 11
53.33403
 21
33.987612
 31
0.0
  0
LINE
  5
DE2
330
1E
100
AcDbEntity
  8
CENTER
100
AcDbLine
 10
52.024596
 20
32.650095
 30
0.0
 11
52.024596
 21
34.99388599999999
 31
0.0
  0
LINE
  5
DE3
330
1E
100
AcDbEntity
  8
OBJECT
100
AcDbLine
 10
52.44459599999999
 20
34.48761199999999
 30
0.0
 11
52.44459599999999
 21
34.239612
 31
0.0
  0
LINE
  5
DE4
330
1E
100
AcDbEntity
  8
OBJECT
100
AcDbLine
 10
52.384596
 20
34.239612
 30
0.0
 11
52.384596
 21
33.86361199999999
 31
0.0
  0
LINE
  5
DE5
330
1E
100
AcDbEntity
  8
OBJECT
100
AcDbLine
 10
52.352596
 20
33.343612
 30
0.0
 11
52.352596
 21
32.98761199999999
 31
0.0
  0
LINE
  5
DE6
330
1E
100
AcDbEntity
  8
OBJECT
100
AcDbLine
 10
52.818596
 20
33.40481099999999
 30
0.0
 11
52.818596
 21
33.802413
 31
0.0
  0
LINE
  5
DE7
330
1E
100
AcDbEntity
  8
OBJECT
100
AcDbLine
 10
52.421813
 20
33.40481099999999
 30
0.0
 11
52.421813
 21
33.802413
 31
0.0
  0
ARC
  5
DE8
330
1E
100
AcDbEntity
  8
OBJECT
100
AcDbCircle
 10
52.024596
 20
34.66329299999999
 30
0.0
 40
1.319680999999999
100
AcDbArc
 50
252.482645
 51
287.5173549999999
  0
ARC
  5
DE9
330
1E
100
AcDbEntity
  8
OBJECT
100
AcDbCircle
 10
52.620204
 20
33.695778
 30
0.0
 40
0.352166
100
AcDbArc
 50
235.712465
 51
304.287535
  0
LINE
  5
DEA
330
1E
100
AcDbEntity
  8
OBJECT
100
AcDbLine
 10
52.620204
 20
33.343612
 30
0.0
 11
51.42898699999999
 21
33.343612
 31
0.0
  0
ARC
  5
DEB
330
1E
100
AcDbEntity
  8
OBJECT
100
AcDbCircle
 10
52.620204
 20
33.511446
 30
0.0
 40
0.352166
100
AcDbArc
 50
55.71246500000001
 51
124.287535
  0
ARC
  5
DEC
330
1E
100
AcDbEntity
  8
OBJECT
100
AcDbCircle
 10
52.024596
 20
32.543931
 30
0.0
 40
1.319680999999999
100
AcDbArc
 50
72.48264499999999
 51
107.517355
  0
LINE
  5
DED
330
1E
100
AcDbEntity
  8
OBJECT
100
AcDbLine
 10
52.712596
 20
33.86361199999999
 30
0.0
 11
52.712596
 21
33.987612
 31
0.0
  0
LINE
  5
DEE
330
1E
100
AcDbEntity
  8
OBJECT
100
AcDbLine
 10
52.620204
 20
33.86361199999999
 30
0.0
 11
51.42898699999999
 21
33.86361199999999
 31
0.0
  0
LINE
  5
DEF
330
1E
100
AcDbEntity
  8
OBJECT
100
AcDbLine
 10
52.352596
 20
34.48761199999999
 30
0.0
 11
52.352596
 21
33.86361199999999
 31
0.0
  0
LINE
  5
DF0
330
1E
100
AcDbEntity
  8
OBJECT
100
AcDbLine
 10
52.352596
 20
32.98761199999999
 30
0.0
 11
51.696596
 21
32.98761199999999
 31
0.0
  0
LINE
  5
DF1
330
1E
100
AcDbEntity
  8
OBJECT
100
AcDbLine
 10
52.712596
 20
34.48761199999999
 30
0.0
 11
52.712596
 21
34.71961199999999
 31
0.0
  0
LINE
  5
DF2
330
1E
100
AcDbEntity
  8
OBJECT
100
AcDbLine
 10
52.712596
 20
34.71961199999999
 30
0.0
 11
52.132596
 21
34.71961199999999
 31
0.0
  0
ARC
  5
DF3
330
1E
100
AcDbEntity
  8
OBJECT
100
AcDbCircle
 10
52.024596
 20
33.280484
 30
0.0
 40
1.595128
100
AcDbArc
 50
64.449066
 51
86.11775300000001
  0
LINE
  5
DF4
330
1E
100
AcDbEntity
  8
OBJECT
100
AcDbLine
 10
52.352596
 20
33.23561199999999
 30
0.0
 11
51.696596
 21
33.23561199999999
 31
0.0
  0
LINE
  5
DF5
330
1E
100
AcDbEntity
  8
OBJECT
100
AcDbLine
 10
52.352596
 20
34.23561199999999
 30
0.0
 11
51.696596
 21
34.23561199999999
 31
0.0
  0
LINE
  5
DF6
330
1E
100
AcDbEntity
  8
OBJECT
100
AcDbLine
 10
51.604596
 20
34.48761199999999
 30
0.0
 11
51.604596
 21
34.239612
 31
0.0
  0
LINE
  5
DF7
330
1E
100
AcDbEntity
  8
OBJECT
100
AcDbLine
 10
51.664596
 20
34.239612
 30
0.0
 11
51.664596
 21
33.86361199999999
 31
0.0
  0
LINE
  5
DF8
330
1E
100
AcDbEntity
  8
OBJECT
100
AcDbLine
 10
51.696596
 20
33.343612
 30
0.0
 11
51.696596
 21
32.98761199999999
 31
0.0
  0
LINE
  5
DF9
330
1E
100
AcDbEntity
  8
OBJECT
100
AcDbLine
 10
51.23059600000001
 20
33.40481099999999
 30
0.0
 11
51.23059600000001
 21
33.802413
 31
0.0
  0
LINE
  5
DFA
330
1E
100
AcDbEntity
  8
OBJECT
100
AcDbLine
 10
51.62737899999999
 20
33.40481099999999
 30
0.0
 11
51.62737899999999
 21
33.802413
 31
0.0
  0
ARC
  5
DFB
330
1E
100
AcDbEntity
  8
OBJECT
100
AcDbCircle
 10
51.42898699999999
 20
33.695778
 30
0.0
 40
0.352166
100
AcDbArc
 50
235.712465
 51
304.287535
  0
ARC
  5
DFC
330
1E
100
AcDbEntity
  8
OBJECT
100
AcDbCircle
 10
51.42898699999999
 20
33.511446
 30
0.0
 40
0.352166
100
AcDbArc
 50
55.71246500000001
 51
124.287535
  0
LINE
  5
DFD
330
1E
100
AcDbEntity
  8
OBJECT
100
AcDbLine
 10
51.336596
 20
33.86361199999999
 30
0.0
 11
51.336596
 21
33.987612
 31
0.0
  0
LINE
  5
DFE
330
1E
100
AcDbEntity
  8
OBJECT
100
AcDbLine
 10
51.696596
 20
34.48761199999999
 30
0.0
 11
51.696596
 21
33.86361199999999
 31
0.0
  0
LINE
  5
DFF
330
1E
100
AcDbEntity
  8
OBJECT
100
AcDbLine
 10
51.336596
 20
34.48761199999999
 30
0.0
 11
51.336596
 21
34.71961199999999
 31
0.0
  0
ARC
  5
E00
330
1E
100
AcDbEntity
  8
OBJECT
100
AcDbCircle
 10
52.024596
 20
33.280484
 30
0.0
 40
1.595128
100
AcDbArc
 50
93.88224699999996
 51
115.550934
  0
LINE
  5
E01
330
1E
100
AcDbEntity
  8
OBJECT
100
AcDbLine
 10
52.132596
 20
34.615612
 30
0.0
 11
51.91659600000001
 21
34.615612
 31
0.0
  0
LINE
  5
E02
330
1E
100
AcDbEntity
  8
OBJECT
100
AcDbLine
 10
52.132596
 20
34.615612
 30
0.0
 11
52.132596
 21
34.875612
 31
0.0
  0
LINE
  5
E03
330
1E
100
AcDbEntity
  8
OBJECT
100
AcDbLine
 10
51.91659600000001
 20
34.615612
 30
0.0
 11
51.91659600000001
 21
34.875612
 31
0.0
  0
LINE
  5
E04
330
1E
100
AcDbEntity
  8
OBJECT
100
AcDbLine
 10
51.91659600000001
 20
34.71961199999999
 30
0.0
 11
51.336596
 21
34.71961199999999
 31
0.0
  0
LINE
  5
E05
330
1E
100
AcDbEntity
  8
OBJECT
100
AcDbLine
 10
52.228596
 20
33.111612
 30
0.0
 11
51.820596
 21
33.111612
 31
0.0
  0
LINE
  5
E06
330
1E
100
AcDbEntity
  8
OBJECT
100
AcDbLine
 10
52.228596
 20
34.103612
 30
0.0
 11
51.820596
 21
34.103612
 31
0.0
  0
LINE
  5
E07
330
1E
100
AcDbEntity
  8
OBJECT
100
AcDbLine
 10
52.228596
 20
34.351612
 30
0.0
 11
51.820596
 21
34.351612
 31
0.0
  0
LWPOLYLINE
  5
E08
330
1E
100
AcDbEntity
  8
OBJECT
100
AcDbPolyline
 90
       15
 70
     0
 43
0.0
 10
52.024596
 20
35.082815
 42
0.027363
 10
51.604593
 20
35.059814
 42
-0.028428
 10
50.949039
 20
35.025311
 42
0.366253
 10
50.59250999999999
 20
34.726286
 42
0.012361
 10
50.535005
 20
34.335254
 42
-0.10673
 10
50.339489
 20
33.771707
 42
0.23805
 10
50.281984
 20
33.04714699999999
 42
-0.051119
 10
50.512003
 20
32.265083
 42
0.5113060000000001
 10
51.144555
 20
31.966058
 42
-0.262998
 10
52.225645
 20
31.954557
 42
0.376215
 10
53.042212
 20
32.11556999999999
 42
0.149284
 10
53.410243
 20
33.093151
 42
0.083574
 10
53.306734
 20
34.093734
 42
0.090657
 10
52.961705
 20
34.806793
 42
0.338546
 10
52.024596
 20
35.082815
 42
0.4153430000000001
  0
LINE
  5
E09
330
1E
100
AcDbEntity
  8
OBJECT
100
AcDbLine
 10
38.144596
 20
34.33561199999999
 30
0.0
 11
33.464596
 21
34.33561199999999
 31
0.0
  0
LINE
  5
E0A
330
1E
100
AcDbEntity
  8
OBJECT
100
AcDbLine
 10
50.555064
 20
34.48761199999999
 30
0.0
 11
53.15589
 21
34.48761199999999
 31
0.0
  0
LWPOLYLINE
  5
E0B
330
1E
100
AcDbEntity
  8
OBJECT
100
AcDbPolyline
 90
        4
 70
     0
 43
0.0
 10
37.454859
 20
38.73861199999999
 42
-0.184913
 10
37.522003
 20
39.747952
 42
0.226131
 10
37.51037999999999
 20
40.665964
 42
-0.227988
 10
37.504568
 20
41.30261199999999
 42
3.173737
  0
LINE
  5
E0C
330
1E
100
AcDbEntity
  8
OBJECT
100
AcDbLine
 10
37.402124
 20
38.986612
 30
0.0
 11
30.584596
 21
38.986612
 31
0.0
  0
LINE
  5
E0D
330
1E
100
AcDbEntity
  8
OBJECT
100
AcDbLine
 10
37.454859
 20
38.73861199999999
 30
0.0
 11
30.584596
 21
38.73861199999999
 31
0.0
  0
LINE
  5
E0E
330
1E
100
AcDbEntity
  8
OBJECT
100
AcDbLine
 10
28.080596
 20
38.73861199999999
 30
0.0
 11
26.956596
 21
38.73861199999999
 31
0.0
  0
LINE
  5
E0F
330
1E
100
AcDbEntity
  8
OBJECT
100
AcDbLine
 10
28.080596
 20
38.986612
 30
0.0
 11
26.956596
 21
38.986612
 31
0.0
  0
LINE
  5
E10
330
1E
100
AcDbEntity
  8
OBJECT
100
AcDbLine
 10
30.584596
 20
39.114612
 30
0.0
 11
28.080596
 21
39.114612
 31
0.0
  0
LINE
  5
E11
330
1E
100
AcDbEntity
  8
OBJECT
100
AcDbLine
 10
26.956596
 20
41.05461199999999
 30
0.0
 11
37.437688
 21
41.05461199999999
 31
0.0
  0
LINE
  5
E12
330
1E
100
AcDbEntity
  8
OBJECT
100
AcDbLine
 10
28.900596
 20
39.67461199999999
 30
0.0
 11
29.764596
 21
39.67461199999999
 31
0.0
  0
LINE
  5
E13
330
1E
100
AcDbEntity
  8
OBJECT
100
AcDbLine
 10
28.900596
 20
39.17461199999999
 30
0.0
 11
29.764596
 21
39.17461199999999
 31
0.0
  0
LINE
  5
E14
330
1E
100
AcDbEntity
  8
OBJECT
100
AcDbLine
 10
28.900596
 20
39.42661199999999
 30
0.0
 11
29.764596
 21
39.42661199999999
 31
0.0
  0
LINE
  5
E15
330
1E
100
AcDbEntity
  8
OBJECT
100
AcDbLine
 10
29.024596
 20
39.550612
 30
0.0
 11
29.640596
 21
39.550612
 31
0.0
  0
LINE
  5
E16
330
1E
100
AcDbEntity
  8
OBJECT
100
AcDbLine
 10
29.024596
 20
39.30261199999999
 30
0.0
 11
29.640596
 21
39.30261199999999
 31
0.0
  0
LINE
  5
E17
330
1E
100
AcDbEntity
  8
OBJECT
100
AcDbLine
 10
28.900596
 20
40.17461199999999
 30
0.0
 11
29.764596
 21
40.17461199999999
 31
0.0
  0
LINE
  5
E18
330
1E
100
AcDbEntity
  8
OBJECT
100
AcDbLine
 10
28.900596
 20
39.922612
 30
0.0
 11
29.764596
 21
39.922612
 31
0.0
  0
LINE
  5
E19
330
1E
100
AcDbEntity
  8
OBJECT
100
AcDbLine
 10
29.024596
 20
39.798612
 30
0.0
 11
29.640596
 21
39.798612
 31
0.0
  0
LINE
  5
E1A
330
1E
100
AcDbEntity
  8
OBJECT
100
AcDbLine
 10
29.024596
 20
40.046612
 30
0.0
 11
29.640596
 21
40.046612
 31
0.0
  0
LINE
  5
E1B
330
1E
100
AcDbEntity
  8
OBJECT
100
AcDbLine
 10
28.900596
 20
40.17461199999999
 30
0.0
 11
28.900596
 21
39.114612
 31
0.0
  0
LINE
  5
E1C
330
1E
100
AcDbEntity
  8
OBJECT
100
AcDbLine
 10
29.764596
 20
40.17461199999999
 30
0.0
 11
29.764596
 21
39.114612
 31
0.0
  0
LINE
  5
E1D
330
1E
100
AcDbEntity
  8
OBJECT
100
AcDbLine
 10
26.956596
 20
41.30261199999999
 30
0.0
 11
37.504568
 21
41.30261199999999
 31
0.0
  0
LINE
  5
E1E
330
1E
100
AcDbEntity
  8
OBJECT
100
AcDbLine
 10
26.956596
 20
38.73861199999999
 30
0.0
 11
26.956596
 21
41.30261199999999
 31
0.0
  0
TEXT
  5
E1F
330
1E
100
AcDbEntity
  8
DIM
100
AcDbText
 10
15.84014599999999
 20
43.33924099999999
 30
0.0
 40
1.0
  1
SUPPORT
 41
0.75
  7
STANDARD
100
AcDbText
  0
TEXT
  5
E20
330
1E
100
AcDbEntity
  8
DIM
100
AcDbText
 10
15.88146599999999
 20
45.005908
 30
0.0
 40
1.0
  1
HORIZONTAL RAIL
 41
0.75
  7
STANDARD
100
AcDbText
  0
LINE
  5
E21
330
1E
100
AcDbEntity
  8
DIM
100
AcDbLine
 10
28.562203
 20
45.54768699999999
 30
0.0
 11
27.122203
 21
45.54768699999999
 31
0.0
  0
LINE
  5
E22
330
1E
100
AcDbEntity
  8
DIM
100
AcDbLine
 10
30.863156
 20
42.45758699999999
 30
0.0
 11
28.562203
 21
45.54768699999999
 31
0.0
  0
SOLID
  5
E23
330
1E
100
AcDbEntity
  8
DIM
100
AcDbTrace
 10
30.67066
 20
42.314251
 30
0.0
 11
31.055652
 21
42.600924
 31
0.0
 12
31.723174
 22
41.30261199999999
 32
0.0
 13
31.723174
 23
41.30261199999999
 33
0.0
  0
LINE
  5
E24
330
1E
100
AcDbEntity
  8
OBJECT
100
AcDbLine
 10
28.900596
 20
38.61061199999999
 30
0.0
 11
28.900596
 21
38.17461199999999
 31
0.0
  0
LINE
  5
E25
330
1E
100
AcDbEntity
  8
OBJECT
100
AcDbLine
 10
29.764596
 20
38.61061199999999
 30
0.0
 11
29.764596
 21
38.17461199999999
 31
0.0
  0
LINE
  5
E26
330
1E
100
AcDbEntity
  8
OBJECT
100
AcDbLine
 10
30.584596
 20
38.61061199999999
 30
0.0
 11
30.584596
 21
39.114612
 31
0.0
  0
LINE
  5
E27
330
1E
100
AcDbEntity
  8
OBJECT
100
AcDbLine
 10
28.080596
 20
38.61061199999999
 30
0.0
 11
28.080596
 21
39.114612
 31
0.0
  0
LINE
  5
E28
330
1E
100
AcDbEntity
  8
OBJECT
100
AcDbLine
 10
28.268596
 20
38.17461199999999
 30
0.0
 11
28.268596
 21
38.61061199999999
 31
0.0
  0
LINE
  5
E29
330
1E
100
AcDbEntity
  8
OBJECT
100
AcDbLine
 10
31.772596
 20
38.17461199999999
 30
0.0
 11
31.772596
 21
38.61061199999999
 31
0.0
  0
LINE
  5
E2A
330
1E
100
AcDbEntity
  8
OBJECT
100
AcDbLine
 10
28.312596
 20
38.17461199999999
 30
0.0
 11
30.352596
 21
38.17461199999999
 31
0.0
  0
LINE
  5
E2B
330
1E
100
AcDbEntity
  8
OBJECT
100
AcDbLine
 10
28.900596
 20
38.426612
 30
0.0
 11
29.764596
 21
38.426612
 31
0.0
  0
LINE
  5
E2C
330
1E
100
AcDbEntity
  8
OBJECT
100
AcDbLine
 10
29.024596
 20
38.55861199999999
 30
0.0
 11
29.640596
 21
38.55861199999999
 31
0.0
  0
LINE
  5
E2D
330
1E
100
AcDbEntity
  8
OBJECT
100
AcDbLine
 10
29.024596
 20
38.310612
 30
0.0
 11
29.640596
 21
38.310612
 31
0.0
  0
ARC
  5
E2E
330
1E
100
AcDbEntity
  8
OBJECT
100
AcDbCircle
 10
29.332596
 20
38.877134
 30
0.0
 40
1.238521999999999
100
AcDbArc
 50
214.5570279999999
 51
325.442972
  0
LWPOLYLINE
  5
E2F
330
1E
100
AcDbEntity
  8
OBJECT
100
AcDbPolyline
 90
        3
 70
     0
 43
0.0
 10
56.70929499999999
 20
34.483612
 42
0.027626
 10
56.76698
 20
34.94534
 42
0.092342
 10
56.67560899999999
 20
35.73561199999999
 42
1.160539999999999
  0
LINE
  5
E30
330
1E
100
AcDbEntity
  8
DIM
100
AcDbLine
 10
59.69494679590894
 20
37.61080399999999
 30
0.0
 11
61.13494679590893
 21
37.61080399999999
 31
0.0
  0
LINE
  5
E31
330
1E
100
AcDbEntity
  8
DIM
100
AcDbLine
 10
57.67000579590893
 20
36.451209
 30
0.0
 11
59.69494679590894
 21
37.61080399999999
 31
0.0
  0
SOLID
  5
E32
330
1E
100
AcDbEntity
  8
DIM
100
AcDbTrace
 10
57.78927179590894
 20
36.24294
 30
0.0
 11
57.55073979590894
 21
36.659477
 31
0.0
 12
56.42039679590894
 22
35.73561199999999
 32
0.0
 13
56.42039679590894
 23
35.73561199999999
 33
0.0
  0
TEXT
  5
E33
330
1E
100
AcDbEntity
  8
DIM
100
AcDbText
 10
61.89119079590895
 20
35.415393
 30
0.0
 40
1.0
  1
(OUTER)
 41
0.75
  7
STANDARD
100
AcDbText
  0
TEXT
  5
E34
330
1E
100
AcDbEntity
  8
DIM
100
AcDbText
 10
61.89119079590895
 20
37.082059
 30
0.0
 40
1.0
  1
STATIONARY MEMBER
 41
0.75
  7
STANDARD
100
AcDbText
  0
LINE
  5
E35
330
1E
100
AcDbEntity
  8
DIM
100
AcDbLine
 10
39.89282
 20
40.63413599999999
 30
0.0
 11
41.33282
 21
40.63413599999999
 31
0.0
  0
LINE
  5
E36
330
1E
100
AcDbEntity
  8
DIM
100
AcDbLine
 10
36.576052
 20
37.530502
 30
0.0
 11
39.89282
 21
40.63413599999999
 31
0.0
  0
TEXT
  5
E37
330
1E
100
AcDbEntity
  8
DIM
100
AcDbText
 10
42.131023
 20
38.488426
 30
0.0
 40
1.0
  1
MTG. RAIL
 41
0.75
  7
STANDARD
100
AcDbText
  0
TEXT
  5
E38
330
1E
100
AcDbEntity
  8
DIM
100
AcDbText
 10
42.063051
 20
40.15509199999999
 30
0.0
 40
1.0
  1
FRONT PANEL
 41
0.75
  7
STANDARD
100
AcDbText
  0
SOLID
  5
E39
330
1E
100
AcDbEntity
  8
DIM
100
AcDbTrace
 10
36.41207
 20
37.705745
 30
0.0
 11
36.740034
 21
37.355259
 31
0.0
 12
35.524596
 22
36.54661199999999
 32
0.0
 13
35.524596
 23
36.54661199999999
 33
0.0
  0
TEXT
  5
E3A
330
1E
100
AcDbEntity
  8
DIM
100
AcDbText
 10
11.01006799999999
 20
35.01337
 30
0.0
 40
1.0
  1
(INNER)
 41
0.75
  7
STANDARD
100
AcDbText
  0
TEXT
  5
E3B
330
1E
100
AcDbEntity
  8
DIM
100
AcDbText
 10
10.931113
 20
36.68003699999999
 30
0.0
 40
1.0
  1
SLIDE MEMBER
 41
0.75
  7
STANDARD
100
AcDbText
  0
LINE
  5
E3C
330
1E
100
AcDbEntity
  8
DIM
100
AcDbLine
 10
21.50992699999999
 20
37.087882
 30
0.0
 11
20.069927
 21
37.087882
 31
0.0
  0
LINE
  5
E3D
330
1E
100
AcDbEntity
  8
DIM
100
AcDbLine
 10
23.873395
 20
35.887633
 30
0.0
 11
21.50992699999999
 21
37.087882
 31
0.0
  0
SOLID
  5
E3E
330
1E
100
AcDbEntity
  8
DIM
100
AcDbTrace
 10
23.982065
 20
36.101621
 30
0.0
 11
23.76472399999999
 21
35.673645
 31
0.0
 12
25.157322
 22
35.23561199999999
 32
0.0
 13
25.157322
 23
35.23561199999999
 33
0.0
  0
LINE
  5
E3F
330
1E
100
AcDbEntity
  8
DIM
100
AcDbLine
 10
42.48882
 20
54.930787
 30
0.0
 11
42.48882
 21
53.97710400000001
 31
0.0
  0
LINE
  5
E40
330
1E
100
AcDbEntity
  8
DIM
100
AcDbLine
 10
42.48882
 20
60.81078699999999
 30
0.0
 11
42.48882
 21
61.790723
 31
0.0
  0
SOLID
  5
E41
330
1E
100
AcDbEntity
  8
DIM
100
AcDbTrace
 10
42.72882
 20
54.930787
 30
0.0
 11
42.24882
 21
54.930787
 31
0.0
 12
42.48882
 22
56.37078699999999
 32
0.0
 13
42.48882
 23
56.37078699999999
 33
0.0
  0
SOLID
  5
E42
330
1E
100
AcDbEntity
  8
DIM
100
AcDbTrace
 10
42.72882
 20
60.81078699999999
 30
0.0
 11
42.24882
 21
60.81078699999999
 31
0.0
 12
42.48882
 22
59.370787
 32
0.0
 13
42.48882
 23
59.370787
 33
0.0
  0
TEXT
  5
E43
330
1E
100
AcDbEntity
  8
DIM
100
AcDbText
 10
41.290076
 20
57.39332199999999
 30
0.0
 40
1.0
  1
3.000
 41
0.75
  7
STANDARD
100
AcDbText
  0
LINE
  5
E48
330
1E
100
AcDbEntity
  8
DIM
100
AcDbLine
 10
51.370157
 20
59.370787
 30
0.0
 11
41.74482
 21
59.370787
 31
0.0
  0
LINE
  5
E49
330
1E
100
AcDbEntity
  8
DIM
100
AcDbLine
 10
51.370157
 20
56.37078699999999
 30
0.0
 11
49.285682
 21
56.37078699999999
 31
0.0
  0
LINE
  5
E4A
330
1E
100
AcDbEntity
  8
DIM
100
AcDbLine
 10
46.078675
 20
54.680787
 30
0.0
 11
46.078675
 21
53.240787
 31
0.0
  0
LINE
  5
E4B
330
1E
100
AcDbEntity
  8
DIM
100
AcDbLine
 10
46.078675
 20
53.240787
 30
0.0
 11
47.518675
 21
53.240787
 31
0.0
  0
SOLID
  5
E4C
330
1E
100
AcDbEntity
  8
DIM
100
AcDbTrace
 10
46.318675
 20
54.680787
 30
0.0
 11
45.838675
 21
54.680787
 31
0.0
 12
46.078675
 22
56.120787
 32
0.0
 13
46.078675
 23
56.120787
 33
0.0
  0
TEXT
  5
E4D
330
1E
100
AcDbEntity
  8
DIM
100
AcDbText
 10
48.02355099999999
 20
52.740787
 30
0.0
 40
1.0
  1
0.250
 41
0.75
  7
STANDARD
100
AcDbText
  0
LINE
  5
E4E
330
1E
100
AcDbEntity
  8
DIM
100
AcDbLine
 10
51.075157
 20
57.870787
 30
0.0
 11
48.034783
 21
57.870787
 31
0.0
  0
LINE
  5
E4F
330
1E
100
AcDbEntity
  8
DIM
100
AcDbLine
 10
48.778783
 20
56.430787
 30
0.0
 11
48.778783
 21
54.990787
 31
0.0
  0
LINE
  5
E50
330
1E
100
AcDbEntity
  8
DIM
100
AcDbLine
 10
48.778783
 20
61.060787
 30
0.0
 11
48.778783
 21
62.500787
 31
0.0
  0
LINE
  5
E51
330
1E
100
AcDbEntity
  8
DIM
100
AcDbLine
 10
48.778783
 20
62.500787
 30
0.0
 11
47.33878299999999
 21
62.500787
 31
0.0
  0
SOLID
  5
E52
330
1E
100
AcDbEntity
  8
DIM
100
AcDbTrace
 10
49.01878299999999
 20
56.430787
 30
0.0
 11
48.538783
 21
56.430787
 31
0.0
 12
48.778783
 22
57.870787
 32
0.0
 13
48.778783
 23
57.870787
 33
0.0
  0
SOLID
  5
E53
330
1E
100
AcDbEntity
  8
DIM
100
AcDbTrace
 10
49.01878299999999
 20
61.060787
 30
0.0
 11
48.538783
 21
61.060787
 31
0.0
 12
48.778783
 22
59.620787
 32
0.0
 13
48.778783
 23
59.620787
 33
0.0
  0
TEXT
  5
E54
330
1E
100
AcDbEntity
  8
DIM
100
AcDbText
 10
44.122341
 20
62.000787
 30
0.0
 40
1.0
  1
1.750
 41
0.75
  7
STANDARD
100
AcDbText
  0
LINE
  5
E55
330
1E
100
AcDbEntity
  8
DIM
100
AcDbLine
 10
50.710157
 20
56.120787
 30
0.0
 11
49.15689799999999
 21
56.120787
 31
0.0
  0
LINE
  5
E56
330
1E
100
AcDbEntity
  8
DIM
100
AcDbLine
 10
50.710157
 20
59.620787
 30
0.0
 11
42.782048
 21
59.620787
 31
0.0
  0
LINE
  5
E57
330
1E
100
AcDbEntity
  8
DIM
100
AcDbLine
 10
37.795429
 20
54.680787
 30
0.0
 11
37.795429
 21
53.72673299999999
 31
0.0
  0
LINE
  5
E58
330
1E
100
AcDbEntity
  8
DIM
100
AcDbLine
 10
37.795429
 20
61.060787
 30
0.0
 11
37.795429
 21
62.014842
 31
0.0
  0
SOLID
  5
E59
330
1E
100
AcDbEntity
  8
DIM
100
AcDbTrace
 10
37.555429
 20
54.680787
 30
0.0
 11
38.035429
 21
54.680787
 31
0.0
 12
37.795429
 22
56.120787
 32
0.0
 13
37.795429
 23
56.120787
 33
0.0
  0
SOLID
  5
E5A
330
1E
100
AcDbEntity
  8
DIM
100
AcDbTrace
 10
37.555429
 20
61.060787
 30
0.0
 11
38.035429
 21
61.060787
 31
0.0
 12
37.795429
 22
59.620787
 32
0.0
 13
37.795429
 23
59.620787
 33
0.0
  0
TEXT
  5
E5B
330
1E
100
AcDbEntity
  8
DIM
100
AcDbText
 10
36.30332899999999
 20
57.370787
 30
0.0
 40
1.0
  1
3.500
 41
0.75
  7
STANDARD
100
AcDbText
  0
LINE
  5
E5C
330
1E
100
AcDbEntity
  8
CENTER
100
AcDbLine
 10
15.171291
 20
57.62078699999999
 30
0.0
 11
13.78721600000001
 21
57.62078699999999
 31
0.0
  0
LINE
  5
E5D
330
1E
100
AcDbEntity
  8
CENTER
100
AcDbLine
 10
15.171291
 20
56.99578699999999
 30
0.0
 11
13.78721600000001
 21
56.99578699999999
 31
0.0
  0
LINE
  5
E5E
330
1E
100
AcDbEntity
  8
CENTER
100
AcDbLine
 10
15.171291
 20
58.120787
 30
0.0
 11
13.78721600000001
 21
58.120787
 31
0.0
  0
LINE
  5
E5F
330
1E
100
AcDbEntity
  8
CENTER
100
AcDbLine
 10
15.171291
 20
58.745787
 30
0.0
 11
13.78721600000001
 21
58.745787
 31
0.0
  0
LINE
  5
E60
330
1E
100
AcDbEntity
  8
DIM
100
AcDbLine
 10
13.28721600000001
 20
56.99578699999999
 30
0.0
 11
8.813399
 21
56.99578699999999
 31
0.0
  0
LINE
  5
E61
330
1E
100
AcDbEntity
  8
DIM
100
AcDbLine
 10
9.557399
 20
55.555787
 30
0.0
 11
9.557399
 21
53.379704
 31
0.0
  0
LINE
  5
E62
330
1E
100
AcDbEntity
  8
DIM
100
AcDbLine
 10
9.557399
 20
59.060787
 30
0.0
 11
9.557399
 21
60.500787
 31
0.0
  0
LINE
  5
E63
330
1E
100
AcDbEntity
  8
DIM
100
AcDbLine
 10
9.557399
 20
53.379704
 30
0.0
 11
8.117399
 21
53.379704
 31
0.0
  0
SOLID
  5
E64
330
1E
100
AcDbEntity
  8
DIM
100
AcDbTrace
 10
9.797399
 20
55.555787
 30
0.0
 11
9.317398999999999
 21
55.555787
 31
0.0
 12
9.557399
 22
56.99578699999999
 32
0.0
 13
9.557399
 23
56.99578699999999
 33
0.0
  0
SOLID
  5
E65
330
1E
100
AcDbEntity
  8
DIM
100
AcDbTrace
 10
9.797399
 20
59.060787
 30
0.0
 11
9.317398999999999
 21
59.060787
 31
0.0
 12
9.557399
 22
57.62078699999999
 32
0.0
 13
9.557399
 23
57.62078699999999
 33
0.0
  0
TEXT
  5
E66
330
1E
100
AcDbEntity
  8
DIM
100
AcDbText
 10
4.721244999999999
 20
52.879704
 30
0.0
 40
1.0
  1
0.625
 41
0.75
  7
STANDARD
100
AcDbText
  0
LINE
  5
E67
330
1E
100
AcDbEntity
  8
DIM
100
AcDbLine
 10
13.28721600000001
 20
57.62078699999999
 30
0.0
 11
12.553221
 21
57.62078699999999
 31
0.0
  0
LINE
  5
E68
330
1E
100
AcDbEntity
  8
DIM
100
AcDbLine
 10
6.881132
 20
56.180787
 30
0.0
 11
6.881132
 21
54.74078699999999
 31
0.0
  0
LINE
  5
E69
330
1E
100
AcDbEntity
  8
DIM
100
AcDbLine
 10
6.881132
 20
59.56078699999999
 30
0.0
 11
6.881132
 21
61.744292
 31
0.0
  0
SOLID
  5
E6A
330
1E
100
AcDbEntity
  8
DIM
100
AcDbTrace
 10
7.121132000000001
 20
56.180787
 30
0.0
 11
6.641132
 21
56.180787
 31
0.0
 12
6.881132
 22
57.62078699999999
 32
0.0
 13
6.881132
 23
57.62078699999999
 33
0.0
  0
SOLID
  5
E6B
330
1E
100
AcDbEntity
  8
DIM
100
AcDbTrace
 10
7.121132000000001
 20
59.56078699999999
 30
0.0
 11
6.641132
 21
59.56078699999999
 31
0.0
 12
6.881132
 22
58.120787
 32
0.0
 13
6.881132
 23
58.120787
 33
0.0
  0
LINE
  5
E6C
330
1E
100
AcDbEntity
  8
DIM
100
AcDbLine
 10
13.28721600000001
 20
58.745787
 30
0.0
 11
9.916897999999999
 21
58.745787
 31
0.0
  0
LINE
  5
E6D
330
1E
100
AcDbEntity
  8
DIM
100
AcDbLine
 10
13.28721600000001
 20
58.120787
 30
0.0
 11
12.313555
 21
58.120787
 31
0.0
  0
LINE
  5
E6E
330
1E
100
AcDbEntity
  8
DIM
100
AcDbLine
 10
4.124976
 20
56.680787
 30
0.0
 11
4.124976
 21
55.240787
 31
0.0
  0
LINE
  5
E6F
330
1E
100
AcDbEntity
  8
DIM
100
AcDbLine
 10
4.124976
 20
60.18578699999999
 30
0.0
 11
4.124976
 21
63.425103
 31
0.0
  0
LINE
  5
E70
330
1E
100
AcDbEntity
  8
DIM
100
AcDbLine
 10
4.124976
 20
63.425103
 30
0.0
 11
5.564976
 21
63.425103
 31
0.0
  0
SOLID
  5
E71
330
1E
100
AcDbEntity
  8
DIM
100
AcDbTrace
 10
4.364976
 20
56.680787
 30
0.0
 11
3.884975999999999
 21
56.680787
 31
0.0
 12
4.124976
 22
58.120787
 32
0.0
 13
4.124976
 23
58.120787
 33
0.0
  0
SOLID
  5
E72
330
1E
100
AcDbEntity
  8
DIM
100
AcDbTrace
 10
4.364976
 20
60.18578699999999
 30
0.0
 11
3.884975999999999
 21
60.18578699999999
 31
0.0
 12
4.124976
 22
58.745787
 32
0.0
 13
4.124976
 23
58.745787
 33
0.0
  0
TEXT
  5
E73
330
1E
100
AcDbEntity
  8
DIM
100
AcDbText
 10
6.206091
 20
62.925103
 30
0.0
 40
1.0
  1
0.625
 41
0.75
  7
STANDARD
100
AcDbText
  0
TEXT
  5
E74
330
1E
100
AcDbEntity
  8
DIM
100
AcDbText
 10
8.882357999999999
 20
61.244292
 30
0.0
 40
1.0
  1
0.500
 41
0.75
  7
STANDARD
100
AcDbText
  0
LINE
  5
E75
330
1E
100
AcDbEntity
  8
DIM
100
AcDbLine
 10
6.881132
 20
61.744292
 30
0.0
 11
8.321132
 21
61.744292
 31
0.0
  0
LINE
  5
E76
330
1E
100
AcDbEntity
  8
DIM
100
AcDbLine
 10
14.572448
 20
56.120787
 30
0.0
 11
11.250001
 21
56.120787
 31
0.0
  0
LINE
  5
E77
330
1E
100
AcDbEntity
  8
DIM
100
AcDbLine
 10
11.99400099999999
 20
54.680787
 30
0.0
 11
11.99400099999999
 21
51.932194
 31
0.0
  0
LINE
  5
E78
330
1E
100
AcDbEntity
  8
DIM
100
AcDbLine
 10
11.99400099999999
 20
58.435787
 30
0.0
 11
11.99400099999999
 21
59.875787
 31
0.0
  0
LINE
  5
E79
330
1E
100
AcDbEntity
  8
DIM
100
AcDbLine
 10
11.99400099999999
 20
51.932194
 30
0.0
 11
10.55400099999999
 21
51.932194
 31
0.0
  0
SOLID
  5
E7A
330
1E
100
AcDbEntity
  8
DIM
100
AcDbTrace
 10
12.234001
 20
54.680787
 30
0.0
 11
11.75400099999999
 21
54.680787
 31
0.0
 12
11.99400099999999
 22
56.120787
 32
0.0
 13
11.99400099999999
 23
56.120787
 33
0.0
  0
SOLID
  5
E7B
330
1E
100
AcDbEntity
  8
DIM
100
AcDbTrace
 10
12.234001
 20
58.435787
 30
0.0
 11
11.75400099999999
 21
58.435787
 31
0.0
 12
11.99400099999999
 22
56.99578699999999
 32
0.0
 13
11.99400099999999
 23
56.99578699999999
 33
0.0
  0
TEXT
  5
E7C
330
1E
100
AcDbEntity
  8
DIM
100
AcDbText
 10
7.038013
 20
51.432194
 30
0.0
 40
1.0
  1
0.875
 41
0.75
  7
STANDARD
100
AcDbText
  0
LINE
  5
E7D
330
1E
100
AcDbEntity
  8
DIM
100
AcDbLine
 10
6.162135
 20
58.745787
 30
0.0
 11
3.380976
 21
58.745787
 31
0.0
  0
LINE
  5
E7E
330
1E
100
AcDbEntity
  8
DIM
100
AcDbLine
 10
9.078068
 20
58.745787
 30
0.0
 11
7.520241
 21
58.745787
 31
0.0
  0
LINE
  5
E7F
330
1E
100
AcDbEntity
  8
DIM
100
AcDbLine
 10
8.958235
 20
58.120787
 30
0.0
 11
3.380976
 21
58.120787
 31
0.0
  0
LINE
  5
E80
330
1E
100
AcDbEntity
  8
DIM
100
AcDbLine
 10
11.554613
 20
58.120787
 30
0.0
 11
10.276396
 21
58.120787
 31
0.0
  0
LINE
  5
E81
330
1E
100
AcDbEntity
  8
DIM
100
AcDbLine
 10
11.354892
 20
57.62078699999999
 30
0.0
 11
6.137132
 21
57.62078699999999
 31
0.0
  0
LINE
  5
E82
330
1E
100
AcDbEntity
  8
HIDDEN
100
AcDbLine
 10
52.153533
 20
76.17432700000001
 30
0.0
 11
53.63678100000001
 21
76.17432700000001
 31
0.0
  0
TEXT
  5
E83
330
1E
100
AcDbEntity
  8
DIM
100
AcDbText
 10
46.97995099999999
 20
31.782326
 30
0.0
 40
0.5
  1

  7
STANDARD
100
AcDbText
  0
TEXT
  5
E84
330
1E
100
AcDbEntity
  8
TEXT
100
AcDbText
 10
26.214413
 20
115.6995989999999
 30
0.0
 40
1.0
  1
16 GA. STEEL
 41
0.75
  7
STANDARD
100
AcDbText
  0
LINE
  5
E85
330
1E
100
AcDbEntity
  8
TEXT
100
AcDbLine
 10
21.99888
 20
115.657424
 30
0.0
 11
25.688222
 21
115.657424
 31
0.0
  0
ARC
  5
E86
330
1E
100
AcDbEntity
  8
OBJECT
100
AcDbCircle
 10
33.30844799999999
 20
58.745787
 30
0.0
 40
0.109
100
AcDbArc
 50
270.0
 51
90.0
  0
ARC
  5
E87
330
1E
100
AcDbEntity
  8
OBJECT
100
AcDbCircle
 10
33.30844799999999
 20
58.120787
 30
0.0
 40
0.109
100
AcDbArc
 50
270.0
 51
90.0
  0
LINE
  5
E88
330
1E
100
AcDbEntity
  8
OBJECT
100
AcDbLine
 10
32.884448
 20
58.011787
 30
0.0
 11
33.30844799999999
 21
58.011787
 31
0.0
  0
LINE
  5
E89
330
1E
100
AcDbEntity
  8
OBJECT
100
AcDbLine
 10
32.884448
 20
58.229787
 30
0.0
 11
33.30844799999999
 21
58.229787
 31
0.0
  0
LINE
  5
E8A
330
1E
100
AcDbEntity
  8
OBJECT
100
AcDbLine
 10
32.884448
 20
57.511787
 30
0.0
 11
33.30844799999999
 21
57.511787
 31
0.0
  0
LINE
  5
E8B
330
1E
100
AcDbEntity
  8
OBJECT
100
AcDbLine
 10
32.884448
 20
57.729787
 30
0.0
 11
33.30844799999999
 21
57.729787
 31
0.0
  0
ARC
  5
E8C
330
1E
100
AcDbEntity
  8
OBJECT
100
AcDbCircle
 10
33.30844799999999
 20
57.62078699999999
 30
0.0
 40
0.109
100
AcDbArc
 50
270.0
 51
90.0
  0
ARC
  5
E8D
330
1E
100
AcDbEntity
  8
OBJECT
100
AcDbCircle
 10
33.30844799999999
 20
56.99578699999999
 30
0.0
 40
0.109
100
AcDbArc
 50
270.0
 51
90.0
  0
LINE
  5
E8E
330
1E
100
AcDbEntity
  8
OBJECT
100
AcDbLine
 10
32.884448
 20
57.104787
 30
0.0
 11
33.30844799999999
 21
57.104787
 31
0.0
  0
LINE
  5
E8F
330
1E
100
AcDbEntity
  8
OBJECT
100
AcDbLine
 10
32.884448
 20
56.886787
 30
0.0
 11
33.30844799999999
 21
56.886787
 31
0.0
  0
LINE
  5
E90
330
1E
100
AcDbEntity
  8
OBJECT
100
AcDbLine
 10
15.134448
 20
56.886787
 30
0.0
 11
14.71044800000001
 21
56.886787
 31
0.0
  0
LINE
  5
E91
330
1E
100
AcDbEntity
  8
OBJECT
100
AcDbLine
 10
15.134448
 20
57.104787
 30
0.0
 11
14.71044800000001
 21
57.104787
 31
0.0
  0
ARC
  5
E92
330
1E
100
AcDbEntity
  8
OBJECT
100
AcDbCircle
 10
14.71044800000001
 20
56.99578699999999
 30
0.0
 40
0.109
100
AcDbArc
 50
90.0
 51
270.0
  0
ARC
  5
E93
330
1E
100
AcDbEntity
  8
OBJECT
100
AcDbCircle
 10
14.71044800000001
 20
57.62078699999999
 30
0.0
 40
0.109
100
AcDbArc
 50
90.0
 51
270.0
  0
LINE
  5
E94
330
1E
100
AcDbEntity
  8
OBJECT
100
AcDbLine
 10
15.134448
 20
57.729787
 30
0.0
 11
14.71044800000001
 21
57.729787
 31
0.0
  0
LINE
  5
E95
330
1E
100
AcDbEntity
  8
OBJECT
100
AcDbLine
 10
15.134448
 20
57.511787
 30
0.0
 11
14.71044800000001
 21
57.511787
 31
0.0
  0
LINE
  5
E96
330
1E
100
AcDbEntity
  8
OBJECT
100
AcDbLine
 10
15.134448
 20
58.229787
 30
0.0
 11
14.71044800000001
 21
58.229787
 31
0.0
  0
LINE
  5
E97
330
1E
100
AcDbEntity
  8
OBJECT
100
AcDbLine
 10
15.134448
 20
58.011787
 30
0.0
 11
14.71044800000001
 21
58.011787
 31
0.0
  0
ARC
  5
E98
330
1E
100
AcDbEntity
  8
OBJECT
100
AcDbCircle
 10
14.71044800000001
 20
58.120787
 30
0.0
 40
0.109
100
AcDbArc
 50
90.0
 51
270.0
  0
ARC
  5
E99
330
1E
100
AcDbEntity
  8
OBJECT
100
AcDbCircle
 10
14.71044800000001
 20
58.745787
 30
0.0
 40
0.109
100
AcDbArc
 50
90.0
 51
270.0
  0
LINE
  5
E9A
330
1E
100
AcDbEntity
  8
OBJECT
100
AcDbLine
 10
15.134448
 20
58.636787
 30
0.0
 11
14.71044800000001
 21
58.636787
 31
0.0
  0
LINE
  5
E9B
330
1E
100
AcDbEntity
  8
OBJECT
100
AcDbLine
 10
15.134448
 20
58.854787
 30
0.0
 11
14.71044800000001
 21
58.854787
 31
0.0
  0
ARC
  5
E9C
330
1E
100
AcDbEntity
  8
OBJECT
100
AcDbCircle
 10
50.57983400000001
 20
94.13165300000001
 30
0.0
 40
0.010323
100
AcDbArc
 50
0.0
 51
132.575481
  0
ARC
  5
E9D
330
1E
100
AcDbEntity
  8
OBJECT
100
AcDbCircle
 10
50.57983400000001
 20
93.65250000000001
 30
0.0
 40
0.010323
100
AcDbArc
 50
227.4245189999999
 51
0.0
  0
ARC
  5
E9E
330
1E
100
AcDbEntity
  8
OBJECT
100
AcDbCircle
 10
50.799947
 20
93.892077
 30
0.0
 40
0.335664
100
AcDbArc
 50
132.575481
 51
227.4245189999999
  0
LINE
  5
E9F
330
1E
100
AcDbEntity
  8
OBJECT
100
AcDbLine
 10
51.245501
 20
93.93902999999999
 30
0.0
 11
51.245501
 21
93.845124
 31
0.0
  0
LINE
  5
EA0
330
1E
100
AcDbEntity
  8
OBJECT
100
AcDbLine
 10
51.214532
 20
93.79717199999999
 30
0.0
 11
51.339407
 21
93.830632
 31
0.0
  0
LINE
  5
EA1
330
1E
100
AcDbEntity
  8
OBJECT
100
AcDbLine
 10
51.214532
 20
93.986982
 30
0.0
 11
51.339407
 21
93.953521
 31
0.0
  0
LINE
  5
EA2
330
1E
100
AcDbEntity
  8
OBJECT
100
AcDbLine
 10
50.811935
 20
93.93902999999999
 30
0.0
 11
50.811935
 21
93.845124
 31
0.0
  0
LINE
  5
EA3
330
1E
100
AcDbEntity
  8
OBJECT
100
AcDbLine
 10
50.87387299999999
 20
93.93902999999999
 30
0.0
 11
50.87387299999999
 21
93.845124
 31
0.0
  0
LINE
  5
EA4
330
1E
100
AcDbEntity
  8
OBJECT
100
AcDbLine
 10
50.935811
 20
93.93902999999999
 30
0.0
 11
50.935811
 21
93.845124
 31
0.0
  0
LINE
  5
EA5
330
1E
100
AcDbEntity
  8
OBJECT
100
AcDbLine
 10
50.99774899999999
 20
93.93902999999999
 30
0.0
 11
50.99774899999999
 21
93.845124
 31
0.0
  0
LINE
  5
EA6
330
1E
100
AcDbEntity
  8
OBJECT
100
AcDbLine
 10
51.059687
 20
93.93902999999999
 30
0.0
 11
51.059687
 21
93.845124
 31
0.0
  0
LINE
  5
EA7
330
1E
100
AcDbEntity
  8
OBJECT
100
AcDbLine
 10
51.121625
 20
93.93902999999999
 30
0.0
 11
51.121625
 21
93.845124
 31
0.0
  0
LINE
  5
EA8
330
1E
100
AcDbEntity
  8
OBJECT
100
AcDbLine
 10
51.183563
 20
93.93902999999999
 30
0.0
 11
51.183563
 21
93.845124
 31
0.0
  0
LINE
  5
EA9
330
1E
100
AcDbEntity
  8
OBJECT
100
AcDbLine
 10
50.777969
 20
93.986982
 30
0.0
 11
50.777969
 21
93.79717199999999
 31
0.0
  0
LINE
  5
EAA
330
1E
100
AcDbEntity
  8
OBJECT
100
AcDbLine
 10
50.902844
 20
93.986982
 30
0.0
 11
50.902844
 21
93.79717199999999
 31
0.0
  0
LINE
  5
EAB
330
1E
100
AcDbEntity
  8
OBJECT
100
AcDbLine
 10
51.027719
 20
93.986982
 30
0.0
 11
51.027719
 21
93.79717199999999
 31
0.0
  0
LINE
  5
EAC
330
1E
100
AcDbEntity
  8
OBJECT
100
AcDbLine
 10
51.152594
 20
93.986982
 30
0.0
 11
51.152594
 21
93.79717199999999
 31
0.0
  0
LINE
  5
EAD
330
1E
100
AcDbEntity
  8
OBJECT
100
AcDbLine
 10
50.83990700000001
 20
93.986982
 30
0.0
 11
50.83990700000001
 21
93.79717199999999
 31
0.0
  0
LINE
  5
EAE
330
1E
100
AcDbEntity
  8
OBJECT
100
AcDbLine
 10
50.96478199999999
 20
93.986982
 30
0.0
 11
50.96478199999999
 21
93.79717199999999
 31
0.0
  0
LINE
  5
EAF
330
1E
100
AcDbEntity
  8
OBJECT
100
AcDbLine
 10
51.089657
 20
93.986982
 30
0.0
 11
51.089657
 21
93.79717199999999
 31
0.0
  0
LINE
  5
EB0
330
1E
100
AcDbEntity
  8
OBJECT
100
AcDbLine
 10
51.339407
 20
93.953521
 30
0.0
 11
51.339407
 21
93.830632
 31
0.0
  0
LINE
  5
EB1
330
1E
100
AcDbEntity
  8
OBJECT
100
AcDbLine
 10
51.214532
 20
93.986982
 30
0.0
 11
51.214532
 21
93.79717199999999
 31
0.0
  0
LINE
  5
EB2
330
1E
100
AcDbEntity
  8
OBJECT
100
AcDbLine
 10
50.59015699999999
 20
93.65250000000001
 30
0.0
 11
50.59015699999999
 21
94.13165300000001
 31
0.0
  0
LINE
  5
EB3
330
1E
100
AcDbEntity
  8
OBJECT
100
AcDbLine
 10
51.214532
 20
93.986982
 30
0.0
 11
50.76115699999999
 21
93.986982
 31
0.0
  0
LINE
  5
EB4
330
1E
100
AcDbEntity
  8
OBJECT
100
AcDbLine
 10
50.76115699999999
 20
93.79717199999999
 30
0.0
 11
51.214532
 21
93.79717199999999
 31
0.0
  0
LINE
  5
EB5
330
1E
100
AcDbEntity
  8
OBJECT
100
AcDbLine
 10
50.76115699999999
 20
75.67548199999999
 30
0.0
 11
51.214532
 21
75.67548199999999
 31
0.0
  0
LINE
  5
EB6
330
1E
100
AcDbEntity
  8
OBJECT
100
AcDbLine
 10
51.214532
 20
75.48567199999999
 30
0.0
 11
50.76115699999999
 21
75.48567199999999
 31
0.0
  0
LINE
  5
EB7
330
1E
100
AcDbEntity
  8
OBJECT
100
AcDbLine
 10
51.214532
 20
75.48567199999999
 30
0.0
 11
51.214532
 21
75.67548199999999
 31
0.0
  0
LINE
  5
EB8
330
1E
100
AcDbEntity
  8
OBJECT
100
AcDbLine
 10
51.339407
 20
75.519132
 30
0.0
 11
51.339407
 21
75.642021
 31
0.0
  0
LINE
  5
EB9
330
1E
100
AcDbEntity
  8
OBJECT
100
AcDbLine
 10
51.089657
 20
75.48567199999999
 30
0.0
 11
51.089657
 21
75.67548199999999
 31
0.0
  0
LINE
  5
EBA
330
1E
100
AcDbEntity
  8
OBJECT
100
AcDbLine
 10
50.96478199999999
 20
75.48567199999999
 30
0.0
 11
50.96478199999999
 21
75.67548199999999
 31
0.0
  0
LINE
  5
EBB
330
1E
100
AcDbEntity
  8
OBJECT
100
AcDbLine
 10
50.83990700000001
 20
75.48567199999999
 30
0.0
 11
50.83990700000001
 21
75.67548199999999
 31
0.0
  0
LINE
  5
EBC
330
1E
100
AcDbEntity
  8
OBJECT
100
AcDbLine
 10
51.152594
 20
75.48567199999999
 30
0.0
 11
51.152594
 21
75.67548199999999
 31
0.0
  0
LINE
  5
EBD
330
1E
100
AcDbEntity
  8
OBJECT
100
AcDbLine
 10
51.027719
 20
75.48567199999999
 30
0.0
 11
51.027719
 21
75.67548199999999
 31
0.0
  0
LINE
  5
EBE
330
1E
100
AcDbEntity
  8
OBJECT
100
AcDbLine
 10
50.902844
 20
75.48567199999999
 30
0.0
 11
50.902844
 21
75.67548199999999
 31
0.0
  0
LINE
  5
EBF
330
1E
100
AcDbEntity
  8
OBJECT
100
AcDbLine
 10
50.777969
 20
75.48567199999999
 30
0.0
 11
50.777969
 21
75.67548199999999
 31
0.0
  0
LINE
  5
EC0
330
1E
100
AcDbEntity
  8
OBJECT
100
AcDbLine
 10
51.183563
 20
75.53362400000001
 30
0.0
 11
51.183563
 21
75.62753
 31
0.0
  0
LINE
  5
EC1
330
1E
100
AcDbEntity
  8
OBJECT
100
AcDbLine
 10
51.121625
 20
75.53362400000001
 30
0.0
 11
51.121625
 21
75.62753
 31
0.0
  0
LINE
  5
EC2
330
1E
100
AcDbEntity
  8
OBJECT
100
AcDbLine
 10
51.059687
 20
75.53362400000001
 30
0.0
 11
51.059687
 21
75.62753
 31
0.0
  0
LINE
  5
EC3
330
1E
100
AcDbEntity
  8
OBJECT
100
AcDbLine
 10
50.99774899999999
 20
75.53362400000001
 30
0.0
 11
50.99774899999999
 21
75.62753
 31
0.0
  0
LINE
  5
EC4
330
1E
100
AcDbEntity
  8
OBJECT
100
AcDbLine
 10
50.935811
 20
75.53362400000001
 30
0.0
 11
50.935811
 21
75.62753
 31
0.0
  0
LINE
  5
EC5
330
1E
100
AcDbEntity
  8
OBJECT
100
AcDbLine
 10
50.87387299999999
 20
75.53362400000001
 30
0.0
 11
50.87387299999999
 21
75.62753
 31
0.0
  0
LINE
  5
EC6
330
1E
100
AcDbEntity
  8
OBJECT
100
AcDbLine
 10
50.811935
 20
75.53362400000001
 30
0.0
 11
50.811935
 21
75.62753
 31
0.0
  0
LINE
  5
EC7
330
1E
100
AcDbEntity
  8
OBJECT
100
AcDbLine
 10
51.214532
 20
75.48567199999999
 30
0.0
 11
51.339407
 21
75.519132
 31
0.0
  0
LINE
  5
EC8
330
1E
100
AcDbEntity
  8
OBJECT
100
AcDbLine
 10
51.214532
 20
75.67548199999999
 30
0.0
 11
51.339407
 21
75.642021
 31
0.0
  0
LINE
  5
EC9
330
1E
100
AcDbEntity
  8
OBJECT
100
AcDbLine
 10
51.245501
 20
75.53362400000001
 30
0.0
 11
51.245501
 21
75.62753
 31
0.0
  0
LINE
  5
ECA
330
1E
100
AcDbEntity
  8
OBJECT
100
AcDbLine
 10
50.59015699999999
 20
75.82015300000001
 30
0.0
 11
50.59015699999999
 21
75.34100000000001
 31
0.0
  0
ARC
  5
ECB
330
1E
100
AcDbEntity
  8
OBJECT
100
AcDbCircle
 10
50.799947
 20
75.580577
 30
0.0
 40
0.335664
100
AcDbArc
 50
132.575481
 51
227.4245189999999
  0
ARC
  5
ECC
330
1E
100
AcDbEntity
  8
OBJECT
100
AcDbCircle
 10
50.57983400000001
 20
75.82015300000001
 30
0.0
 40
0.010323
100
AcDbArc
 50
0.0
 51
132.575481
  0
ARC
  5
ECD
330
1E
100
AcDbEntity
  8
OBJECT
100
AcDbCircle
 10
50.57983400000001
 20
75.34100000000001
 30
0.0
 40
0.010323
100
AcDbArc
 50
227.4245189999999
 51
0.0
  0
LINE
  5
ECE
330
1E
100
AcDbEntity
  8
OBJECT
100
AcDbLine
 10
27.268596
 20
36.47899199999999
 30
0.0
 11
29.082096
 21
36.47899199999999
 31
0.0
  0
LINE
  5
ECF
330
1E
100
AcDbEntity
  8
OBJECT
100
AcDbLine
 10
29.082096
 20
37.238232
 30
0.0
 11
27.268596
 21
37.238232
 31
0.0
  0
LINE
  5
ED0
330
1E
100
AcDbEntity
  8
OBJECT
100
AcDbLine
 10
26.584596
 20
35.90030499999999
 30
0.0
 11
26.584596
 21
37.816919
 31
0.0
  0
LINE
  5
ED1
330
1E
100
AcDbEntity
  8
OBJECT
100
AcDbLine
 10
29.082096
 20
37.238232
 30
0.0
 11
29.082096
 21
36.47899199999999
 31
0.0
  0
LINE
  5
ED2
330
1E
100
AcDbEntity
  8
OBJECT
100
AcDbLine
 10
29.581596
 20
37.104391
 30
0.0
 11
29.581596
 21
36.612833
 31
0.0
  0
LINE
  5
ED3
330
1E
100
AcDbEntity
  8
OBJECT
100
AcDbLine
 10
28.582596
 20
37.238232
 30
0.0
 11
28.582596
 21
36.47899199999999
 31
0.0
  0
LINE
  5
ED4
330
1E
100
AcDbEntity
  8
OBJECT
100
AcDbLine
 10
28.083096
 20
37.238232
 30
0.0
 11
28.083096
 21
36.47899199999999
 31
0.0
  0
LINE
  5
ED5
330
1E
100
AcDbEntity
  8
OBJECT
100
AcDbLine
 10
27.583596
 20
37.238232
 30
0.0
 11
27.583596
 21
36.47899199999999
 31
0.0
  0
LINE
  5
ED6
330
1E
100
AcDbEntity
  8
OBJECT
100
AcDbLine
 10
28.834344
 20
37.238232
 30
0.0
 11
28.834344
 21
36.47899199999999
 31
0.0
  0
LINE
  5
ED7
330
1E
100
AcDbEntity
  8
OBJECT
100
AcDbLine
 10
28.334844
 20
37.238232
 30
0.0
 11
28.334844
 21
36.47899199999999
 31
0.0
  0
LINE
  5
ED8
330
1E
100
AcDbEntity
  8
OBJECT
100
AcDbLine
 10
27.835344
 20
37.238232
 30
0.0
 11
27.835344
 21
36.47899199999999
 31
0.0
  0
LINE
  5
ED9
330
1E
100
AcDbEntity
  8
OBJECT
100
AcDbLine
 10
27.335844
 20
37.238232
 30
0.0
 11
27.335844
 21
36.47899199999999
 31
0.0
  0
LINE
  5
EDA
330
1E
100
AcDbEntity
  8
OBJECT
100
AcDbLine
 10
28.95822
 20
37.046424
 30
0.0
 11
28.95822
 21
36.6708
 31
0.0
  0
LINE
  5
EDB
330
1E
100
AcDbEntity
  8
OBJECT
100
AcDbLine
 10
28.710468
 20
37.046424
 30
0.0
 11
28.710468
 21
36.6708
 31
0.0
  0
LINE
  5
EDC
330
1E
100
AcDbEntity
  8
OBJECT
100
AcDbLine
 10
28.46271599999999
 20
37.046424
 30
0.0
 11
28.46271599999999
 21
36.6708
 31
0.0
  0
LINE
  5
EDD
330
1E
100
AcDbEntity
  8
OBJECT
100
AcDbLine
 10
28.214964
 20
37.046424
 30
0.0
 11
28.214964
 21
36.6708
 31
0.0
  0
LINE
  5
EDE
330
1E
100
AcDbEntity
  8
OBJECT
100
AcDbLine
 10
27.967212
 20
37.046424
 30
0.0
 11
27.967212
 21
36.6708
 31
0.0
  0
LINE
  5
EDF
330
1E
100
AcDbEntity
  8
OBJECT
100
AcDbLine
 10
27.71945999999999
 20
37.046424
 30
0.0
 11
27.71945999999999
 21
36.6708
 31
0.0
  0
LINE
  5
EE0
330
1E
100
AcDbEntity
  8
OBJECT
100
AcDbLine
 10
27.471708
 20
37.046424
 30
0.0
 11
27.471708
 21
36.6708
 31
0.0
  0
LINE
  5
EE1
330
1E
100
AcDbEntity
  8
OBJECT
100
AcDbLine
 10
29.082096
 20
37.238232
 30
0.0
 11
29.581596
 21
37.104391
 31
0.0
  0
LINE
  5
EE2
330
1E
100
AcDbEntity
  8
OBJECT
100
AcDbLine
 10
29.082096
 20
36.47899199999999
 30
0.0
 11
29.581596
 21
36.612833
 31
0.0
  0
LINE
  5
EE3
330
1E
100
AcDbEntity
  8
OBJECT
100
AcDbLine
 10
29.20597199999999
 20
37.046424
 30
0.0
 11
29.20597199999999
 21
36.6708
 31
0.0
  0
ARC
  5
EE4
330
1E
100
AcDbEntity
  8
OBJECT
100
AcDbCircle
 10
27.423756
 20
36.858612
 30
0.0
 40
1.342655999999999
100
AcDbArc
 50
132.575481
 51
227.4245189999999
  0
ARC
  5
EE5
330
1E
100
AcDbEntity
  8
OBJECT
100
AcDbCircle
 10
26.543304
 20
35.90030499999999
 30
0.0
 40
0.041292
100
AcDbArc
 50
227.4245189999999
 51
0.0
  0
ARC
  5
EE6
330
1E
100
AcDbEntity
  8
OBJECT
100
AcDbCircle
 10
26.543304
 20
37.816919
 30
0.0
 40
0.041292
100
AcDbArc
 50
0.0
 51
132.575481
  0
TEXT
  5
EE7
330
1E
100
AcDbEntity
  8
TEXT
100
AcDbText
 10
27.943268
 20
25.041807
 30
0.0
 40
1.0
  1
DETAIL OF MOUNTING CONFIGURATION
 41
0.75
  7
STANDARD
100
AcDbText
  0
SOLID
  5
EE8
330
1E
100
AcDbEntity
  8
DIM
100
AcDbTrace
 10
52.62176
 20
54.944449
 30
0.0
 11
53.008054
 21
55.22936600000001
 31
0.0
 12
51.960157
 22
56.245787
 32
0.0
 13
51.960157
 23
56.245787
 33
0.0
  0
LINE
  5
EE9
330
1E
100
AcDbEntity
  8
DIM
100
AcDbLine
 10
52.81490699999999
 20
55.08690699999999
 30
0.0
 11
54.120804
 21
53.31635600000001
 31
0.0
  0
LINE
  5
EEA
330
1E
100
AcDbEntity
  8
DIM
100
AcDbLine
 10
54.120804
 20
53.31635600000001
 30
0.0
 11
55.560804
 21
53.31635600000001
 31
0.0
  0
TEXT
  5
EEB
330
1E
100
AcDbEntity
  8
DIM
100
AcDbText
 10
56.153415
 20
52.81635600000001
 30
0.0
 40
1.0
  1
OPTIONAL MOUNTING SLOTS
 41
0.75
  7
STANDARD
100
AcDbText
  0
LINE
  5
EEC
330
1E
100
AcDbEntity
  8
OBJECT
100
AcDbLine
 10
63.935157
 20
57.780787
 30
0.0
 11
63.965157
 21
57.780787
 31
0.0
  0
LINE
  5
EED
330
1E
100
AcDbEntity
  8
OBJECT
100
AcDbLine
 10
63.965157
 20
57.96078699999999
 30
0.0
 11
63.935157
 21
57.96078699999999
 31
0.0
  0
ARC
  5
EEE
330
1E
100
AcDbEntity
  8
OBJECT
100
AcDbCircle
 10
63.935157
 20
57.870787
 30
0.0
 40
0.09
100
AcDbArc
 50
90.0
 51
270.0
  0
ARC
  5
EEF
330
1E
100
AcDbEntity
  8
OBJECT
100
AcDbCircle
 10
63.965157
 20
57.870787
 30
0.0
 40
0.09
100
AcDbArc
 50
270.0
 51
90.0
  0
LINE
  5
EF0
330
1E
100
AcDbEntity
  8
HIDDEN
100
AcDbLine
 10
53.33403
 20
33.987612
 30
0.0
 11
56.64859599999999
 21
33.987612
 31
0.0
  0
LINE
  5
EF1
330
1E
100
AcDbEntity
  8
CENTER
100
AcDbLine
 10
63.950157
 20
76.236327
 30
0.0
 11
63.950157
 21
76.003372
 31
0.0
  0
LINE
  5
EF2
330
1E
100
AcDbEntity
  8
CENTER
100
AcDbLine
 10
63.950157
 20
76.708625
 30
0.0
 11
63.950157
 21
76.298327
 31
0.0
  0
LINE
  5
EF3
330
1E
100
AcDbEntity
  8
HIDDEN
100
AcDbLine
 10
64.032157
 20
76.459327
 30
0.0
 11
64.032157
 21
76.548327
 31
0.0
  0
LINE
  5
EF4
330
1E
100
AcDbEntity
  8
HIDDEN
100
AcDbLine
 10
63.86815699999999
 20
76.459327
 30
0.0
 11
63.86815699999999
 21
76.548327
 31
0.0
  0
LINE
  5
EF5
330
1E
100
AcDbEntity
  8
HIDDEN
100
AcDbLine
 10
64.148657
 20
76.444027
 30
0.0
 11
64.148657
 21
76.344626
 31
0.0
  0
LINE
  5
EF6
330
1E
100
AcDbEntity
  8
HIDDEN
100
AcDbLine
 10
63.751657
 20
76.444027
 30
0.0
 11
63.751657
 21
76.344626
 31
0.0
  0
LINE
  5
EF7
330
1E
100
AcDbEntity
  8
HIDDEN
100
AcDbLine
 10
64.049461
 20
76.444027
 30
0.0
 11
64.049461
 21
76.344626
 31
0.0
  0
LINE
  5
EF8
330
1E
100
AcDbEntity
  8
HIDDEN
100
AcDbLine
 10
63.850853
 20
76.444027
 30
0.0
 11
63.850853
 21
76.344626
 31
0.0
  0
ARC
  5
EF9
330
1E
100
AcDbEntity
  8
HIDDEN
100
AcDbCircle
 10
63.950157
 20
76.129406
 30
0.0
 40
0.32992
100
AcDbArc
 50
72.48264499999999
 51
107.517355
  0
ARC
  5
EFA
330
1E
100
AcDbEntity
  8
HIDDEN
100
AcDbCircle
 10
64.099059
 20
76.371285
 30
0.0
 40
0.088042
100
AcDbArc
 50
55.71246500000001
 51
124.287535
  0
ARC
  5
EFB
330
1E
100
AcDbEntity
  8
HIDDEN
100
AcDbCircle
 10
63.80125500000001
 20
76.371285
 30
0.0
 40
0.088042
100
AcDbArc
 50
55.71246500000001
 51
124.287535
  0
LINE
  5
EFC
330
1E
100
AcDbEntity
  8
HIDDEN
100
AcDbLine
 10
64.099059
 20
76.459327
 30
0.0
 11
63.80125500000001
 21
76.459327
 31
0.0
  0
ARC
  5
EFD
330
1E
100
AcDbEntity
  8
HIDDEN
100
AcDbCircle
 10
63.80125500000001
 20
76.41736800000001
 30
0.0
 40
0.088042
100
AcDbArc
 50
235.712465
 51
304.287535
  0
ARC
  5
EFE
330
1E
100
AcDbEntity
  8
HIDDEN
100
AcDbCircle
 10
64.099059
 20
76.41736800000001
 30
0.0
 40
0.088042
100
AcDbArc
 50
235.712465
 51
304.287535
  0
ARC
  5
EFF
330
1E
100
AcDbEntity
  8
HIDDEN
100
AcDbCircle
 10
63.950157
 20
76.65924699999999
 30
0.0
 40
0.32992
100
AcDbArc
 50
252.482645
 51
287.5173549999999
  0
LINE
  5
F00
330
1E
100
AcDbEntity
  8
HIDDEN
100
AcDbLine
 10
64.122157
 20
76.32932700000001
 30
0.0
 11
64.122157
 21
76.298327
 31
0.0
  0
LINE
  5
F01
330
1E
100
AcDbEntity
  8
HIDDEN
100
AcDbLine
 10
63.77815699999999
 20
76.32932700000001
 30
0.0
 11
63.77815699999999
 21
76.298327
 31
0.0
  0
LINE
  5
F02
330
1E
100
AcDbEntity
  8
HIDDEN
100
AcDbLine
 10
64.099059
 20
76.32932700000001
 30
0.0
 11
63.80125500000001
 21
76.32932700000001
 31
0.0
  0
LINE
  5
F03
330
1E
100
AcDbEntity
  8
HIDDEN
100
AcDbLine
 10
64.122157
 20
76.32932700000001
 30
0.0
 11
63.77815699999999
 21
76.32932700000001
 31
0.0
  0
LINE
  5
F04
330
1E
100
AcDbEntity
  8
HIDDEN
100
AcDbLine
 10
64.032157
 20
76.298327
 30
0.0
 11
64.032157
 21
76.32932700000001
 31
0.0
  0
LINE
  5
F05
330
1E
100
AcDbEntity
  8
HIDDEN
100
AcDbLine
 10
63.86815699999999
 20
76.298327
 30
0.0
 11
63.86815699999999
 21
76.32932700000001
 31
0.0
  0
LINE
  5
F06
330
1E
100
AcDbEntity
  8
HIDDEN
100
AcDbLine
 10
64.032157
 20
76.548327
 30
0.0
 11
63.86815699999999
 21
76.548327
 31
0.0
  0
LINE
  5
F07
330
1E
100
AcDbEntity
  8
HIDDEN
100
AcDbLine
 10
64.00115699999999
 20
76.548327
 30
0.0
 11
63.89915699999999
 21
76.548327
 31
0.0
  0
LINE
  5
F08
330
1E
100
AcDbEntity
  8
HIDDEN
100
AcDbLine
 10
64.00115699999999
 20
76.548327
 30
0.0
 11
63.89915699999999
 21
76.548327
 31
0.0
  0
LINE
  5
F09
330
1E
100
AcDbEntity
  8
HIDDEN
100
AcDbLine
 10
64.032157
 20
76.548327
 30
0.0
 11
63.86815699999999
 21
76.548327
 31
0.0
  0
LINE
  5
F0A
330
1E
100
AcDbEntity
  8
HIDDEN
100
AcDbLine
 10
63.86815699999999
 20
76.298327
 30
0.0
 11
63.86815699999999
 21
76.32932700000001
 31
0.0
  0
LINE
  5
F0B
330
1E
100
AcDbEntity
  8
HIDDEN
100
AcDbLine
 10
64.032157
 20
76.298327
 30
0.0
 11
64.032157
 21
76.32932700000001
 31
0.0
  0
LINE
  5
F0C
330
1E
100
AcDbEntity
  8
HIDDEN
100
AcDbLine
 10
64.122157
 20
76.32932700000001
 30
0.0
 11
63.77815699999999
 21
76.32932700000001
 31
0.0
  0
LINE
  5
F0D
330
1E
100
AcDbEntity
  8
HIDDEN
100
AcDbLine
 10
63.77815699999999
 20
76.32932700000001
 30
0.0
 11
63.77815699999999
 21
76.298327
 31
0.0
  0
LINE
  5
F0E
330
1E
100
AcDbEntity
  8
HIDDEN
100
AcDbLine
 10
64.122157
 20
76.32932700000001
 30
0.0
 11
64.122157
 21
76.298327
 31
0.0
  0
ARC
  5
F0F
330
1E
100
AcDbEntity
  8
HIDDEN
100
AcDbCircle
 10
63.950157
 20
76.65924699999999
 30
0.0
 40
0.32992
100
AcDbArc
 50
252.482645
 51
287.5173549999999
  0
ARC
  5
F10
330
1E
100
AcDbEntity
  8
HIDDEN
100
AcDbCircle
 10
64.099059
 20
76.41736800000001
 30
0.0
 40
0.088042
100
AcDbArc
 50
235.712465
 51
304.287535
  0
ARC
  5
F11
330
1E
100
AcDbEntity
  8
HIDDEN
100
AcDbCircle
 10
63.80125500000001
 20
76.41736800000001
 30
0.0
 40
0.088042
100
AcDbArc
 50
235.712465
 51
304.287535
  0
LINE
  5
F12
330
1E
100
AcDbEntity
  8
HIDDEN
100
AcDbLine
 10
64.099059
 20
76.459327
 30
0.0
 11
63.80125500000001
 21
76.459327
 31
0.0
  0
ARC
  5
F13
330
1E
100
AcDbEntity
  8
HIDDEN
100
AcDbCircle
 10
63.80125500000001
 20
76.371285
 30
0.0
 40
0.088042
100
AcDbArc
 50
55.71246500000001
 51
124.287535
  0
ARC
  5
F14
330
1E
100
AcDbEntity
  8
HIDDEN
100
AcDbCircle
 10
64.099059
 20
76.371285
 30
0.0
 40
0.088042
100
AcDbArc
 50
55.71246500000001
 51
124.287535
  0
ARC
  5
F15
330
1E
100
AcDbEntity
  8
HIDDEN
100
AcDbCircle
 10
63.950157
 20
76.129406
 30
0.0
 40
0.32992
100
AcDbArc
 50
72.48264499999999
 51
107.517355
  0
LINE
  5
F16
330
1E
100
AcDbEntity
  8
HIDDEN
100
AcDbLine
 10
63.850853
 20
76.444027
 30
0.0
 11
63.850853
 21
76.344626
 31
0.0
  0
LINE
  5
F17
330
1E
100
AcDbEntity
  8
HIDDEN
100
AcDbLine
 10
64.049461
 20
76.444027
 30
0.0
 11
64.049461
 21
76.344626
 31
0.0
  0
LINE
  5
F18
330
1E
100
AcDbEntity
  8
HIDDEN
100
AcDbLine
 10
63.751657
 20
76.444027
 30
0.0
 11
63.751657
 21
76.344626
 31
0.0
  0
LINE
  5
F19
330
1E
100
AcDbEntity
  8
HIDDEN
100
AcDbLine
 10
64.148657
 20
76.444027
 30
0.0
 11
64.148657
 21
76.344626
 31
0.0
  0
LINE
  5
F1A
330
1E
100
AcDbEntity
  8
HIDDEN
100
AcDbLine
 10
63.86815699999999
 20
76.459327
 30
0.0
 11
63.86815699999999
 21
76.548327
 31
0.0
  0
LINE
  5
F1B
330
1E
100
AcDbEntity
  8
HIDDEN
100
AcDbLine
 10
64.032157
 20
76.459327
 30
0.0
 11
64.032157
 21
76.548327
 31
0.0
  0
LINE
  5
F1C
330
1E
100
AcDbEntity
  8
CENTER
100
AcDbLine
 10
63.950157
 20
75.54085500000001
 30
0.0
 11
63.950157
 21
75.861327
 31
0.0
  0
LINE
  5
F1D
330
1E
100
AcDbEntity
  8
CENTER
100
AcDbLine
 10
71.45015699999999
 20
75.54085500000001
 30
0.0
 11
71.45015699999999
 21
75.861327
 31
0.0
  0
ARC
  5
F1E
330
1E
100
AcDbEntity
  8
OBJECT
100
AcDbCircle
 10
75.82515699999999
 20
57.885787
 30
0.0
 40
0.09
100
AcDbArc
 50
0.0
 51
60.717912
  0
ARC
  5
F1F
330
1E
100
AcDbEntity
  8
OBJECT
100
AcDbCircle
 10
75.82515699999999
 20
57.855787
 30
0.0
 40
0.09
100
AcDbArc
 50
180.0
 51
240.717912
  0
LINE
  5
F20
330
1E
100
AcDbEntity
  8
OBJECT
100
AcDbLine
 10
75.735157
 20
57.885787
 30
0.0
 11
75.735157
 21
57.855787
 31
0.0
  0
LINE
  5
F21
330
1E
100
AcDbEntity
  8
OBJECT
100
AcDbLine
 10
75.91515699999999
 20
57.855787
 30
0.0
 11
75.91515699999999
 21
57.885787
 31
0.0
  0
LINE
  5
F22
330
1E
100
AcDbEntity
  8
HIDDEN
100
AcDbLine
 10
45.032157
 20
93.01332700000001
 30
0.0
 11
45.032157
 21
92.924327
 31
0.0
  0
LINE
  5
F23
330
1E
100
AcDbEntity
  8
HIDDEN
100
AcDbLine
 10
44.868157
 20
93.01332700000001
 30
0.0
 11
44.868157
 21
92.924327
 31
0.0
  0
LINE
  5
F24
330
1E
100
AcDbEntity
  8
HIDDEN
100
AcDbLine
 10
45.148657
 20
93.028626
 30
0.0
 11
45.148657
 21
93.128027
 31
0.0
  0
LINE
  5
F25
330
1E
100
AcDbEntity
  8
HIDDEN
100
AcDbLine
 10
44.751657
 20
93.028626
 30
0.0
 11
44.751657
 21
93.128027
 31
0.0
  0
LINE
  5
F26
330
1E
100
AcDbEntity
  8
HIDDEN
100
AcDbLine
 10
45.049461
 20
93.028626
 30
0.0
 11
45.049461
 21
93.128027
 31
0.0
  0
LINE
  5
F27
330
1E
100
AcDbEntity
  8
HIDDEN
100
AcDbLine
 10
44.850853
 20
93.028626
 30
0.0
 11
44.850853
 21
93.128027
 31
0.0
  0
ARC
  5
F28
330
1E
100
AcDbEntity
  8
HIDDEN
100
AcDbCircle
 10
44.95015699999999
 20
93.34324699999999
 30
0.0
 40
0.32992
100
AcDbArc
 50
252.482645
 51
287.5173549999999
  0
ARC
  5
F29
330
1E
100
AcDbEntity
  8
HIDDEN
100
AcDbCircle
 10
45.099059
 20
93.101368
 30
0.0
 40
0.088042
100
AcDbArc
 50
235.712465
 51
304.287535
  0
ARC
  5
F2A
330
1E
100
AcDbEntity
  8
HIDDEN
100
AcDbCircle
 10
44.80125499999999
 20
93.101368
 30
0.0
 40
0.088042
100
AcDbArc
 50
235.712465
 51
304.287535
  0
LINE
  5
F2B
330
1E
100
AcDbEntity
  8
HIDDEN
100
AcDbLine
 10
45.099059
 20
93.01332700000001
 30
0.0
 11
44.80125499999999
 21
93.01332700000001
 31
0.0
  0
ARC
  5
F2C
330
1E
100
AcDbEntity
  8
HIDDEN
100
AcDbCircle
 10
44.80125499999999
 20
93.05528499999999
 30
0.0
 40
0.088042
100
AcDbArc
 50
55.71246500000001
 51
124.287535
  0
ARC
  5
F2D
330
1E
100
AcDbEntity
  8
HIDDEN
100
AcDbCircle
 10
45.099059
 20
93.05528499999999
 30
0.0
 40
0.088042
100
AcDbArc
 50
55.71246500000001
 51
124.287535
  0
ARC
  5
F2E
330
1E
100
AcDbEntity
  8
HIDDEN
100
AcDbCircle
 10
44.95015699999999
 20
92.813406
 30
0.0
 40
0.32992
100
AcDbArc
 50
72.48264499999999
 51
107.517355
  0
LINE
  5
F2F
330
1E
100
AcDbEntity
  8
HIDDEN
100
AcDbLine
 10
45.122157
 20
93.14332699999999
 30
0.0
 11
45.122157
 21
93.17432700000001
 31
0.0
  0
LINE
  5
F30
330
1E
100
AcDbEntity
  8
HIDDEN
100
AcDbLine
 10
44.77815699999999
 20
93.14332699999999
 30
0.0
 11
44.77815699999999
 21
93.17432700000001
 31
0.0
  0
LINE
  5
F31
330
1E
100
AcDbEntity
  8
HIDDEN
100
AcDbLine
 10
45.122157
 20
93.14332699999999
 30
0.0
 11
44.77815699999999
 21
93.14332699999999
 31
0.0
  0
LINE
  5
F32
330
1E
100
AcDbEntity
  8
HIDDEN
100
AcDbLine
 10
45.032157
 20
93.17432700000001
 30
0.0
 11
45.032157
 21
93.14332699999999
 31
0.0
  0
LINE
  5
F33
330
1E
100
AcDbEntity
  8
HIDDEN
100
AcDbLine
 10
44.868157
 20
93.17432700000001
 30
0.0
 11
44.868157
 21
93.14332699999999
 31
0.0
  0
LINE
  5
F34
330
1E
100
AcDbEntity
  8
HIDDEN
100
AcDbLine
 10
45.032157
 20
92.924327
 30
0.0
 11
44.868157
 21
92.924327
 31
0.0
  0
LINE
  5
F35
330
1E
100
AcDbEntity
  8
HIDDEN
100
AcDbLine
 10
45.001157
 20
92.924327
 30
0.0
 11
44.899157
 21
92.924327
 31
0.0
  0
LINE
  5
F36
330
1E
100
AcDbEntity
  8
HIDDEN
100
AcDbLine
 10
45.001157
 20
92.924327
 30
0.0
 11
44.899157
 21
92.924327
 31
0.0
  0
LINE
  5
F37
330
1E
100
AcDbEntity
  8
HIDDEN
100
AcDbLine
 10
45.032157
 20
92.924327
 30
0.0
 11
44.868157
 21
92.924327
 31
0.0
  0
LINE
  5
F38
330
1E
100
AcDbEntity
  8
HIDDEN
100
AcDbLine
 10
44.868157
 20
93.17432700000001
 30
0.0
 11
44.868157
 21
93.14332699999999
 31
0.0
  0
LINE
  5
F39
330
1E
100
AcDbEntity
  8
HIDDEN
100
AcDbLine
 10
45.032157
 20
93.17432700000001
 30
0.0
 11
45.032157
 21
93.14332699999999
 31
0.0
  0
LINE
  5
F3A
330
1E
100
AcDbEntity
  8
HIDDEN
100
AcDbLine
 10
45.122157
 20
93.14332699999999
 30
0.0
 11
44.77815699999999
 21
93.14332699999999
 31
0.0
  0
LINE
  5
F3B
330
1E
100
AcDbEntity
  8
HIDDEN
100
AcDbLine
 10
45.099059
 20
93.14332699999999
 30
0.0
 11
44.80125499999999
 21
93.14332699999999
 31
0.0
  0
LINE
  5
F3C
330
1E
100
AcDbEntity
  8
HIDDEN
100
AcDbLine
 10
44.77815699999999
 20
93.14332699999999
 30
0.0
 11
44.77815699999999
 21
93.17432700000001
 31
0.0
  0
LINE
  5
F3D
330
1E
100
AcDbEntity
  8
HIDDEN
100
AcDbLine
 10
45.122157
 20
93.14332699999999
 30
0.0
 11
45.122157
 21
93.17432700000001
 31
0.0
  0
ARC
  5
F3E
330
1E
100
AcDbEntity
  8
HIDDEN
100
AcDbCircle
 10
44.95015699999999
 20
92.813406
 30
0.0
 40
0.32992
100
AcDbArc
 50
72.48264499999999
 51
107.517355
  0
ARC
  5
F3F
330
1E
100
AcDbEntity
  8
HIDDEN
100
AcDbCircle
 10
45.099059
 20
93.05528499999999
 30
0.0
 40
0.088042
100
AcDbArc
 50
55.71246500000001
 51
124.287535
  0
ARC
  5
F40
330
1E
100
AcDbEntity
  8
HIDDEN
100
AcDbCircle
 10
44.80125499999999
 20
93.05528499999999
 30
0.0
 40
0.088042
100
AcDbArc
 50
55.71246500000001
 51
124.287535
  0
LINE
  5
F41
330
1E
100
AcDbEntity
  8
HIDDEN
100
AcDbLine
 10
45.099059
 20
93.01332700000001
 30
0.0
 11
44.80125499999999
 21
93.01332700000001
 31
0.0
  0
ARC
  5
F42
330
1E
100
AcDbEntity
  8
HIDDEN
100
AcDbCircle
 10
44.80125499999999
 20
93.101368
 30
0.0
 40
0.088042
100
AcDbArc
 50
235.712465
 51
304.287535
  0
ARC
  5
F43
330
1E
100
AcDbEntity
  8
HIDDEN
100
AcDbCircle
 10
45.099059
 20
93.101368
 30
0.0
 40
0.088042
100
AcDbArc
 50
235.712465
 51
304.287535
  0
ARC
  5
F44
330
1E
100
AcDbEntity
  8
HIDDEN
100
AcDbCircle
 10
44.95015699999999
 20
93.34324699999999
 30
0.0
 40
0.32992
100
AcDbArc
 50
252.482645
 51
287.5173549999999
  0
LINE
  5
F45
330
1E
100
AcDbEntity
  8
HIDDEN
100
AcDbLine
 10
44.850853
 20
93.028626
 30
0.0
 11
44.850853
 21
93.128027
 31
0.0
  0
LINE
  5
F46
330
1E
100
AcDbEntity
  8
HIDDEN
100
AcDbLine
 10
45.049461
 20
93.028626
 30
0.0
 11
45.049461
 21
93.128027
 31
0.0
  0
LINE
  5
F47
330
1E
100
AcDbEntity
  8
HIDDEN
100
AcDbLine
 10
44.751657
 20
93.028626
 30
0.0
 11
44.751657
 21
93.128027
 31
0.0
  0
LINE
  5
F48
330
1E
100
AcDbEntity
  8
HIDDEN
100
AcDbLine
 10
45.148657
 20
93.028626
 30
0.0
 11
45.148657
 21
93.128027
 31
0.0
  0
LINE
  5
F49
330
1E
100
AcDbEntity
  8
HIDDEN
100
AcDbLine
 10
44.868157
 20
93.01332700000001
 30
0.0
 11
44.868157
 21
92.924327
 31
0.0
  0
LINE
  5
F4A
330
1E
100
AcDbEntity
  8
HIDDEN
100
AcDbLine
 10
45.032157
 20
93.01332700000001
 30
0.0
 11
45.032157
 21
92.924327
 31
0.0
  0
LINE
  5
F4B
330
1E
100
AcDbEntity
  8
CENTER
100
AcDbLine
 10
44.95015699999999
 20
92.76402799999999
 30
0.0
 11
44.95015699999999
 21
93.17432700000001
 31
0.0
  0
LINE
  5
F4C
330
1E
100
AcDbEntity
  8
OBJECT
100
AcDbLine
 10
44.798101
 20
34.483612
 30
0.0
 11
38.771091
 21
34.483612
 31
0.0
  0
ARC
  5
F51
330
1E
100
AcDbEntity
  8
OBJECT
100
AcDbCircle
 10
75.82515699999999
 20
57.855787
 30
0.0
 40
0.09
100
AcDbArc
 50
299.282088
 51
0.0
  0
ARC
  5
F52
330
1E
100
AcDbEntity
  8
OBJECT
100
AcDbCircle
 10
75.82515699999999
 20
57.885787
 30
0.0
 40
0.09
100
AcDbArc
 50
119.2820879999999
 51
180.0
  0
LINE
  5
F53
330
1E
100
AcDbEntity
  8
OBJECT
100
AcDbLine
 10
75.415281
 20
76.17432700000001
 30
0.0
 11
76.95015699999999
 21
76.17432700000001
 31
0.0
  0
LINE
  5
F54
330
1E
100
AcDbEntity
  8
CENTER
100
AcDbLine
 10
63.950157
 20
93.93179899999999
 30
0.0
 11
63.950157
 21
93.611327
 31
0.0
  0
LINE
  5
F55
330
1E
100
AcDbEntity
  8
CENTER
100
AcDbLine
 10
71.45015699999999
 20
93.93179899999999
 30
0.0
 11
71.45015699999999
 21
93.611327
 31
0.0
  0
LINE
  5
F56
330
1E
100
AcDbEntity
  8
OBJECT
100
AcDbLine
 10
75.415281
 20
93.298327
 30
0.0
 11
76.95015699999999
 21
93.298327
 31
0.0
  0
LWPOLYLINE
  5
F57
330
1E
100
AcDbEntity
  8
OBJECT
100
AcDbPolyline
 90
       12
 70
     0
 43
0.0
 10
25.157322
 20
35.23561199999999
 42
-0.1689
 10
25.372202
 20
34.304921
 42
0.178207
 10
25.733132
 20
32.861183
 42
0.131116
 10
26.725689
 20
32.003964
 42
0.101359
 10
29.02661699999999
 20
31.417446
 42
-0.123436
 10
31.417778
 20
30.695577
 42
0.263504
 10
35.252659
 20
30.605343
 42
-0.332936
 10
37.328006
 20
30.289525
 42
0.3073679999999999
 10
38.68149299999999
 20
30.018825
 42
-0.041152
 10
49.29823599999999
 20
30.19929199999999
 42
0.060543
 10
55.734513
 20
30.334642
 42
-0.111082
 10
57.024596
 20
30.530983
 42
0.206957
  0
LINE
  5
F58
330
1E
100
AcDbEntity
  8
OBJECT
100
AcDbLine
 10
57.950157
 20
93.236327
 30
0.0
 11
57.950157
 21
93.298327
 31
0.0
  0
LINE
  5
F59
330
1E
100
AcDbEntity
  8
OBJECT
100
AcDbLine
 10
56.02459599999999
 20
34.23561199999999
 30
0.0
 11
56.02459599999999
 21
34.483612
 31
0.0
  0
ARC
  5
F5A
330
1E
100
AcDbEntity
  8
OBJECT
100
AcDbCircle
 10
32.543657
 20
92.017827
 30
0.0
 40
0.0935
100
AcDbArc
 50
90.0
 51
270.0
  0
ARC
  5
F5B
330
1E
100
AcDbEntity
  8
OBJECT
100
AcDbCircle
 10
33.35665699999999
 20
92.017827
 30
0.0
 40
0.0935
100
AcDbArc
 50
270.0
 51
90.0
  0
LINE
  5
F5C
330
1E
100
AcDbEntity
  8
OBJECT
100
AcDbLine
 10
33.35665699999999
 20
92.111327
 30
0.0
 11
32.543657
 21
92.111327
 31
0.0
  0
LINE
  5
F5D
330
1E
100
AcDbEntity
  8
OBJECT
100
AcDbLine
 10
32.543657
 20
91.92432700000001
 30
0.0
 11
33.35665699999999
 21
91.92432700000001
 31
0.0
  0
LINE
  5
F5E
330
1E
100
AcDbEntity
  8
OBJECT
100
AcDbLine
 10
34.043657
 20
91.674327
 30
0.0
 11
34.856657
 21
91.674327
 31
0.0
  0
LINE
  5
F5F
330
1E
100
AcDbEntity
  8
OBJECT
100
AcDbLine
 10
34.856657
 20
91.86132699999999
 30
0.0
 11
34.043657
 21
91.86132699999999
 31
0.0
  0
ARC
  5
F60
330
1E
100
AcDbEntity
  8
OBJECT
100
AcDbCircle
 10
34.856657
 20
91.767827
 30
0.0
 40
0.0935
100
AcDbArc
 50
270.0
 51
90.0
  0
ARC
  5
F61
330
1E
100
AcDbEntity
  8
OBJECT
100
AcDbCircle
 10
34.043657
 20
91.767827
 30
0.0
 40
0.0935
100
AcDbArc
 50
90.0
 51
270.0
  0
ARC
  5
F62
330
1E
100
AcDbEntity
  8
OBJECT
100
AcDbCircle
 10
37.043657
 20
91.767827
 30
0.0
 40
0.0935
100
AcDbArc
 50
90.0
 51
270.0
  0
ARC
  5
F63
330
1E
100
AcDbEntity
  8
OBJECT
100
AcDbCircle
 10
37.856657
 20
91.767827
 30
0.0
 40
0.0935
100
AcDbArc
 50
270.0
 51
90.0
  0
LINE
  5
F64
330
1E
100
AcDbEntity
  8
OBJECT
100
AcDbLine
 10
37.856657
 20
91.86132699999999
 30
0.0
 11
37.043657
 21
91.86132699999999
 31
0.0
  0
LINE
  5
F65
330
1E
100
AcDbEntity
  8
OBJECT
100
AcDbLine
 10
37.043657
 20
91.674327
 30
0.0
 11
37.856657
 21
91.674327
 31
0.0
  0
LINE
  5
F66
330
1E
100
AcDbEntity
  8
OBJECT
100
AcDbLine
 10
35.543657
 20
91.92432700000001
 30
0.0
 11
36.356657
 21
91.92432700000001
 31
0.0
  0
LINE
  5
F67
330
1E
100
AcDbEntity
  8
OBJECT
100
AcDbLine
 10
36.356657
 20
92.111327
 30
0.0
 11
35.543657
 21
92.111327
 31
0.0
  0
ARC
  5
F68
330
1E
100
AcDbEntity
  8
OBJECT
100
AcDbCircle
 10
36.356657
 20
92.017827
 30
0.0
 40
0.0935
100
AcDbArc
 50
270.0
 51
90.0
  0
ARC
  5
F69
330
1E
100
AcDbEntity
  8
OBJECT
100
AcDbCircle
 10
35.543657
 20
92.017827
 30
0.0
 40
0.0935
100
AcDbArc
 50
90.0
 51
270.0
  0
ARC
  5
F6A
330
1E
100
AcDbEntity
  8
OBJECT
100
AcDbCircle
 10
40.043657
 20
91.767827
 30
0.0
 40
0.0935
100
AcDbArc
 50
90.0
 51
270.0
  0
ARC
  5
F6B
330
1E
100
AcDbEntity
  8
OBJECT
100
AcDbCircle
 10
40.85665699999999
 20
91.767827
 30
0.0
 40
0.0935
100
AcDbArc
 50
270.0
 51
90.0
  0
LINE
  5
F6C
330
1E
100
AcDbEntity
  8
OBJECT
100
AcDbLine
 10
40.85665699999999
 20
91.86132699999999
 30
0.0
 11
40.043657
 21
91.86132699999999
 31
0.0
  0
LINE
  5
F6D
330
1E
100
AcDbEntity
  8
OBJECT
100
AcDbLine
 10
40.043657
 20
91.674327
 30
0.0
 11
40.85665699999999
 21
91.674327
 31
0.0
  0
LINE
  5
F6E
330
1E
100
AcDbEntity
  8
OBJECT
100
AcDbLine
 10
38.543657
 20
91.92432700000001
 30
0.0
 11
39.35665699999999
 21
91.92432700000001
 31
0.0
  0
LINE
  5
F6F
330
1E
100
AcDbEntity
  8
OBJECT
100
AcDbLine
 10
39.35665699999999
 20
92.111327
 30
0.0
 11
38.543657
 21
92.111327
 31
0.0
  0
ARC
  5
F70
330
1E
100
AcDbEntity
  8
OBJECT
100
AcDbCircle
 10
39.35665699999999
 20
92.017827
 30
0.0
 40
0.0935
100
AcDbArc
 50
270.0
 51
90.0
  0
ARC
  5
F71
330
1E
100
AcDbEntity
  8
OBJECT
100
AcDbCircle
 10
38.543657
 20
92.017827
 30
0.0
 40
0.0935
100
AcDbArc
 50
90.0
 51
270.0
  0
LINE
  5
F72
330
1E
100
AcDbEntity
  8
OBJECT
100
AcDbLine
 10
41.543657
 20
91.92432700000001
 30
0.0
 11
42.356657
 21
91.92432700000001
 31
0.0
  0
LINE
  5
F73
330
1E
100
AcDbEntity
  8
OBJECT
100
AcDbLine
 10
42.356657
 20
92.111327
 30
0.0
 11
41.543657
 21
92.111327
 31
0.0
  0
ARC
  5
F74
330
1E
100
AcDbEntity
  8
OBJECT
100
AcDbCircle
 10
42.356657
 20
92.017827
 30
0.0
 40
0.0935
100
AcDbArc
 50
270.0
 51
90.0
  0
ARC
  5
F75
330
1E
100
AcDbEntity
  8
OBJECT
100
AcDbCircle
 10
41.543657
 20
92.017827
 30
0.0
 40
0.0935
100
AcDbArc
 50
90.0
 51
270.0
  0
ARC
  5
F76
330
1E
100
AcDbEntity
  8
OBJECT
100
AcDbCircle
 10
53.04365699999999
 20
77.45482700000001
 30
0.0
 40
0.0935
100
AcDbArc
 50
90.0
 51
270.0
  0
ARC
  5
F77
330
1E
100
AcDbEntity
  8
OBJECT
100
AcDbCircle
 10
53.85665699999999
 20
77.45482700000001
 30
0.0
 40
0.0935
100
AcDbArc
 50
270.0
 51
90.0
  0
LINE
  5
F78
330
1E
100
AcDbEntity
  8
OBJECT
100
AcDbLine
 10
53.85665699999999
 20
77.548327
 30
0.0
 11
53.04365699999999
 21
77.548327
 31
0.0
  0
LINE
  5
F79
330
1E
100
AcDbEntity
  8
OBJECT
100
AcDbLine
 10
53.04365699999999
 20
77.361327
 30
0.0
 11
53.85665699999999
 21
77.361327
 31
0.0
  0
LINE
  5
F7A
330
1E
100
AcDbEntity
  8
OBJECT
100
AcDbLine
 10
51.543657
 20
77.611327
 30
0.0
 11
52.356657
 21
77.611327
 31
0.0
  0
LINE
  5
F7B
330
1E
100
AcDbEntity
  8
OBJECT
100
AcDbLine
 10
52.356657
 20
77.798327
 30
0.0
 11
51.543657
 21
77.798327
 31
0.0
  0
ARC
  5
F7C
330
1E
100
AcDbEntity
  8
OBJECT
100
AcDbCircle
 10
52.356657
 20
77.70482700000001
 30
0.0
 40
0.0935
100
AcDbArc
 50
270.0
 51
90.0
  0
ARC
  5
F7D
330
1E
100
AcDbEntity
  8
OBJECT
100
AcDbCircle
 10
51.543657
 20
77.70482700000001
 30
0.0
 40
0.0935
100
AcDbArc
 50
90.0
 51
270.0
  0
ARC
  5
F7E
330
1E
100
AcDbEntity
  8
OBJECT
100
AcDbCircle
 10
56.04365699999999
 20
77.45482700000001
 30
0.0
 40
0.0935
100
AcDbArc
 50
90.0
 51
270.0
  0
ARC
  5
F7F
330
1E
100
AcDbEntity
  8
OBJECT
100
AcDbCircle
 10
56.85665699999999
 20
77.45482700000001
 30
0.0
 40
0.0935
100
AcDbArc
 50
270.0
 51
90.0
  0
LINE
  5
F80
330
1E
100
AcDbEntity
  8
OBJECT
100
AcDbLine
 10
56.85665699999999
 20
77.548327
 30
0.0
 11
56.04365699999999
 21
77.548327
 31
0.0
  0
LINE
  5
F81
330
1E
100
AcDbEntity
  8
OBJECT
100
AcDbLine
 10
56.04365699999999
 20
77.361327
 30
0.0
 11
56.85665699999999
 21
77.361327
 31
0.0
  0
LINE
  5
F82
330
1E
100
AcDbEntity
  8
OBJECT
100
AcDbLine
 10
54.543657
 20
77.611327
 30
0.0
 11
55.35665699999999
 21
77.611327
 31
0.0
  0
LINE
  5
F83
330
1E
100
AcDbEntity
  8
OBJECT
100
AcDbLine
 10
55.35665699999999
 20
77.798327
 30
0.0
 11
54.543657
 21
77.798327
 31
0.0
  0
ARC
  5
F84
330
1E
100
AcDbEntity
  8
OBJECT
100
AcDbCircle
 10
55.35665699999999
 20
77.70482700000001
 30
0.0
 40
0.0935
100
AcDbArc
 50
270.0
 51
90.0
  0
ARC
  5
F85
330
1E
100
AcDbEntity
  8
OBJECT
100
AcDbCircle
 10
54.543657
 20
77.70482700000001
 30
0.0
 40
0.0935
100
AcDbArc
 50
90.0
 51
270.0
  0
ARC
  5
F86
330
1E
100
AcDbEntity
  8
OBJECT
100
AcDbCircle
 10
59.04365699999999
 20
77.45482700000001
 30
0.0
 40
0.0935
100
AcDbArc
 50
90.0
 51
270.0
  0
ARC
  5
F87
330
1E
100
AcDbEntity
  8
OBJECT
100
AcDbCircle
 10
59.85665699999999
 20
77.45482700000001
 30
0.0
 40
0.0935
100
AcDbArc
 50
270.0
 51
90.0
  0
LINE
  5
F88
330
1E
100
AcDbEntity
  8
OBJECT
100
AcDbLine
 10
59.85665699999999
 20
77.548327
 30
0.0
 11
59.04365699999999
 21
77.548327
 31
0.0
  0
LINE
  5
F89
330
1E
100
AcDbEntity
  8
OBJECT
100
AcDbLine
 10
59.04365699999999
 20
77.361327
 30
0.0
 11
59.85665699999999
 21
77.361327
 31
0.0
  0
LINE
  5
F8A
330
1E
100
AcDbEntity
  8
OBJECT
100
AcDbLine
 10
57.543657
 20
77.611327
 30
0.0
 11
58.35665699999999
 21
77.611327
 31
0.0
  0
LINE
  5
F8B
330
1E
100
AcDbEntity
  8
OBJECT
100
AcDbLine
 10
58.35665699999999
 20
77.798327
 30
0.0
 11
57.543657
 21
77.798327
 31
0.0
  0
ARC
  5
F8C
330
1E
100
AcDbEntity
  8
OBJECT
100
AcDbCircle
 10
58.35665699999999
 20
77.70482700000001
 30
0.0
 40
0.0935
100
AcDbArc
 50
270.0
 51
90.0
  0
ARC
  5
F8D
330
1E
100
AcDbEntity
  8
OBJECT
100
AcDbCircle
 10
57.543657
 20
77.70482700000001
 30
0.0
 40
0.0935
100
AcDbArc
 50
90.0
 51
270.0
  0
LINE
  5
F8E
330
1E
100
AcDbEntity
  8
OBJECT
100
AcDbLine
 10
60.54365699999999
 20
77.611327
 30
0.0
 11
61.35665699999999
 21
77.611327
 31
0.0
  0
LINE
  5
F8F
330
1E
100
AcDbEntity
  8
OBJECT
100
AcDbLine
 10
61.35665699999999
 20
77.798327
 30
0.0
 11
60.54365699999999
 21
77.798327
 31
0.0
  0
ARC
  5
F90
330
1E
100
AcDbEntity
  8
OBJECT
100
AcDbCircle
 10
61.35665699999999
 20
77.70482700000001
 30
0.0
 40
0.0935
100
AcDbArc
 50
270.0
 51
90.0
  0
ARC
  5
F91
330
1E
100
AcDbEntity
  8
OBJECT
100
AcDbCircle
 10
60.54365699999999
 20
77.70482700000001
 30
0.0
 40
0.0935
100
AcDbArc
 50
90.0
 51
270.0
  0
LINE
  5
F92
330
1E
100
AcDbEntity
  8
CENTER
100
AcDbLine
 10
41.95015699999999
 20
91.799327
 30
0.0
 11
41.95015699999999
 21
84.73632700000001
 31
0.0
  0
LINE
  5
F93
330
1E
100
AcDbEntity
  8
CENTER
100
AcDbLine
 10
40.45015699999999
 20
91.54932700000001
 30
0.0
 11
40.45015699999999
 21
84.73632700000001
 31
0.0
  0
LINE
  5
F94
330
1E
100
AcDbEntity
  8
CENTER
100
AcDbLine
 10
38.950157
 20
91.799327
 30
0.0
 11
38.950157
 21
84.73632700000001
 31
0.0
  0
LINE
  5
F95
330
1E
100
AcDbEntity
  8
CENTER
100
AcDbLine
 10
37.45015699999999
 20
91.54932700000001
 30
0.0
 11
37.45015699999999
 21
84.73632700000001
 31
0.0
  0
LINE
  5
F96
330
1E
100
AcDbEntity
  8
CENTER
100
AcDbLine
 10
35.95015699999999
 20
91.799327
 30
0.0
 11
35.95015699999999
 21
84.73632700000001
 31
0.0
  0
LINE
  5
F97
330
1E
100
AcDbEntity
  8
CENTER
100
AcDbLine
 10
34.45015699999999
 20
91.54932700000001
 30
0.0
 11
34.45015699999999
 21
84.73632700000001
 31
0.0
  0
LINE
  5
F98
330
1E
100
AcDbEntity
  8
CENTER
100
AcDbLine
 10
32.95015699999999
 20
91.799327
 30
0.0
 11
32.95015699999999
 21
84.73632700000001
 31
0.0
  0
LINE
  5
F99
330
1E
100
AcDbEntity
  8
CENTER
100
AcDbLine
 10
32.95015699999999
 20
92.10782700000001
 30
0.0
 11
32.95015699999999
 21
91.927827
 31
0.0
  0
LINE
  5
F9A
330
1E
100
AcDbEntity
  8
CENTER
100
AcDbLine
 10
32.860157
 20
92.017827
 30
0.0
 11
33.040157
 21
92.017827
 31
0.0
  0
LINE
  5
F9B
330
1E
100
AcDbEntity
  8
CENTER
100
AcDbLine
 10
34.360157
 20
91.767827
 30
0.0
 11
34.540157
 21
91.767827
 31
0.0
  0
LINE
  5
F9C
330
1E
100
AcDbEntity
  8
CENTER
100
AcDbLine
 10
34.45015699999999
 20
91.857827
 30
0.0
 11
34.45015699999999
 21
91.67782700000001
 31
0.0
  0
LINE
  5
F9D
330
1E
100
AcDbEntity
  8
CENTER
100
AcDbLine
 10
37.45015699999999
 20
91.857827
 30
0.0
 11
37.45015699999999
 21
91.67782700000001
 31
0.0
  0
LINE
  5
F9E
330
1E
100
AcDbEntity
  8
CENTER
100
AcDbLine
 10
37.360157
 20
91.767827
 30
0.0
 11
37.540157
 21
91.767827
 31
0.0
  0
LINE
  5
F9F
330
1E
100
AcDbEntity
  8
CENTER
100
AcDbLine
 10
35.860157
 20
92.017827
 30
0.0
 11
36.040157
 21
92.017827
 31
0.0
  0
LINE
  5
FA0
330
1E
100
AcDbEntity
  8
CENTER
100
AcDbLine
 10
35.95015699999999
 20
92.10782700000001
 30
0.0
 11
35.95015699999999
 21
91.927827
 31
0.0
  0
LINE
  5
FA1
330
1E
100
AcDbEntity
  8
CENTER
100
AcDbLine
 10
41.95015699999999
 20
92.10782700000001
 30
0.0
 11
41.95015699999999
 21
91.927827
 31
0.0
  0
LINE
  5
FA2
330
1E
100
AcDbEntity
  8
CENTER
100
AcDbLine
 10
41.860157
 20
92.017827
 30
0.0
 11
42.040157
 21
92.017827
 31
0.0
  0
LINE
  5
FA3
330
1E
100
AcDbEntity
  8
CENTER
100
AcDbLine
 10
40.45015699999999
 20
91.857827
 30
0.0
 11
40.45015699999999
 21
91.67782700000001
 31
0.0
  0
LINE
  5
FA4
330
1E
100
AcDbEntity
  8
CENTER
100
AcDbLine
 10
40.360157
 20
91.767827
 30
0.0
 11
40.54015699999999
 21
91.767827
 31
0.0
  0
LINE
  5
FA5
330
1E
100
AcDbEntity
  8
CENTER
100
AcDbLine
 10
38.860157
 20
92.017827
 30
0.0
 11
39.040157
 21
92.017827
 31
0.0
  0
LINE
  5
FA6
330
1E
100
AcDbEntity
  8
CENTER
100
AcDbLine
 10
38.950157
 20
92.10782700000001
 30
0.0
 11
38.950157
 21
91.927827
 31
0.0
  0
LINE
  5
FA7
330
1E
100
AcDbEntity
  8
CENTER
100
AcDbLine
 10
57.950157
 20
77.79482699999999
 30
0.0
 11
57.950157
 21
77.61482700000001
 31
0.0
  0
LINE
  5
FA8
330
1E
100
AcDbEntity
  8
CENTER
100
AcDbLine
 10
57.860157
 20
77.70482700000001
 30
0.0
 11
58.04015699999999
 21
77.70482700000001
 31
0.0
  0
LINE
  5
FA9
330
1E
100
AcDbEntity
  8
CENTER
100
AcDbLine
 10
59.36015699999999
 20
77.45482700000001
 30
0.0
 11
59.54015699999999
 21
77.45482700000001
 31
0.0
  0
LINE
  5
FAA
330
1E
100
AcDbEntity
  8
CENTER
100
AcDbLine
 10
59.45015699999999
 20
77.544827
 30
0.0
 11
59.45015699999999
 21
77.364827
 31
0.0
  0
LINE
  5
FAB
330
1E
100
AcDbEntity
  8
CENTER
100
AcDbLine
 10
60.86015699999999
 20
77.70482700000001
 30
0.0
 11
61.04015699999999
 21
77.70482700000001
 31
0.0
  0
LINE
  5
FAC
330
1E
100
AcDbEntity
  8
CENTER
100
AcDbLine
 10
60.950157
 20
77.79482699999999
 30
0.0
 11
60.950157
 21
77.61482700000001
 31
0.0
  0
LINE
  5
FAD
330
1E
100
AcDbEntity
  8
CENTER
100
AcDbLine
 10
54.95015699999999
 20
77.79482699999999
 30
0.0
 11
54.95015699999999
 21
77.61482700000001
 31
0.0
  0
LINE
  5
FAE
330
1E
100
AcDbEntity
  8
CENTER
100
AcDbLine
 10
54.86015699999999
 20
77.70482700000001
 30
0.0
 11
55.040157
 21
77.70482700000001
 31
0.0
  0
LINE
  5
FAF
330
1E
100
AcDbEntity
  8
CENTER
100
AcDbLine
 10
56.36015699999999
 20
77.45482700000001
 30
0.0
 11
56.54015699999999
 21
77.45482700000001
 31
0.0
  0
LINE
  5
FB0
330
1E
100
AcDbEntity
  8
CENTER
100
AcDbLine
 10
56.450157
 20
77.544827
 30
0.0
 11
56.450157
 21
77.364827
 31
0.0
  0
LINE
  5
FB1
330
1E
100
AcDbEntity
  8
CENTER
100
AcDbLine
 10
53.450157
 20
77.544827
 30
0.0
 11
53.450157
 21
77.364827
 31
0.0
  0
LINE
  5
FB2
330
1E
100
AcDbEntity
  8
CENTER
100
AcDbLine
 10
53.36015699999999
 20
77.45482700000001
 30
0.0
 11
53.54015699999999
 21
77.45482700000001
 31
0.0
  0
LINE
  5
FB3
330
1E
100
AcDbEntity
  8
CENTER
100
AcDbLine
 10
51.860157
 20
77.70482700000001
 30
0.0
 11
52.040157
 21
77.70482700000001
 31
0.0
  0
LINE
  5
FB4
330
1E
100
AcDbEntity
  8
CENTER
100
AcDbLine
 10
51.95015699999999
 20
77.79482699999999
 30
0.0
 11
51.95015699999999
 21
77.61482700000001
 31
0.0
  0
LINE
  5
FB5
330
1E
100
AcDbEntity
  8
CENTER
100
AcDbLine
 10
62.45015699999999
 20
77.544827
 30
0.0
 11
62.45015699999999
 21
77.364827
 31
0.0
  0
LINE
  5
FB6
330
1E
100
AcDbEntity
  8
CENTER
100
AcDbLine
 10
62.540157
 20
77.45482700000001
 30
0.0
 11
62.36015699999999
 21
77.45482700000001
 31
0.0
  0
LINE
  5
FB7
330
1E
100
AcDbEntity
  8
CENTER
100
AcDbLine
 10
64.04015699999999
 20
77.70482700000001
 30
0.0
 11
63.86015699999999
 21
77.70482700000001
 31
0.0
  0
LINE
  5
FB8
330
1E
100
AcDbEntity
  8
CENTER
100
AcDbLine
 10
63.950157
 20
77.79482699999999
 30
0.0
 11
63.950157
 21
77.61482700000001
 31
0.0
  0
LINE
  5
FB9
330
1E
100
AcDbEntity
  8
CENTER
100
AcDbLine
 10
44.95015699999999
 20
92.10782700000001
 30
0.0
 11
44.95015699999999
 21
91.927827
 31
0.0
  0
LINE
  5
FBA
330
1E
100
AcDbEntity
  8
CENTER
100
AcDbLine
 10
45.040157
 20
92.017827
 30
0.0
 11
44.860157
 21
92.017827
 31
0.0
  0
LINE
  5
FBB
330
1E
100
AcDbEntity
  8
CENTER
100
AcDbLine
 10
43.540157
 20
91.767827
 30
0.0
 11
43.36015699999999
 21
91.767827
 31
0.0
  0
LINE
  5
FBC
330
1E
100
AcDbEntity
  8
CENTER
100
AcDbLine
 10
43.450157
 20
91.857827
 30
0.0
 11
43.450157
 21
91.67782700000001
 31
0.0
  0
LINE
  5
FBD
330
1E
100
AcDbEntity
  8
CENTER
100
AcDbLine
 10
44.95015699999999
 20
91.799327
 30
0.0
 11
44.95015699999999
 21
84.73632700000001
 31
0.0
  0
LINE
  5
FBE
330
1E
100
AcDbEntity
  8
CENTER
100
AcDbLine
 10
43.450157
 20
91.54932700000001
 30
0.0
 11
43.450157
 21
84.73632700000001
 31
0.0
  0
ARC
  5
FBF
330
1E
100
AcDbEntity
  8
OBJECT
100
AcDbCircle
 10
64.356657
 20
77.70482700000001
 30
0.0
 40
0.0935
100
AcDbArc
 50
270.0
 51
90.0
  0
ARC
  5
FC0
330
1E
100
AcDbEntity
  8
OBJECT
100
AcDbCircle
 10
63.54365699999999
 20
77.70482700000001
 30
0.0
 40
0.0935
100
AcDbArc
 50
90.0
 51
270.0
  0
LINE
  5
FC1
330
1E
100
AcDbEntity
  8
OBJECT
100
AcDbLine
 10
63.54365699999999
 20
77.798327
 30
0.0
 11
64.356657
 21
77.798327
 31
0.0
  0
LINE
  5
FC2
330
1E
100
AcDbEntity
  8
OBJECT
100
AcDbLine
 10
64.356657
 20
77.611327
 30
0.0
 11
63.54365699999999
 21
77.611327
 31
0.0
  0
LINE
  5
FC3
330
1E
100
AcDbEntity
  8
OBJECT
100
AcDbLine
 10
62.85665699999999
 20
77.361327
 30
0.0
 11
62.043657
 21
77.361327
 31
0.0
  0
LINE
  5
FC4
330
1E
100
AcDbEntity
  8
OBJECT
100
AcDbLine
 10
62.043657
 20
77.548327
 30
0.0
 11
62.85665699999999
 21
77.548327
 31
0.0
  0
ARC
  5
FC5
330
1E
100
AcDbEntity
  8
OBJECT
100
AcDbCircle
 10
62.043657
 20
77.45482700000001
 30
0.0
 40
0.0935
100
AcDbArc
 50
90.0
 51
270.0
  0
ARC
  5
FC6
330
1E
100
AcDbEntity
  8
OBJECT
100
AcDbCircle
 10
62.85665699999999
 20
77.45482700000001
 30
0.0
 40
0.0935
100
AcDbArc
 50
270.0
 51
90.0
  0
ARC
  5
FC7
330
1E
100
AcDbEntity
  8
OBJECT
100
AcDbCircle
 10
45.356657
 20
92.017827
 30
0.0
 40
0.0935
100
AcDbArc
 50
270.0
 51
90.0
  0
ARC
  5
FC8
330
1E
100
AcDbEntity
  8
OBJECT
100
AcDbCircle
 10
44.543657
 20
92.017827
 30
0.0
 40
0.0935
100
AcDbArc
 50
90.0
 51
270.0
  0
LINE
  5
FC9
330
1E
100
AcDbEntity
  8
OBJECT
100
AcDbLine
 10
44.543657
 20
92.111327
 30
0.0
 11
45.356657
 21
92.111327
 31
0.0
  0
LINE
  5
FCA
330
1E
100
AcDbEntity
  8
OBJECT
100
AcDbLine
 10
45.356657
 20
91.92432700000001
 30
0.0
 11
44.543657
 21
91.92432700000001
 31
0.0
  0
LINE
  5
FCB
330
1E
100
AcDbEntity
  8
OBJECT
100
AcDbLine
 10
43.85665699999999
 20
91.674327
 30
0.0
 11
43.043657
 21
91.674327
 31
0.0
  0
LINE
  5
FCC
330
1E
100
AcDbEntity
  8
OBJECT
100
AcDbLine
 10
43.043657
 20
91.86132699999999
 30
0.0
 11
43.85665699999999
 21
91.86132699999999
 31
0.0
  0
ARC
  5
FCD
330
1E
100
AcDbEntity
  8
OBJECT
100
AcDbCircle
 10
43.043657
 20
91.767827
 30
0.0
 40
0.0935
100
AcDbArc
 50
90.0
 51
270.0
  0
ARC
  5
FCE
330
1E
100
AcDbEntity
  8
OBJECT
100
AcDbCircle
 10
43.85665699999999
 20
91.767827
 30
0.0
 40
0.0935
100
AcDbArc
 50
270.0
 51
90.0
  0
ARC
  5
FCF
330
1E
100
AcDbEntity
  8
OBJECT
100
AcDbCircle
 10
46.043657
 20
91.767827
 30
0.0
 40
0.0935
100
AcDbArc
 50
90.0
 51
270.0
  0
ARC
  5
FD0
330
1E
100
AcDbEntity
  8
OBJECT
100
AcDbCircle
 10
46.856657
 20
91.767827
 30
0.0
 40
0.0935
100
AcDbArc
 50
270.0
 51
90.0
  0
LINE
  5
FD1
330
1E
100
AcDbEntity
  8
OBJECT
100
AcDbLine
 10
46.856657
 20
91.86132699999999
 30
0.0
 11
46.043657
 21
91.86132699999999
 31
0.0
  0
LINE
  5
FD2
330
1E
100
AcDbEntity
  8
OBJECT
100
AcDbLine
 10
46.043657
 20
91.674327
 30
0.0
 11
46.856657
 21
91.674327
 31
0.0
  0
ARC
  5
FD3
330
1E
100
AcDbEntity
  8
OBJECT
100
AcDbCircle
 10
65.043657
 20
77.45482700000001
 30
0.0
 40
0.0935
100
AcDbArc
 50
90.0
 51
270.0
  0
ARC
  5
FD4
330
1E
100
AcDbEntity
  8
OBJECT
100
AcDbCircle
 10
65.85665699999999
 20
77.45482700000001
 30
0.0
 40
0.0935
100
AcDbArc
 50
270.0
 51
90.0
  0
LINE
  5
FD5
330
1E
100
AcDbEntity
  8
OBJECT
100
AcDbLine
 10
65.85665699999999
 20
77.548327
 30
0.0
 11
65.043657
 21
77.548327
 31
0.0
  0
LINE
  5
FD6
330
1E
100
AcDbEntity
  8
OBJECT
100
AcDbLine
 10
65.043657
 20
77.361327
 30
0.0
 11
65.85665699999999
 21
77.361327
 31
0.0
  0
LINE
  5
FD7
330
1E
100
AcDbEntity
  8
CENTER
100
AcDbLine
 10
46.450157
 20
91.54932700000001
 30
0.0
 11
46.450157
 21
84.73632700000001
 31
0.0
  0
LINE
  5
FD8
330
1E
100
AcDbEntity
  8
CENTER
100
AcDbLine
 10
46.450157
 20
91.857827
 30
0.0
 11
46.450157
 21
91.67782700000001
 31
0.0
  0
LINE
  5
FD9
330
1E
100
AcDbEntity
  8
CENTER
100
AcDbLine
 10
46.360157
 20
91.767827
 30
0.0
 11
46.540157
 21
91.767827
 31
0.0
  0
LINE
  5
FDA
330
1E
100
AcDbEntity
  8
CENTER
100
AcDbLine
 10
65.360157
 20
77.45482700000001
 30
0.0
 11
65.54015699999999
 21
77.45482700000001
 31
0.0
  0
LINE
  5
FDB
330
1E
100
AcDbEntity
  8
CENTER
100
AcDbLine
 10
65.45015699999999
 20
77.544827
 30
0.0
 11
65.45015699999999
 21
77.364827
 31
0.0
  0
LINE
  5
FDC
330
1E
100
AcDbEntity
  8
CENTER
100
AcDbLine
 10
66.95015699999999
 20
77.79482699999999
 30
0.0
 11
66.95015699999999
 21
77.61482700000001
 31
0.0
  0
LINE
  5
FDD
330
1E
100
AcDbEntity
  8
CENTER
100
AcDbLine
 10
67.04015699999999
 20
77.70482700000001
 30
0.0
 11
66.860157
 21
77.70482700000001
 31
0.0
  0
LINE
  5
FDE
330
1E
100
AcDbEntity
  8
CENTER
100
AcDbLine
 10
48.040157
 20
92.017827
 30
0.0
 11
47.860157
 21
92.017827
 31
0.0
  0
LINE
  5
FDF
330
1E
100
AcDbEntity
  8
CENTER
100
AcDbLine
 10
47.95015699999999
 20
92.10782700000001
 30
0.0
 11
47.95015699999999
 21
91.927827
 31
0.0
  0
LINE
  5
FE0
330
1E
100
AcDbEntity
  8
CENTER
100
AcDbLine
 10
47.95015699999999
 20
91.799327
 30
0.0
 11
47.95015699999999
 21
84.73632700000001
 31
0.0
  0
ARC
  5
FE1
330
1E
100
AcDbEntity
  8
OBJECT
100
AcDbCircle
 10
67.356657
 20
77.70482700000001
 30
0.0
 40
0.0935
100
AcDbArc
 50
270.0
 51
90.0
  0
ARC
  5
FE2
330
1E
100
AcDbEntity
  8
OBJECT
100
AcDbCircle
 10
66.54365699999999
 20
77.70482700000001
 30
0.0
 40
0.0935
100
AcDbArc
 50
90.0
 51
270.0
  0
LINE
  5
FE3
330
1E
100
AcDbEntity
  8
OBJECT
100
AcDbLine
 10
66.54365699999999
 20
77.798327
 30
0.0
 11
67.356657
 21
77.798327
 31
0.0
  0
LINE
  5
FE4
330
1E
100
AcDbEntity
  8
OBJECT
100
AcDbLine
 10
67.356657
 20
77.611327
 30
0.0
 11
66.54365699999999
 21
77.611327
 31
0.0
  0
ARC
  5
FE5
330
1E
100
AcDbEntity
  8
OBJECT
100
AcDbCircle
 10
48.35665699999999
 20
92.017827
 30
0.0
 40
0.0935
100
AcDbArc
 50
270.0
 51
90.0
  0
ARC
  5
FE6
330
1E
100
AcDbEntity
  8
OBJECT
100
AcDbCircle
 10
47.543657
 20
92.017827
 30
0.0
 40
0.0935
100
AcDbArc
 50
90.0
 51
270.0
  0
LINE
  5
FE7
330
1E
100
AcDbEntity
  8
OBJECT
100
AcDbLine
 10
47.543657
 20
92.111327
 30
0.0
 11
48.35665699999999
 21
92.111327
 31
0.0
  0
LINE
  5
FE8
330
1E
100
AcDbEntity
  8
OBJECT
100
AcDbLine
 10
48.35665699999999
 20
91.92432700000001
 30
0.0
 11
47.543657
 21
91.92432700000001
 31
0.0
  0
LINE
  5
FE9
330
1E
100
AcDbEntity
  8
CENTER
100
AcDbLine
 10
68.45015699999999
 20
77.544827
 30
0.0
 11
68.45015699999999
 21
77.364827
 31
0.0
  0
LINE
  5
FEA
330
1E
100
AcDbEntity
  8
CENTER
100
AcDbLine
 10
68.54015699999999
 20
77.45482700000001
 30
0.0
 11
68.360157
 21
77.45482700000001
 31
0.0
  0
LINE
  5
FEB
330
1E
100
AcDbEntity
  8
CENTER
100
AcDbLine
 10
49.540157
 20
91.767827
 30
0.0
 11
49.360157
 21
91.767827
 31
0.0
  0
LINE
  5
FEC
330
1E
100
AcDbEntity
  8
CENTER
100
AcDbLine
 10
49.45015699999999
 20
91.857827
 30
0.0
 11
49.45015699999999
 21
91.67782700000001
 31
0.0
  0
LINE
  5
FED
330
1E
100
AcDbEntity
  8
CENTER
100
AcDbLine
 10
49.45015699999999
 20
91.54932700000001
 30
0.0
 11
49.45015699999999
 21
84.73632700000001
 31
0.0
  0
LINE
  5
FEE
330
1E
100
AcDbEntity
  8
OBJECT
100
AcDbLine
 10
68.856657
 20
77.361327
 30
0.0
 11
68.04365699999999
 21
77.361327
 31
0.0
  0
LINE
  5
FEF
330
1E
100
AcDbEntity
  8
OBJECT
100
AcDbLine
 10
68.04365699999999
 20
77.548327
 30
0.0
 11
68.856657
 21
77.548327
 31
0.0
  0
ARC
  5
FF0
330
1E
100
AcDbEntity
  8
OBJECT
100
AcDbCircle
 10
68.04365699999999
 20
77.45482700000001
 30
0.0
 40
0.0935
100
AcDbArc
 50
90.0
 51
270.0
  0
ARC
  5
FF1
330
1E
100
AcDbEntity
  8
OBJECT
100
AcDbCircle
 10
68.856657
 20
77.45482700000001
 30
0.0
 40
0.0935
100
AcDbArc
 50
270.0
 51
90.0
  0
LINE
  5
FF2
330
1E
100
AcDbEntity
  8
OBJECT
100
AcDbLine
 10
49.856657
 20
91.674327
 30
0.0
 11
49.043657
 21
91.674327
 31
0.0
  0
LINE
  5
FF3
330
1E
100
AcDbEntity
  8
OBJECT
100
AcDbLine
 10
49.043657
 20
91.86132699999999
 30
0.0
 11
49.856657
 21
91.86132699999999
 31
0.0
  0
ARC
  5
FF4
330
1E
100
AcDbEntity
  8
OBJECT
100
AcDbCircle
 10
49.043657
 20
91.767827
 30
0.0
 40
0.0935
100
AcDbArc
 50
90.0
 51
270.0
  0
ARC
  5
FF5
330
1E
100
AcDbEntity
  8
OBJECT
100
AcDbCircle
 10
49.856657
 20
91.767827
 30
0.0
 40
0.0935
100
AcDbArc
 50
270.0
 51
90.0
  0
LINE
  5
FF6
330
1E
100
AcDbEntity
  8
OBJECT
100
AcDbLine
 10
50.543657
 20
91.92432700000001
 30
0.0
 11
51.356657
 21
91.92432700000001
 31
0.0
  0
LINE
  5
FF7
330
1E
100
AcDbEntity
  8
OBJECT
100
AcDbLine
 10
51.356657
 20
92.111327
 30
0.0
 11
50.543657
 21
92.111327
 31
0.0
  0
ARC
  5
FF8
330
1E
100
AcDbEntity
  8
OBJECT
100
AcDbCircle
 10
51.356657
 20
92.017827
 30
0.0
 40
0.0935
100
AcDbArc
 50
270.0
 51
90.0
  0
ARC
  5
FF9
330
1E
100
AcDbEntity
  8
OBJECT
100
AcDbCircle
 10
50.543657
 20
92.017827
 30
0.0
 40
0.0935
100
AcDbArc
 50
90.0
 51
270.0
  0
LINE
  5
FFA
330
1E
100
AcDbEntity
  8
OBJECT
100
AcDbLine
 10
69.543657
 20
77.611327
 30
0.0
 11
70.356657
 21
77.611327
 31
0.0
  0
LINE
  5
FFB
330
1E
100
AcDbEntity
  8
OBJECT
100
AcDbLine
 10
70.356657
 20
77.798327
 30
0.0
 11
69.543657
 21
77.798327
 31
0.0
  0
ARC
  5
FFC
330
1E
100
AcDbEntity
  8
OBJECT
100
AcDbCircle
 10
70.356657
 20
77.70482700000001
 30
0.0
 40
0.0935
100
AcDbArc
 50
270.0
 51
90.0
  0
ARC
  5
FFD
330
1E
100
AcDbEntity
  8
OBJECT
100
AcDbCircle
 10
69.543657
 20
77.70482700000001
 30
0.0
 40
0.0935
100
AcDbArc
 50
90.0
 51
270.0
  0
LINE
  5
FFE
330
1E
100
AcDbEntity
  8
CENTER
100
AcDbLine
 10
50.950157
 20
91.799327
 30
0.0
 11
50.950157
 21
84.73632700000001
 31
0.0
  0
LINE
  5
FFF
330
1E
100
AcDbEntity
  8
CENTER
100
AcDbLine
 10
50.860157
 20
92.017827
 30
0.0
 11
51.040157
 21
92.017827
 31
0.0
  0
LINE
  5
1000
330
1E
100
AcDbEntity
  8
CENTER
100
AcDbLine
 10
50.950157
 20
92.10782700000001
 30
0.0
 11
50.950157
 21
91.927827
 31
0.0
  0
LINE
  5
1001
330
1E
100
AcDbEntity
  8
CENTER
100
AcDbLine
 10
69.95015699999999
 20
77.79482699999999
 30
0.0
 11
69.95015699999999
 21
77.61482700000001
 31
0.0
  0
LINE
  5
1002
330
1E
100
AcDbEntity
  8
CENTER
100
AcDbLine
 10
69.860157
 20
77.70482700000001
 30
0.0
 11
70.040157
 21
77.70482700000001
 31
0.0
  0
ARC
  5
1003
330
1E
100
AcDbEntity
  8
OBJECT
100
AcDbCircle
 10
52.043657
 20
91.767827
 30
0.0
 40
0.0935
100
AcDbArc
 50
90.0
 51
270.0
  0
ARC
  5
1004
330
1E
100
AcDbEntity
  8
OBJECT
100
AcDbCircle
 10
52.85665699999999
 20
91.767827
 30
0.0
 40
0.0935
100
AcDbArc
 50
270.0
 51
90.0
  0
LINE
  5
1005
330
1E
100
AcDbEntity
  8
OBJECT
100
AcDbLine
 10
52.85665699999999
 20
91.86132699999999
 30
0.0
 11
52.043657
 21
91.86132699999999
 31
0.0
  0
LINE
  5
1006
330
1E
100
AcDbEntity
  8
OBJECT
100
AcDbLine
 10
52.043657
 20
91.674327
 30
0.0
 11
52.85665699999999
 21
91.674327
 31
0.0
  0
ARC
  5
1007
330
1E
100
AcDbEntity
  8
OBJECT
100
AcDbCircle
 10
71.04365699999999
 20
77.45482700000001
 30
0.0
 40
0.0935
100
AcDbArc
 50
90.0
 51
270.0
  0
ARC
  5
1008
330
1E
100
AcDbEntity
  8
OBJECT
100
AcDbCircle
 10
71.856657
 20
77.45482700000001
 30
0.0
 40
0.0935
100
AcDbArc
 50
270.0
 51
90.0
  0
LINE
  5
1009
330
1E
100
AcDbEntity
  8
OBJECT
100
AcDbLine
 10
71.856657
 20
77.548327
 30
0.0
 11
71.04365699999999
 21
77.548327
 31
0.0
  0
LINE
  5
100A
330
1E
100
AcDbEntity
  8
OBJECT
100
AcDbLine
 10
71.04365699999999
 20
77.361327
 30
0.0
 11
71.856657
 21
77.361327
 31
0.0
  0
LINE
  5
100B
330
1E
100
AcDbEntity
  8
CENTER
100
AcDbLine
 10
52.45015699999999
 20
91.54932700000001
 30
0.0
 11
52.45015699999999
 21
84.73632700000001
 31
0.0
  0
LINE
  5
100C
330
1E
100
AcDbEntity
  8
CENTER
100
AcDbLine
 10
52.45015699999999
 20
91.857827
 30
0.0
 11
52.45015699999999
 21
91.67782700000001
 31
0.0
  0
LINE
  5
100D
330
1E
100
AcDbEntity
  8
CENTER
100
AcDbLine
 10
52.360157
 20
91.767827
 30
0.0
 11
52.540157
 21
91.767827
 31
0.0
  0
LINE
  5
100E
330
1E
100
AcDbEntity
  8
CENTER
100
AcDbLine
 10
71.360157
 20
77.45482700000001
 30
0.0
 11
71.54015699999999
 21
77.45482700000001
 31
0.0
  0
LINE
  5
100F
330
1E
100
AcDbEntity
  8
CENTER
100
AcDbLine
 10
71.45015699999999
 20
77.544827
 30
0.0
 11
71.45015699999999
 21
77.364827
 31
0.0
  0
LINE
  5
1010
330
1E
100
AcDbEntity
  8
OBJECT
100
AcDbLine
 10
53.54365699999999
 20
91.92432700000001
 30
0.0
 11
54.35665699999999
 21
91.92432700000001
 31
0.0
  0
LINE
  5
1011
330
1E
100
AcDbEntity
  8
OBJECT
100
AcDbLine
 10
54.35665699999999
 20
92.111327
 30
0.0
 11
53.54365699999999
 21
92.111327
 31
0.0
  0
ARC
  5
1012
330
1E
100
AcDbEntity
  8
OBJECT
100
AcDbCircle
 10
54.35665699999999
 20
92.017827
 30
0.0
 40
0.0935
100
AcDbArc
 50
270.0
 51
90.0
  0
ARC
  5
1013
330
1E
100
AcDbEntity
  8
OBJECT
100
AcDbCircle
 10
53.54365699999999
 20
92.017827
 30
0.0
 40
0.0935
100
AcDbArc
 50
90.0
 51
270.0
  0
LINE
  5
1014
330
1E
100
AcDbEntity
  8
OBJECT
100
AcDbLine
 10
72.543657
 20
77.611327
 30
0.0
 11
73.35665699999999
 21
77.611327
 31
0.0
  0
LINE
  5
1015
330
1E
100
AcDbEntity
  8
OBJECT
100
AcDbLine
 10
73.35665699999999
 20
77.798327
 30
0.0
 11
72.543657
 21
77.798327
 31
0.0
  0
ARC
  5
1016
330
1E
100
AcDbEntity
  8
OBJECT
100
AcDbCircle
 10
73.35665699999999
 20
77.70482700000001
 30
0.0
 40
0.0935
100
AcDbArc
 50
270.0
 51
90.0
  0
ARC
  5
1017
330
1E
100
AcDbEntity
  8
OBJECT
100
AcDbCircle
 10
72.543657
 20
77.70482700000001
 30
0.0
 40
0.0935
100
AcDbArc
 50
90.0
 51
270.0
  0
LINE
  5
1018
330
1E
100
AcDbEntity
  8
CENTER
100
AcDbLine
 10
53.950157
 20
91.799327
 30
0.0
 11
53.950157
 21
84.73632700000001
 31
0.0
  0
LINE
  5
1019
330
1E
100
AcDbEntity
  8
CENTER
100
AcDbLine
 10
53.950157
 20
92.10782700000001
 30
0.0
 11
53.950157
 21
91.927827
 31
0.0
  0
LINE
  5
101A
330
1E
100
AcDbEntity
  8
CENTER
100
AcDbLine
 10
53.86015699999999
 20
92.017827
 30
0.0
 11
54.04015699999999
 21
92.017827
 31
0.0
  0
LINE
  5
101B
330
1E
100
AcDbEntity
  8
CENTER
100
AcDbLine
 10
72.860157
 20
77.70482700000001
 30
0.0
 11
73.04015699999999
 21
77.70482700000001
 31
0.0
  0
LINE
  5
101C
330
1E
100
AcDbEntity
  8
CENTER
100
AcDbLine
 10
72.95015699999999
 20
77.79482699999999
 30
0.0
 11
72.95015699999999
 21
77.61482700000001
 31
0.0
  0
LINE
  5
101D
330
1E
100
AcDbEntity
  8
CENTER
100
AcDbLine
 10
74.45015699999999
 20
77.544827
 30
0.0
 11
74.45015699999999
 21
77.364827
 31
0.0
  0
LINE
  5
101E
330
1E
100
AcDbEntity
  8
CENTER
100
AcDbLine
 10
74.54015699999999
 20
77.45482700000001
 30
0.0
 11
74.360157
 21
77.45482700000001
 31
0.0
  0
LINE
  5
101F
330
1E
100
AcDbEntity
  8
CENTER
100
AcDbLine
 10
55.54015699999999
 20
91.767827
 30
0.0
 11
55.360157
 21
91.767827
 31
0.0
  0
LINE
  5
1020
330
1E
100
AcDbEntity
  8
CENTER
100
AcDbLine
 10
55.450157
 20
91.857827
 30
0.0
 11
55.450157
 21
91.67782700000001
 31
0.0
  0
LINE
  5
1021
330
1E
100
AcDbEntity
  8
CENTER
100
AcDbLine
 10
55.450157
 20
91.54932700000001
 30
0.0
 11
55.450157
 21
84.73632700000001
 31
0.0
  0
LINE
  5
1022
330
1E
100
AcDbEntity
  8
OBJECT
100
AcDbLine
 10
74.856657
 20
77.361327
 30
0.0
 11
74.04365699999999
 21
77.361327
 31
0.0
  0
LINE
  5
1023
330
1E
100
AcDbEntity
  8
OBJECT
100
AcDbLine
 10
74.04365699999999
 20
77.548327
 30
0.0
 11
74.856657
 21
77.548327
 31
0.0
  0
ARC
  5
1024
330
1E
100
AcDbEntity
  8
OBJECT
100
AcDbCircle
 10
74.04365699999999
 20
77.45482700000001
 30
0.0
 40
0.0935
100
AcDbArc
 50
90.0
 51
270.0
  0
ARC
  5
1025
330
1E
100
AcDbEntity
  8
OBJECT
100
AcDbCircle
 10
74.856657
 20
77.45482700000001
 30
0.0
 40
0.0935
100
AcDbArc
 50
270.0
 51
90.0
  0
LINE
  5
1026
330
1E
100
AcDbEntity
  8
OBJECT
100
AcDbLine
 10
55.85665699999999
 20
91.674327
 30
0.0
 11
55.043657
 21
91.674327
 31
0.0
  0
LINE
  5
1027
330
1E
100
AcDbEntity
  8
OBJECT
100
AcDbLine
 10
55.043657
 20
91.86132699999999
 30
0.0
 11
55.85665699999999
 21
91.86132699999999
 31
0.0
  0
ARC
  5
1028
330
1E
100
AcDbEntity
  8
OBJECT
100
AcDbCircle
 10
55.043657
 20
91.767827
 30
0.0
 40
0.0935
100
AcDbArc
 50
90.0
 51
270.0
  0
ARC
  5
1029
330
1E
100
AcDbEntity
  8
OBJECT
100
AcDbCircle
 10
55.85665699999999
 20
91.767827
 30
0.0
 40
0.0935
100
AcDbArc
 50
270.0
 51
90.0
  0
LINE
  5
102A
330
1E
100
AcDbEntity
  8
OBJECT
100
AcDbLine
 10
56.54365699999999
 20
91.92432700000001
 30
0.0
 11
57.35665699999999
 21
91.92432700000001
 31
0.0
  0
LINE
  5
102B
330
1E
100
AcDbEntity
  8
OBJECT
100
AcDbLine
 10
57.35665699999999
 20
92.111327
 30
0.0
 11
56.54365699999999
 21
92.111327
 31
0.0
  0
ARC
  5
102C
330
1E
100
AcDbEntity
  8
OBJECT
100
AcDbCircle
 10
57.35665699999999
 20
92.017827
 30
0.0
 40
0.0935
100
AcDbArc
 50
270.0
 51
90.0
  0
ARC
  5
102D
330
1E
100
AcDbEntity
  8
OBJECT
100
AcDbCircle
 10
56.54365699999999
 20
92.017827
 30
0.0
 40
0.0935
100
AcDbArc
 50
90.0
 51
270.0
  0
LINE
  5
102E
330
1E
100
AcDbEntity
  8
OBJECT
100
AcDbLine
 10
75.54365699999999
 20
77.611327
 30
0.0
 11
76.356657
 21
77.611327
 31
0.0
  0
LINE
  5
102F
330
1E
100
AcDbEntity
  8
OBJECT
100
AcDbLine
 10
76.356657
 20
77.798327
 30
0.0
 11
75.54365699999999
 21
77.798327
 31
0.0
  0
ARC
  5
1030
330
1E
100
AcDbEntity
  8
OBJECT
100
AcDbCircle
 10
76.356657
 20
77.70482700000001
 30
0.0
 40
0.0935
100
AcDbArc
 50
270.0
 51
90.0
  0
ARC
  5
1031
330
1E
100
AcDbEntity
  8
OBJECT
100
AcDbCircle
 10
75.54365699999999
 20
77.70482700000001
 30
0.0
 40
0.0935
100
AcDbArc
 50
90.0
 51
270.0
  0
LINE
  5
1032
330
1E
100
AcDbEntity
  8
CENTER
100
AcDbLine
 10
56.95015699999999
 20
91.799327
 30
0.0
 11
56.95015699999999
 21
84.73632700000001
 31
0.0
  0
LINE
  5
1033
330
1E
100
AcDbEntity
  8
CENTER
100
AcDbLine
 10
56.86015699999999
 20
92.017827
 30
0.0
 11
57.04015699999999
 21
92.017827
 31
0.0
  0
LINE
  5
1034
330
1E
100
AcDbEntity
  8
CENTER
100
AcDbLine
 10
56.95015699999999
 20
92.10782700000001
 30
0.0
 11
56.95015699999999
 21
91.927827
 31
0.0
  0
LINE
  5
1035
330
1E
100
AcDbEntity
  8
CENTER
100
AcDbLine
 10
75.95015699999999
 20
77.79482699999999
 30
0.0
 11
75.95015699999999
 21
77.61482700000001
 31
0.0
  0
LINE
  5
1036
330
1E
100
AcDbEntity
  8
CENTER
100
AcDbLine
 10
75.860157
 20
77.70482700000001
 30
0.0
 11
76.04015699999999
 21
77.70482700000001
 31
0.0
  0
LINE
  5
1037
330
1E
100
AcDbEntity
  8
CENTER
100
AcDbLine
 10
51.95015699999999
 20
84.73632700000001
 30
0.0
 11
51.95015699999999
 21
77.923327
 31
0.0
  0
LINE
  5
1038
330
1E
100
AcDbEntity
  8
CENTER
100
AcDbLine
 10
53.450157
 20
84.73632700000001
 30
0.0
 11
53.450157
 21
77.673327
 31
0.0
  0
LINE
  5
1039
330
1E
100
AcDbEntity
  8
CENTER
100
AcDbLine
 10
54.95015699999999
 20
84.73632700000001
 30
0.0
 11
54.95015699999999
 21
77.923327
 31
0.0
  0
LINE
  5
103A
330
1E
100
AcDbEntity
  8
CENTER
100
AcDbLine
 10
56.450157
 20
84.73632700000001
 30
0.0
 11
56.450157
 21
77.673327
 31
0.0
  0
LINE
  5
103B
330
1E
100
AcDbEntity
  8
CENTER
100
AcDbLine
 10
57.950157
 20
84.73632700000001
 30
0.0
 11
57.950157
 21
77.923327
 31
0.0
  0
LINE
  5
103C
330
1E
100
AcDbEntity
  8
CENTER
100
AcDbLine
 10
59.45015699999999
 20
84.73632700000001
 30
0.0
 11
59.45015699999999
 21
77.673327
 31
0.0
  0
LINE
  5
103D
330
1E
100
AcDbEntity
  8
CENTER
100
AcDbLine
 10
60.950157
 20
84.73632700000001
 30
0.0
 11
60.950157
 21
77.923327
 31
0.0
  0
LINE
  5
103E
330
1E
100
AcDbEntity
  8
CENTER
100
AcDbLine
 10
62.45015699999999
 20
84.73632700000001
 30
0.0
 11
62.45015699999999
 21
77.673327
 31
0.0
  0
LINE
  5
103F
330
1E
100
AcDbEntity
  8
CENTER
100
AcDbLine
 10
63.950157
 20
84.73632700000001
 30
0.0
 11
63.950157
 21
77.923327
 31
0.0
  0
LINE
  5
1040
330
1E
100
AcDbEntity
  8
CENTER
100
AcDbLine
 10
65.45015699999999
 20
84.73632700000001
 30
0.0
 11
65.45015699999999
 21
77.673327
 31
0.0
  0
LINE
  5
1041
330
1E
100
AcDbEntity
  8
CENTER
100
AcDbLine
 10
66.95015699999999
 20
84.73632700000001
 30
0.0
 11
66.95015699999999
 21
77.923327
 31
0.0
  0
LINE
  5
1042
330
1E
100
AcDbEntity
  8
CENTER
100
AcDbLine
 10
68.45015699999999
 20
84.73632700000001
 30
0.0
 11
68.45015699999999
 21
77.673327
 31
0.0
  0
LINE
  5
1043
330
1E
100
AcDbEntity
  8
CENTER
100
AcDbLine
 10
69.95015699999999
 20
84.73632700000001
 30
0.0
 11
69.95015699999999
 21
77.923327
 31
0.0
  0
LINE
  5
1044
330
1E
100
AcDbEntity
  8
CENTER
100
AcDbLine
 10
71.45015699999999
 20
84.73632700000001
 30
0.0
 11
71.45015699999999
 21
77.673327
 31
0.0
  0
LINE
  5
1045
330
1E
100
AcDbEntity
  8
CENTER
100
AcDbLine
 10
72.95015699999999
 20
84.73632700000001
 30
0.0
 11
72.95015699999999
 21
77.923327
 31
0.0
  0
LINE
  5
1046
330
1E
100
AcDbEntity
  8
CENTER
100
AcDbLine
 10
74.45015699999999
 20
84.73632700000001
 30
0.0
 11
74.45015699999999
 21
77.673327
 31
0.0
  0
LINE
  5
1047
330
1E
100
AcDbEntity
  8
CENTER
100
AcDbLine
 10
75.95015699999999
 20
84.73632700000001
 30
0.0
 11
75.95015699999999
 21
77.923327
 31
0.0
  0
TEXT
  5
1048
330
1E
100
AcDbEntity
  8
TEXT
100
AcDbText
 10
3.354601
 20
109.1270919999999
 30
0.0
 40
1.0
  1
SLIDES
 41
0.75
  7
STANDARD
100
AcDbText
  0
TEXT
  5
1049
330
1E
100
AcDbEntity
  8
TEXT
100
AcDbText
 10
26.214413
 20
109.1270919999999
 30
0.0
 40
1.0
  1
BRIGHT ZINC PLATE
 41
0.75
  7
STANDARD
100
AcDbText
  0
LINE
  5
104A
330
1E
100
AcDbEntity
  8
TEXT
100
AcDbLine
 10
7.843935
 20
109.090187
 30
0.0
 11
25.688222
 21
109.090187
 31
0.0
  0
INSERT
  5
104B
330
1E
100
AcDbEntity
  8
OBJECT
100
AcDbBlockReference
  2
HB
 10
0.0
 20
0.0
 30
0.0
 41
8.0
 42
8.0
 43
8.0
  0
LINE
  5
104C
330
1E
100
AcDbEntity
  8
TITLE
100
AcDbLine
 10
0.496
 20
2.16
 30
0.0
 11
80.464
 21
2.16
 31
0.0
  0
LINE
  5
104D
330
1E
100
AcDbEntity
  8
TITLE
100
AcDbLine
 10
0.496
 20
3.823999999999999
 30
0.0
 11
80.464
 21
3.823999999999999
 31
0.0
  0
LINE
  5
104E
330
1E
100
AcDbEntity
  8
TITLE
100
AcDbLine
 10
0.496
 20
5.487999999999999
 30
0.0
 11
80.464
 21
5.487999999999999
 31
0.0
  0
LINE
  5
104F
330
1E
100
AcDbEntity
  8
TITLE
100
AcDbLine
 10
0.496
 20
7.152
 30
0.0
 11
80.464
 21
7.152
 31
0.0
  0
LINE
  5
1050
330
1E
100
AcDbEntity
  8
TITLE
100
AcDbLine
 10
0.496
 20
8.816
 30
0.0
 11
80.464
 21
8.816
 31
0.0
  0
LINE
  5
1051
330
1E
100
AcDbEntity
  8
TITLE
100
AcDbLine
 10
0.496
 20
10.48
 30
0.0
 11
80.464
 21
10.48
 31
0.0
  0
LINE
  5
1052
330
1E
100
AcDbEntity
  8
TITLE
100
AcDbLine
 10
0.496
 20
12.144
 30
0.0
 11
80.464
 21
12.144
 31
0.0
  0
LINE
  5
1053
330
1E
100
AcDbEntity
  8
TITLE
100
AcDbLine
 10
0.496
 20
13.808
 30
0.0
 11
80.464
 21
13.808
 31
0.0
  0
LINE
  5
1054
330
1E
100
AcDbEntity
  8
TITLE
100
AcDbLine
 10
0.496
 20
15.472
 30
0.0
 11
27.596
 21
15.472
 31
0.0
  0
LINE
  5
1055
330
1E
100
AcDbEntity
  8
TITLE
100
AcDbLine
 10
0.496
 20
18.8
 30
0.0
 11
80.464
 21
18.8
 31
0.0
  0
LINE
  5
1056
330
1E
100
AcDbEntity
  8
TITLE
100
AcDbLine
 10
8.496
 20
0.496
 30
0.0
 11
8.496
 21
15.472
 31
0.0
  0
LINE
  5
1057
330
1E
100
AcDbEntity
  8
TITLE
100
AcDbLine
 10
16.49599999999999
 20
0.496
 30
0.0
 11
16.49599999999999
 21
18.8
 31
0.0
  0
LINE
  5
1058
330
1E
100
AcDbEntity
  8
TITLE
100
AcDbLine
 10
21.19599999999999
 20
0.496
 30
0.0
 11
21.19599999999999
 21
15.472
 31
0.0
  0
LINE
  5
1059
330
1E
100
AcDbEntity
  8
TITLE
100
AcDbLine
 10
27.596
 20
0.496
 30
0.0
 11
27.596
 21
18.8
 31
0.0
  0
LINE
  5
105A
330
1E
100
AcDbEntity
  8
TITLE
100
AcDbLine
 10
49.996
 20
0.496
 30
0.0
 11
49.996
 21
18.8
 31
0.0
  0
LINE
  5
105B
330
1E
100
AcDbEntity
  8
TITLE
100
AcDbLine
 10
56.053722
 20
0.496
 30
0.0
 11
56.053722
 21
18.8
 31
0.0
  0
LINE
  5
105C
330
1E
100
AcDbEntity
  8
DIM
100
AcDbLine
 10
15.509448
 20
59.120787
 30
0.0
 11
15.509448
 21
63.219352
 31
0.0
  0
LINE
  5
105D
330
1E
100
AcDbEntity
  8
DIM
100
AcDbLine
 10
32.509448
 20
59.120787
 30
0.0
 11
32.509448
 21
63.219352
 31
0.0
  0
LINE
  5
105E
330
1E
100
AcDbEntity
  8
DIM
100
AcDbLine
 10
16.949448
 20
62.475352
 30
0.0
 11
22.864739
 21
62.475352
 31
0.0
  0
LINE
  5
105F
330
1E
100
AcDbEntity
  8
DIM
100
AcDbLine
 10
31.06944799999999
 20
62.475352
 30
0.0
 11
25.00624399999999
 21
62.475352
 31
0.0
  0
SOLID
  5
1060
330
1E
100
AcDbEntity
  8
DIM
100
AcDbTrace
 10
16.949448
 20
62.235352
 30
0.0
 11
16.949448
 21
62.715352
 31
0.0
 12
15.509448
 22
62.475352
 32
0.0
 13
15.509448
 23
62.475352
 33
0.0
  0
SOLID
  5
1061
330
1E
100
AcDbEntity
  8
DIM
100
AcDbTrace
 10
31.06944799999999
 20
62.235352
 30
0.0
 11
31.06944799999999
 21
62.715352
 31
0.0
 12
32.509448
 22
62.475352
 32
0.0
 13
32.509448
 23
62.475352
 33
0.0
  0
TEXT
  5
1062
330
1E
100
AcDbEntity
  8
DIM
100
AcDbText
 10
23.676114
 20
61.975352
 30
0.0
 40
1.0
  1
A
 41
0.75
  7
STANDARD
100
AcDbText
  0
LINE
  5
1063
330
1E
100
AcDbEntity
  8
DIM
100
AcDbLine
 10
15.072448
 20
60.12078699999999
 30
0.0
 11
15.072448
 21
65.72791600000001
 31
0.0
  0
LINE
  5
1064
330
1E
100
AcDbEntity
  8
DIM
100
AcDbLine
 10
32.94644799999999
 20
60.12078699999999
 30
0.0
 11
32.94644799999999
 21
65.72791600000001
 31
0.0
  0
LINE
  5
1065
330
1E
100
AcDbEntity
  8
DIM
100
AcDbLine
 10
16.512448
 20
64.98391600000001
 30
0.0
 11
22.864739
 21
64.98391600000001
 31
0.0
  0
LINE
  5
1066
330
1E
100
AcDbEntity
  8
DIM
100
AcDbLine
 10
31.506448
 20
64.98391600000001
 30
0.0
 11
25.00624399999999
 21
64.98391600000001
 31
0.0
  0
SOLID
  5
1067
330
1E
100
AcDbEntity
  8
DIM
100
AcDbTrace
 10
16.512448
 20
64.743916
 30
0.0
 11
16.512448
 21
65.223916
 31
0.0
 12
15.072448
 22
64.98391600000001
 32
0.0
 13
15.072448
 23
64.98391600000001
 33
0.0
  0
SOLID
  5
1068
330
1E
100
AcDbEntity
  8
DIM
100
AcDbTrace
 10
31.506448
 20
64.743916
 30
0.0
 11
31.506448
 21
65.223916
 31
0.0
 12
32.94644799999999
 22
64.98391600000001
 32
0.0
 13
32.94644799999999
 23
64.98391600000001
 33
0.0
  0
TEXT
  5
1069
330
1E
100
AcDbEntity
  8
DIM
100
AcDbText
 10
23.676114
 20
64.483916
 30
0.0
 40
1.0
  1
E
 41
0.75
  7
STANDARD
100
AcDbText
  0
LINE
  5
106A
330
1E
100
AcDbEntity
  8
DIM
100
AcDbLine
 10
31.700157
 20
84.236327
 30
0.0
 11
31.700157
 21
80.19917099999998
 31
0.0
  0
LINE
  5
106B
330
1E
100
AcDbEntity
  8
DIM
100
AcDbLine
 10
33.140157
 20
80.94317099999999
 30
0.0
 11
40.182272
 21
80.94317099999999
 31
0.0
  0
LINE
  5
106C
330
1E
100
AcDbEntity
  8
DIM
100
AcDbLine
 10
49.260157
 20
80.94317099999999
 30
0.0
 11
42.38591999999999
 21
80.94317099999999
 31
0.0
  0
SOLID
  5
106D
330
1E
100
AcDbEntity
  8
DIM
100
AcDbTrace
 10
33.140157
 20
80.703171
 30
0.0
 11
33.140157
 21
81.183171
 31
0.0
 12
31.700157
 22
80.94317099999999
 32
0.0
 13
31.700157
 23
80.94317099999999
 33
0.0
  0
SOLID
  5
106E
330
1E
100
AcDbEntity
  8
DIM
100
AcDbTrace
 10
49.260157
 20
80.703171
 30
0.0
 11
49.260157
 21
81.183171
 31
0.0
 12
50.70015699999999
 22
80.94317099999999
 32
0.0
 13
50.70015699999999
 23
80.94317099999999
 33
0.0
  0
TEXT
  5
106F
330
1E
100
AcDbEntity
  8
DIM
100
AcDbText
 10
40.86682399999999
 20
80.44317099999998
 30
0.0
 40
1.0
  1
D
 41
0.75
  7
STANDARD
100
AcDbText
  0
LINE
  5
1070
330
1E
100
AcDbEntity
  8
DIM
100
AcDbLine
 10
52.140157
 20
80.94317099999999
 30
0.0
 11
62.226179
 21
80.94317099999999
 31
0.0
  0
LINE
  5
1071
330
1E
100
AcDbEntity
  8
DIM
100
AcDbLine
 10
75.76015699999999
 20
80.94317099999999
 30
0.0
 11
64.38508900000001
 21
80.94317099999999
 31
0.0
  0
SOLID
  5
1072
330
1E
100
AcDbEntity
  8
DIM
100
AcDbTrace
 10
52.140157
 20
80.703171
 30
0.0
 11
52.140157
 21
81.183171
 31
0.0
 12
50.70015699999999
 22
80.94317099999999
 32
0.0
 13
50.70015699999999
 23
80.94317099999999
 33
0.0
  0
SOLID
  5
1073
330
1E
100
AcDbEntity
  8
DIM
100
AcDbTrace
 10
75.76015699999999
 20
80.703171
 30
0.0
 11
75.76015699999999
 21
81.183171
 31
0.0
 12
77.20015699999999
 22
80.94317099999999
 32
0.0
 13
77.20015699999999
 23
80.94317099999999
 33
0.0
  0
TEXT
  5
1074
330
1E
100
AcDbEntity
  8
DIM
100
AcDbText
 10
62.911434
 20
80.44317099999998
 30
0.0
 40
1.0
  1
B
 41
0.75
  7
STANDARD
100
AcDbText
  0
LINE
  5
1075
330
1E
100
AcDbEntity
  8
DIM
100
AcDbLine
 10
50.950157
 20
75.361327
 30
0.0
 11
50.950157
 21
68.87817099999999
 31
0.0
  0
LINE
  5
1076
330
1E
100
AcDbEntity
  8
DIM
100
AcDbLine
 10
76.95015699999999
 20
75.361327
 30
0.0
 11
76.95015699999999
 21
68.87817099999999
 31
0.0
  0
LINE
  5
1077
330
1E
100
AcDbEntity
  8
DIM
100
AcDbLine
 10
52.390157
 20
69.622171
 30
0.0
 11
62.176824
 21
69.622171
 31
0.0
  0
LINE
  5
1078
330
1E
100
AcDbEntity
  8
DIM
100
AcDbLine
 10
75.51015699999999
 20
69.622171
 30
0.0
 11
65.72348999999999
 21
69.622171
 31
0.0
  0
SOLID
  5
1079
330
1E
100
AcDbEntity
  8
DIM
100
AcDbTrace
 10
52.390157
 20
69.382171
 30
0.0
 11
52.390157
 21
69.86217099999999
 31
0.0
 12
50.950157
 22
69.622171
 32
0.0
 13
50.950157
 23
69.622171
 33
0.0
  0
SOLID
  5
107A
330
1E
100
AcDbEntity
  8
DIM
100
AcDbTrace
 10
75.51015699999999
 20
69.382171
 30
0.0
 11
75.51015699999999
 21
69.86217099999999
 31
0.0
 12
76.95015699999999
 22
69.622171
 32
0.0
 13
76.95015699999999
 23
69.622171
 33
0.0
  0
TEXT
  5
107B
330
1E
100
AcDbEntity
  8
DIM
100
AcDbText
 10
63.616824
 20
69.12217099999999
 30
0.0
 40
1.0
  1
C
 41
0.75
  7
STANDARD
100
AcDbText
  0
LINE
  5
107C
330
1E
100
AcDbEntity
  8
DIM
100
AcDbLine
 10
20.07992199999999
 20
55.680787
 30
0.0
 11
20.07992199999999
 21
54.24078699999999
 31
0.0
  0
LINE
  5
107D
330
1E
100
AcDbEntity
  8
DIM
100
AcDbLine
 10
20.07992199999999
 20
60.06078699999999
 30
0.0
 11
20.07992199999999
 21
61.500787
 31
0.0
  0
LINE
  5
107E
330
1E
100
AcDbEntity
  8
DIM
100
AcDbLine
 10
20.07992199999999
 20
54.24078699999999
 30
0.0
 11
21.519922
 21
54.24078699999999
 31
0.0
  0
SOLID
  5
107F
330
1E
100
AcDbEntity
  8
DIM
100
AcDbTrace
 10
20.319922
 20
55.680787
 30
0.0
 11
19.839922
 21
55.680787
 31
0.0
 12
20.07992199999999
 22
57.120787
 32
0.0
 13
20.07992199999999
 23
57.120787
 33
0.0
  0
SOLID
  5
1080
330
1E
100
AcDbEntity
  8
DIM
100
AcDbTrace
 10
20.319922
 20
60.06078699999999
 30
0.0
 11
19.839922
 21
60.06078699999999
 31
0.0
 12
20.07992199999999
 22
58.620787
 32
0.0
 13
20.07992199999999
 23
58.620787
 33
0.0
  0
TEXT
  5
1081
330
1E
100
AcDbEntity
  8
DIM
100
AcDbText
 10
21.97841899999999
 20
53.740787
 30
0.0
 40
1.0
  1
1.500
 41
0.75
  7
STANDARD
100
AcDbText
  0
SOLID
  5
1082
330
1E
100
AcDbEntity
  8
DIM
100
AcDbTrace
 10
45.838675
 20
57.810787
 30
0.0
 11
46.318675
 21
57.810787
 31
0.0
 12
46.078675
 22
56.37078699999999
 32
0.0
 13
46.078675
 23
56.37078699999999
 33
0.0
  0
LINE
  5
1083
330
1E
100
AcDbEntity
  8
DIM
100
AcDbLine
 10
46.078675
 20
57.810787
 30
0.0
 11
46.078675
 21
58.764471
 31
0.0
  0
LINE
  5
1084
330
1E
100
AcDbEntity
  8
DIM
100
AcDbLine
 10
42.009339
 20
56.120787
 30
0.0
 11
37.051429
 21
56.120787
 31
0.0
  0
LINE
  5
1085
330
1E
100
AcDbEntity
  8
DIM
100
AcDbLine
 10
41.977143
 20
59.620787
 30
0.0
 11
37.051429
 21
59.620787
 31
0.0
  0
LINE
  5
1086
330
1E
100
AcDbEntity
  8
DIM
100
AcDbLine
 10
48.255404
 20
56.37078699999999
 30
0.0
 11
41.74482
 21
56.37078699999999
 31
0.0
  0
LINE
  5
1087
330
1E
100
AcDbEntity
  8
DIM
100
AcDbLine
 10
48.384188
 20
56.120787
 30
0.0
 11
43.00742099999999
 21
56.120787
 31
0.0
  0
LINE
  5
1088
330
1E
100
AcDbEntity
  8
DIM
100
AcDbLine
 10
51.95015699999999
 20
76.521827
 30
0.0
 11
51.95015699999999
 21
71.662159
 31
0.0
  0
LINE
  5
1089
330
1E
100
AcDbEntity
  8
DIM
100
AcDbLine
 10
75.95015699999999
 20
76.521827
 30
0.0
 11
75.95015699999999
 21
71.662159
 31
0.0
  0
LINE
  5
108A
330
1E
100
AcDbEntity
  8
DIM
100
AcDbLine
 10
74.51015699999999
 20
72.406159
 30
0.0
 11
73.070157
 21
72.406159
 31
0.0
  0
LINE
  5
108B
330
1E
100
AcDbEntity
  8
DIM
100
AcDbLine
 10
53.390157
 20
72.406159
 30
0.0
 11
54.83015699999999
 21
72.406159
 31
0.0
  0
SOLID
  5
108C
330
1E
100
AcDbEntity
  8
DIM
100
AcDbTrace
 10
74.51015699999999
 20
72.64615899999999
 30
0.0
 11
74.51015699999999
 21
72.16615899999999
 31
0.0
 12
75.95015699999999
 22
72.406159
 32
0.0
 13
75.95015699999999
 23
72.406159
 33
0.0
  0
SOLID
  5
108D
330
1E
100
AcDbEntity
  8
DIM
100
AcDbTrace
 10
53.390157
 20
72.64615899999999
 30
0.0
 11
53.390157
 21
72.16615899999999
 31
0.0
 12
51.95015699999999
 22
72.406159
 32
0.0
 13
51.95015699999999
 23
72.406159
 33
0.0
  0
TEXT
  5
108E
330
1E
100
AcDbEntity
  8
DIM
100
AcDbText
 10
55.218394
 20
71.90429499999999
 30
0.0
 40
1.0
  1
(F) SPACES @ 1.500 = (G)
 41
0.8265251428571431
  7
STANDARD
 72
     5
 11
72.575422
 21
71.90429499999999
 31
0.0
100
AcDbText
  0
LINE
  5
108F
330
1E
100
AcDbEntity
  8
DIM
100
AcDbLine
 10
32.360157
 20
92.017827
 30
0.0
 11
23.326713
 21
92.017827
 31
0.0
  0
LINE
  5
1090
330
1E
100
AcDbEntity
  8
DIM
100
AcDbLine
 10
51.360157
 20
77.70482700000001
 30
0.0
 11
23.326713
 21
77.70482700000001
 31
0.0
  0
LINE
  5
1091
330
1E
100
AcDbEntity
  8
DIM
100
AcDbLine
 10
24.070713
 20
90.577827
 30
0.0
 11
24.070713
 21
86.80182700000001
 31
0.0
  0
LINE
  5
1092
330
1E
100
AcDbEntity
  8
DIM
100
AcDbLine
 10
24.070713
 20
79.144827
 30
0.0
 11
24.070713
 21
82.92182700000001
 31
0.0
  0
SOLID
  5
1093
330
1E
100
AcDbEntity
  8
DIM
100
AcDbTrace
 10
24.310713
 20
90.577827
 30
0.0
 11
23.830713
 21
90.577827
 31
0.0
 12
24.070713
 22
92.017827
 32
0.0
 13
24.070713
 23
92.017827
 33
0.0
  0
SOLID
  5
1094
330
1E
100
AcDbEntity
  8
DIM
100
AcDbTrace
 10
24.310713
 20
79.144827
 30
0.0
 11
23.830713
 21
79.144827
 31
0.0
 12
24.070713
 22
77.70482700000001
 32
0.0
 13
24.070713
 23
77.70482700000001
 33
0.0
  0
TEXT
  5
1095
330
1E
100
AcDbEntity
  8
DIM
100
AcDbText
 10
20.74585499999999
 20
85.19382699999999
 30
0.0
 40
1.0
  1
(H) SPACES
 41
0.75
  7
STANDARD
100
AcDbText
  0
TEXT
  5
1096
330
1E
100
AcDbEntity
  8
DIM
100
AcDbText
 10
20.047524
 20
83.529827
 30
0.0
 40
1.0
  1
@ 0.500 = (I)
 41
0.75
  7
STANDARD
100
AcDbText
  0
LINE
  5
1097
330
1E
100
AcDbEntity
  8
DIM
100
AcDbLine
 10
61.13724000000001
 20
91.08222099999998
 30
0.0
 11
62.57724
 21
91.08222099999998
 31
0.0
  0
TEXT
  5
1098
330
1E
100
AcDbEntity
  8
DIM
100
AcDbText
 10
63.128412
 20
90.59547499999998
 30
0.0
 40
1.0
  1
0.187 x 1.000
 41
0.75
  7
STANDARD
100
AcDbText
  0
TEXT
  5
1099
330
1E
100
AcDbEntity
  8
DIM
100
AcDbText
 10
63.128412
 20
88.92880899999999
 30
0.0
 40
1.0
  1
OBLONG
 41
0.75
  7
STANDARD
100
AcDbText
  0
TEXT
  5
109A
330
1E
100
AcDbEntity
  8
DIM
100
AcDbText
 10
63.128412
 20
87.26214199999999
 30
0.0
 40
1.0
  1
(J) HOLES
 41
0.75
  7
STANDARD
100
AcDbText
  0
TEXT
  5
109B
330
1E
100
AcDbEntity
  8
TEXT
100
AcDbText
 10
5.871
 20
16.63599999999999
 30
0.0
 40
1.0
  1
PART NO.
 41
0.75
  7
STANDARD
 72
     1
 11
8.496
 21
16.63599999999999
 31
0.0
100
AcDbText
  0
TEXT
  5
109C
330
1E
100
AcDbEntity
  8
TEXT
100
AcDbText
 10
2.871
 20
14.14
 30
0.0
 40
1.0
  1
PLAIN
 41
0.75
  7
STANDARD
 72
     1
 11
4.496
 21
14.14
 31
0.0
100
AcDbText
  0
TEXT
  5
109D
330
1E
100
AcDbEntity
  8
TEXT
100
AcDbText
 10
1.996
 20
12.473333
 30
0.0
 40
1.0
  1
SH-2387
 41
0.75
  7
STANDARD
 72
     1
 11
4.496
 21
12.473333
 31
0.0
100
AcDbText
  0
TEXT
  5
109E
330
1E
100
AcDbEntity
  8
TEXT
100
AcDbText
 10
1.996
 20
10.80666699999999
 30
0.0
 40
1.0
  1
SH-2388
 41
0.75
  7
STANDARD
 72
     1
 11
4.496
 21
10.80666699999999
 31
0.0
100
AcDbText
  0
TEXT
  5
109F
330
1E
100
AcDbEntity
  8
TEXT
100
AcDbText
 10
1.996
 20
9.14
 30
0.0
 40
1.0
  1
SH-2389
 41
0.75
  7
STANDARD
 72
     1
 11
4.496
 21
9.14
 31
0.0
100
AcDbText
  0
TEXT
  5
10A0
330
1E
100
AcDbEntity
  8
TEXT
100
AcDbText
 10
2.0585
 20
7.473333
 30
0.0
 40
1.0
  1
SH-2390
 41
0.75
  7
STANDARD
 72
     1
 11
4.496
 21
7.473333
 31
0.0
100
AcDbText
  0
TEXT
  5
10A1
330
1E
100
AcDbEntity
  8
TEXT
100
AcDbText
 10
1.996
 20
5.806667
 30
0.0
 40
1.0
  1
SH-2487
 41
0.75
  7
STANDARD
 72
     1
 11
4.496
 21
5.806667
 31
0.0
100
AcDbText
  0
TEXT
  5
10A2
330
1E
100
AcDbEntity
  8
TEXT
100
AcDbText
 10
1.996
 20
4.139999999999999
 30
0.0
 40
1.0
  1
SH-2488
 41
0.75
  7
STANDARD
 72
     1
 11
4.496
 21
4.139999999999999
 31
0.0
100
AcDbText
  0
TEXT
  5
10A3
330
1E
100
AcDbEntity
  8
TEXT
100
AcDbText
 10
1.996
 20
2.473333
 30
0.0
 40
1.0
  1
SH-2489
 41
0.75
  7
STANDARD
 72
     1
 11
4.496
 21
2.473333
 31
0.0
100
AcDbText
  0
TEXT
  5
10A4
330
1E
100
AcDbEntity
  8
TEXT
100
AcDbText
 10
2.0585
 20
0.806667
 30
0.0
 40
1.0
  1
SH-2490
 41
0.75
  7
STANDARD
 72
     1
 11
4.496
 21
0.806667
 31
0.0
100
AcDbText
  0
TEXT
  5
10A5
330
1E
100
AcDbEntity
  8
TEXT
100
AcDbText
 10
10.24599999999999
 20
14.14
 30
0.0
 40
1.0
  1
VENTED
 41
0.75
  7
STANDARD
 72
     1
 11
12.496
 21
14.14
 31
0.0
100
AcDbText
  0
TEXT
  5
10A6
330
1E
100
AcDbEntity
  8
TEXT
100
AcDbText
 10
10.12099999999999
 20
12.473333
 30
0.0
 40
1.0
  1
SH-2391
 41
0.75
  7
STANDARD
 72
     1
 11
12.496
 21
12.473333
 31
0.0
100
AcDbText
  0
TEXT
  5
10A7
330
1E
100
AcDbEntity
  8
TEXT
100
AcDbText
 10
9.995999999999998
 20
10.80666699999999
 30
0.0
 40
1.0
  1
SH-2392
 41
0.75
  7
STANDARD
 72
     1
 11
12.496
 21
10.80666699999999
 31
0.0
100
AcDbText
  0
TEXT
  5
10A8
330
1E
100
AcDbEntity
  8
TEXT
100
AcDbText
 10
9.995999999999998
 20
9.14
 30
0.0
 40
1.0
  1
SH-2393
 41
0.75
  7
STANDARD
 72
     1
 11
12.496
 21
9.14
 31
0.0
100
AcDbText
  0
TEXT
  5
10A9
330
1E
100
AcDbEntity
  8
TEXT
100
AcDbText
 10
9.995999999999998
 20
7.473333
 30
0.0
 40
1.0
  1
SH-2394
 41
0.75
  7
STANDARD
 72
     1
 11
12.496
 21
7.473333
 31
0.0
100
AcDbText
  0
TEXT
  5
10AA
330
1E
100
AcDbEntity
  8
TEXT
100
AcDbText
 10
10.12099999999999
 20
5.806667
 30
0.0
 40
1.0
  1
SH-2491
 41
0.75
  7
STANDARD
 72
     1
 11
12.496
 21
5.806667
 31
0.0
100
AcDbText
  0
TEXT
  5
10AB
330
1E
100
AcDbEntity
  8
TEXT
100
AcDbText
 10
9.995999999999998
 20
4.139999999999999
 30
0.0
 40
1.0
  1
SH-2492
 41
0.75
  7
STANDARD
 72
     1
 11
12.496
 21
4.139999999999999
 31
0.0
100
AcDbText
  0
TEXT
  5
10AC
330
1E
100
AcDbEntity
  8
TEXT
100
AcDbText
 10
9.995999999999998
 20
2.473333
 30
0.0
 40
1.0
  1
SH-2493
 41
0.75
  7
STANDARD
 72
     1
 11
12.496
 21
2.473333
 31
0.0
100
AcDbText
  0
TEXT
  5
10AD
330
1E
100
AcDbEntity
  8
TEXT
100
AcDbText
 10
9.995999999999998
 20
0.806667
 30
0.0
 40
1.0
  1
SH-2494
 41
0.75
  7
STANDARD
 72
     1
 11
12.496
 21
0.806667
 31
0.0
100
AcDbText
  0
TEXT
  5
10AE
330
1E
100
AcDbEntity
  8
TEXT
100
AcDbText
 10
18.846
 20
14.14
 30
0.0
 40
1.0
  1
A
 41
0.75
  7
STANDARD
 72
     1
 11
19.096
 21
14.14
 31
0.0
100
AcDbText
  0
TEXT
  5
10AF
330
1E
100
AcDbEntity
  8
TEXT
100
AcDbText
 10
24.146
 20
14.14
 30
0.0
 40
1.0
  1
B
 41
0.75
  7
STANDARD
 72
     1
 11
24.396
 21
14.14
 31
0.0
100
AcDbText
  0
TEXT
  5
10B0
330
1E
100
AcDbEntity
  8
TEXT
100
AcDbText
 10
18.596
 20
12.476
 30
0.0
 40
1.0
  1
17
 41
0.75
  7
STANDARD
 72
     1
 11
19.096
 21
12.476
 31
0.0
100
AcDbText
  0
TEXT
  5
10B1
330
1E
100
AcDbEntity
  8
TEXT
100
AcDbText
 10
18.596
 20
7.475999999999999
 30
0.0
 40
1.0
  1
17
 41
0.75
  7
STANDARD
 72
     1
 11
19.096
 21
7.475999999999999
 31
0.0
100
AcDbText
  0
TEXT
  5
10B2
330
1E
100
AcDbEntity
  8
TEXT
100
AcDbText
 10
18.471
 20
5.809333
 30
0.0
 40
1.0
  1
22
 41
0.75
  7
STANDARD
 72
     1
 11
19.096
 21
5.809333
 31
0.0
100
AcDbText
  0
TEXT
  5
10B3
330
1E
100
AcDbEntity
  8
TEXT
100
AcDbText
 10
18.471
 20
0.8093329999999999
 30
0.0
 40
1.0
  1
22
 41
0.75
  7
STANDARD
 72
     1
 11
19.096
 21
0.8093329999999999
 31
0.0
100
AcDbText
  0
TEXT
  5
10B4
330
1E
100
AcDbEntity
  8
TEXT
100
AcDbText
 10
22.7085
 20
12.476
 30
0.0
 40
1.0
  1
14.250
 41
0.75
  7
STANDARD
 72
     1
 11
24.396
 21
12.476
 31
0.0
100
AcDbText
  0
TEXT
  5
10B5
330
1E
100
AcDbEntity
  8
TEXT
100
AcDbText
 10
22.7085
 20
10.809333
 30
0.0
 40
1.0
  1
17.750
 41
0.75
  7
STANDARD
 72
     1
 11
24.396
 21
10.809333
 31
0.0
100
AcDbText
  0
TEXT
  5
10B6
330
1E
100
AcDbEntity
  8
TEXT
100
AcDbText
 10
22.7085
 20
9.142666999999999
 30
0.0
 40
1.0
  1
21.250
 41
0.75
  7
STANDARD
 72
     1
 11
24.396
 21
9.142666999999999
 31
0.0
100
AcDbText
  0
TEXT
  5
10B7
330
1E
100
AcDbEntity
  8
TEXT
100
AcDbText
 10
22.646
 20
7.475999999999999
 30
0.0
 40
1.0
  1
26.500
 41
0.75
  7
STANDARD
 72
     1
 11
24.396
 21
7.475999999999999
 31
0.0
100
AcDbText
  0
LINE
  5
10B8
330
1E
100
AcDbEntity
  8
TEXT
100
AcDbLine
 10
19.096
 20
9.066
 30
0.0
 11
19.096
 21
11.894
 31
0.0
  0
LINE
  5
10B9
330
1E
100
AcDbEntity
  8
TEXT
100
AcDbLine
 10
19.096
 20
2.41
 30
0.0
 11
19.096
 21
5.237999999999999
 31
0.0
  0
TEXT
  5
10BA
330
1E
100
AcDbEntity
  8
TEXT
100
AcDbText
 10
22.646
 20
0.8199999999999999
 30
0.0
 40
1.0
  1
26.500
 41
0.75
  7
STANDARD
 72
     1
 11
24.396
 21
0.8199999999999999
 31
0.0
100
AcDbText
  0
TEXT
  5
10BB
330
1E
100
AcDbEntity
  8
TEXT
100
AcDbText
 10
22.7085
 20
2.486666999999999
 30
0.0
 40
1.0
  1
21.250
 41
0.75
  7
STANDARD
 72
     1
 11
24.396
 21
2.486666999999999
 31
0.0
100
AcDbText
  0
TEXT
  5
10BC
330
1E
100
AcDbEntity
  8
TEXT
100
AcDbText
 10
22.7085
 20
4.153332999999999
 30
0.0
 40
1.0
  1
17.750
 41
0.75
  7
STANDARD
 72
     1
 11
24.396
 21
4.153332999999999
 31
0.0
100
AcDbText
  0
TEXT
  5
10BD
330
1E
100
AcDbEntity
  8
TEXT
100
AcDbText
 10
22.7085
 20
5.82
 30
0.0
 40
1.0
  1
14.250
 41
0.75
  7
STANDARD
 72
     1
 11
24.396
 21
5.82
 31
0.0
100
AcDbText
  0
TEXT
  5
10BE
330
1E
100
AcDbEntity
  8
TEXT
100
AcDbText
 10
72.608866
 20
15.804
 30
0.0
 40
1.0
  1
I
 41
0.75
  7
STANDARD
 72
     1
 11
72.73386600000001
 21
15.804
 31
0.0
100
AcDbText
  0
TEXT
  5
10BF
330
1E
100
AcDbEntity
  8
TEXT
100
AcDbText
 10
77.973382
 20
15.804
 30
0.0
 40
1.0
  1
J
 41
0.75
  7
STANDARD
 72
     1
 11
78.223382
 21
15.804
 31
0.0
100
AcDbText
  0
TEXT
  5
10C0
330
1E
100
AcDbEntity
  8
TEXT
100
AcDbText
 10
71.108866
 20
12.476
 30
0.0
 40
1.0
  1
14.500
 41
0.75
  7
STANDARD
 72
     1
 11
72.73386600000001
 21
12.476
 31
0.0
100
AcDbText
  0
TEXT
  5
10C1
330
1E
100
AcDbEntity
  8
TEXT
100
AcDbText
 10
71.108866
 20
7.475999999999999
 30
0.0
 40
1.0
  1
14.500
 41
0.75
  7
STANDARD
 72
     1
 11
72.73386600000001
 21
7.475999999999999
 31
0.0
100
AcDbText
  0
TEXT
  5
10C2
330
1E
100
AcDbEntity
  8
TEXT
100
AcDbText
 10
71.046366
 20
5.809333
 30
0.0
 40
1.0
  1
20.500
 41
0.75
  7
STANDARD
 72
     1
 11
72.73386600000001
 21
5.809333
 31
0.0
100
AcDbText
  0
TEXT
  5
10C3
330
1E
100
AcDbEntity
  8
TEXT
100
AcDbText
 10
71.046366
 20
0.8173329999999999
 30
0.0
 40
1.0
  1
20.500
 41
0.75
  7
STANDARD
 72
     1
 11
72.73386600000001
 21
0.8173329999999999
 31
0.0
100
AcDbText
  0
TEXT
  5
10C4
330
1E
100
AcDbEntity
  8
TEXT
100
AcDbText
 10
77.285882
 20
12.476
 30
0.0
 40
1.0
  1
270
 41
0.75
  7
STANDARD
 72
     1
 11
78.223382
 21
12.476
 31
0.0
100
AcDbText
  0
TEXT
  5
10C5
330
1E
100
AcDbEntity
  8
TEXT
100
AcDbText
 10
77.285882
 20
10.809333
 30
0.0
 40
1.0
  1
330
 41
0.75
  7
STANDARD
 72
     1
 11
78.223382
 21
10.809333
 31
0.0
100
AcDbText
  0
TEXT
  5
10C6
330
1E
100
AcDbEntity
  8
TEXT
100
AcDbText
 10
77.285882
 20
9.142666999999999
 30
0.0
 40
1.0
  1
390
 41
0.75
  7
STANDARD
 72
     1
 11
78.223382
 21
9.142666999999999
 31
0.0
100
AcDbText
  0
TEXT
  5
10C7
330
1E
100
AcDbEntity
  8
TEXT
100
AcDbText
 10
77.410882
 20
7.475999999999999
 30
0.0
 40
1.0
  1
510
 41
0.75
  7
STANDARD
 72
     1
 11
78.223382
 21
7.475999999999999
 31
0.0
100
AcDbText
  0
TEXT
  5
10C8
330
1E
100
AcDbEntity
  8
TEXT
100
AcDbText
 10
77.348382
 20
0.8199999999999999
 30
0.0
 40
1.0
  1
714
 41
0.75
  7
STANDARD
 72
     1
 11
78.223382
 21
0.8199999999999999
 31
0.0
100
AcDbText
  0
TEXT
  5
10C9
330
1E
100
AcDbEntity
  8
TEXT
100
AcDbText
 10
77.223382
 20
2.486666999999999
 30
0.0
 40
1.0
  1
546
 41
0.75
  7
STANDARD
 72
     1
 11
78.223382
 21
2.486666999999999
 31
0.0
100
AcDbText
  0
TEXT
  5
10CA
330
1E
100
AcDbEntity
  8
TEXT
100
AcDbText
 10
77.223382
 20
4.153332999999999
 30
0.0
 40
1.0
  1
462
 41
0.75
  7
STANDARD
 72
     1
 11
78.223382
 21
4.153332999999999
 31
0.0
100
AcDbText
  0
TEXT
  5
10CB
330
1E
100
AcDbEntity
  8
TEXT
100
AcDbText
 10
77.223382
 20
5.82
 30
0.0
 40
1.0
  1
378
 41
0.75
  7
STANDARD
 72
     1
 11
78.223382
 21
5.82
 31
0.0
100
AcDbText
  0
LINE
  5
10CC
330
1E
100
AcDbEntity
  8
TEXT
100
AcDbLine
 10
72.73386600000001
 20
9.066
 30
0.0
 11
72.73386600000001
 21
11.894
 31
0.0
  0
LINE
  5
10CD
330
1E
100
AcDbEntity
  8
TEXT
100
AcDbLine
 10
72.73386600000001
 20
2.41
 30
0.0
 11
72.73386600000001
 21
5.237999999999999
 31
0.0
  0
TEXT
  5
10CE
330
1E
100
AcDbEntity
  8
TEXT
100
AcDbText
 10
57.664752
 20
15.804
 30
0.0
 40
1.0
  1
F
 41
0.75
  7
STANDARD
 72
     1
 11
57.914752
 21
15.804
 31
0.0
100
AcDbText
  0
TEXT
  5
10CF
330
1E
100
AcDbEntity
  8
TEXT
100
AcDbText
 10
62.696
 20
15.804
 30
0.0
 40
1.0
  1
G
 41
0.75
  7
STANDARD
 72
     1
 11
62.946
 21
15.804
 31
0.0
100
AcDbText
  0
TEXT
  5
10D0
330
1E
100
AcDbEntity
  8
TEXT
100
AcDbText
 10
67.384969
 20
15.804
 30
0.0
 40
1.0
  1
H
 41
0.75
  7
STANDARD
 72
     1
 11
67.63496899999999
 21
15.804
 31
0.0
100
AcDbText
  0
TEXT
  5
10D1
330
1E
100
AcDbEntity
  8
TEXT
100
AcDbText
 10
57.664752
 20
12.476
 30
0.0
 40
1.0
  1
8
 41
0.75
  7
STANDARD
 72
     1
 11
57.914752
 21
12.476
 31
0.0
100
AcDbText
  0
TEXT
  5
10D2
330
1E
100
AcDbEntity
  8
TEXT
100
AcDbText
 10
57.477252
 20
10.809333
 30
0.0
 40
1.0
  1
10
 41
0.75
  7
STANDARD
 72
     1
 11
57.914752
 21
10.809333
 31
0.0
100
AcDbText
  0
TEXT
  5
10D3
330
1E
100
AcDbEntity
  8
TEXT
100
AcDbText
 10
57.414752
 20
9.142666999999999
 30
0.0
 40
1.0
  1
12
 41
0.75
  7
STANDARD
 72
     1
 11
57.914752
 21
9.142666999999999
 31
0.0
100
AcDbText
  0
TEXT
  5
10D4
330
1E
100
AcDbEntity
  8
TEXT
100
AcDbText
 10
57.414752
 20
7.475999999999999
 30
0.0
 40
1.0
  1
16
 41
0.75
  7
STANDARD
 72
     1
 11
57.914752
 21
7.475999999999999
 31
0.0
100
AcDbText
  0
TEXT
  5
10D5
330
1E
100
AcDbEntity
  8
TEXT
100
AcDbText
 10
61.3835
 20
12.476
 30
0.0
 40
1.0
  1
12.000
 41
0.75
  7
STANDARD
 72
     1
 11
62.946
 21
12.476
 31
0.0
100
AcDbText
  0
TEXT
  5
10D6
330
1E
100
AcDbEntity
  8
TEXT
100
AcDbText
 10
61.3835
 20
10.809333
 30
0.0
 40
1.0
  1
15.000
 41
0.75
  7
STANDARD
 72
     1
 11
62.946
 21
10.809333
 31
0.0
100
AcDbText
  0
TEXT
  5
10D7
330
1E
100
AcDbEntity
  8
TEXT
100
AcDbText
 10
61.3835
 20
9.142666999999999
 30
0.0
 40
1.0
  1
18.000
 41
0.75
  7
STANDARD
 72
     1
 11
62.946
 21
9.142666999999999
 31
0.0
100
AcDbText
  0
TEXT
  5
10D8
330
1E
100
AcDbEntity
  8
TEXT
100
AcDbText
 10
61.2585
 20
7.475999999999999
 30
0.0
 40
1.0
  1
24.000
 41
0.75
  7
STANDARD
 72
     1
 11
62.946
 21
7.475999999999999
 31
0.0
100
AcDbText
  0
TEXT
  5
10D9
330
1E
100
AcDbEntity
  8
TEXT
100
AcDbText
 10
67.00996899999999
 20
12.476
 30
0.0
 40
1.0
  1
29
 41
0.75
  7
STANDARD
 72
     1
 11
67.63496899999999
 21
12.476
 31
0.0
100
AcDbText
  0
TEXT
  5
10DA
330
1E
100
AcDbEntity
  8
TEXT
100
AcDbText
 10
67.00996899999999
 20
7.475999999999999
 30
0.0
 40
1.0
  1
29
 41
0.75
  7
STANDARD
 72
     1
 11
67.63496899999999
 21
7.475999999999999
 31
0.0
100
AcDbText
  0
TEXT
  5
10DB
330
1E
100
AcDbEntity
  8
TEXT
100
AcDbText
 10
67.13496899999999
 20
5.809333
 30
0.0
 40
1.0
  1
41
 41
0.75
  7
STANDARD
 72
     1
 11
67.63496899999999
 21
5.809333
 31
0.0
100
AcDbText
  0
TEXT
  5
10DC
330
1E
100
AcDbEntity
  8
TEXT
100
AcDbText
 10
67.13496899999999
 20
0.8093329999999999
 30
0.0
 40
1.0
  1
41
 41
0.75
  7
STANDARD
 72
     1
 11
67.63496899999999
 21
0.8093329999999999
 31
0.0
100
AcDbText
  0
LINE
  5
10DD
330
1E
100
AcDbEntity
  8
TEXT
100
AcDbLine
 10
67.63496899999999
 20
9.066
 30
0.0
 11
67.63496899999999
 21
11.894
 31
0.0
  0
LINE
  5
10DE
330
1E
100
AcDbEntity
  8
TEXT
100
AcDbLine
 10
67.63496899999999
 20
2.41
 30
0.0
 11
67.63496899999999
 21
5.237999999999999
 31
0.0
  0
TEXT
  5
10DF
330
1E
100
AcDbEntity
  8
TEXT
100
AcDbText
 10
57.414752
 20
0.8199999999999999
 30
0.0
 40
1.0
  1
16
 41
0.75
  7
STANDARD
 72
     1
 11
57.914752
 21
0.8199999999999999
 31
0.0
100
AcDbText
  0
TEXT
  5
10E0
330
1E
100
AcDbEntity
  8
TEXT
100
AcDbText
 10
57.414752
 20
2.486666999999999
 30
0.0
 40
1.0
  1
12
 41
0.75
  7
STANDARD
 72
     1
 11
57.914752
 21
2.486666999999999
 31
0.0
100
AcDbText
  0
TEXT
  5
10E1
330
1E
100
AcDbEntity
  8
TEXT
100
AcDbText
 10
57.477252
 20
4.153332999999999
 30
0.0
 40
1.0
  1
10
 41
0.75
  7
STANDARD
 72
     1
 11
57.914752
 21
4.153332999999999
 31
0.0
100
AcDbText
  0
TEXT
  5
10E2
330
1E
100
AcDbEntity
  8
TEXT
100
AcDbText
 10
57.664752
 20
5.82
 30
0.0
 40
1.0
  1
8
 41
0.75
  7
STANDARD
 72
     1
 11
57.914752
 21
5.82
 31
0.0
100
AcDbText
  0
TEXT
  5
10E3
330
1E
100
AcDbEntity
  8
TEXT
100
AcDbText
 10
52.750412
 20
15.804
 30
0.0
 40
1.0
  1
E
 41
0.75
  7
STANDARD
 72
     1
 11
53.00041199999999
 21
15.804
 31
0.0
100
AcDbText
  0
TEXT
  5
10E4
330
1E
100
AcDbEntity
  8
TEXT
100
AcDbText
 10
51.250412
 20
12.476
 30
0.0
 40
1.0
  1
17.875
 41
0.75
  7
STANDARD
 72
     1
 11
53.00041199999999
 21
12.476
 31
0.0
100
AcDbText
  0
TEXT
  5
10E5
330
1E
100
AcDbEntity
  8
TEXT
100
AcDbText
 10
51.250412
 20
7.475999999999999
 30
0.0
 40
1.0
  1
17.875
 41
0.75
  7
STANDARD
 72
     1
 11
53.00041199999999
 21
7.475999999999999
 31
0.0
100
AcDbText
  0
TEXT
  5
10E6
330
1E
100
AcDbEntity
  8
TEXT
100
AcDbText
 10
51.12541199999999
 20
5.809333
 30
0.0
 40
1.0
  1
22.875
 41
0.75
  7
STANDARD
 72
     1
 11
53.00041199999999
 21
5.809333
 31
0.0
100
AcDbText
  0
TEXT
  5
10E7
330
1E
100
AcDbEntity
  8
TEXT
100
AcDbText
 10
51.12541199999999
 20
0.8093329999999999
 30
0.0
 40
1.0
  1
22.875
 41
0.75
  7
STANDARD
 72
     1
 11
53.00041199999999
 21
0.8093329999999999
 31
0.0
100
AcDbText
  0
LINE
  5
10E8
330
1E
100
AcDbEntity
  8
TEXT
100
AcDbLine
 10
53.00041199999999
 20
9.066
 30
0.0
 11
53.00041199999999
 21
11.894
 31
0.0
  0
LINE
  5
10E9
330
1E
100
AcDbEntity
  8
TEXT
100
AcDbLine
 10
53.00041199999999
 20
2.41
 30
0.0
 11
53.00041199999999
 21
5.237999999999999
 31
0.0
  0
LINE
  5
10EA
330
1E
100
AcDbEntity
  8
TITLE
100
AcDbLine
 10
27.596
 20
17.136
 30
0.0
 11
49.996
 21
17.136
 31
0.0
  0
LINE
  5
10EB
330
1E
100
AcDbEntity
  8
TITLE
100
AcDbLine
 10
34.908
 20
0.496
 30
0.0
 11
34.908
 21
17.136
 31
0.0
  0
LINE
  5
10EC
330
1E
100
AcDbEntity
  8
TITLE
100
AcDbLine
 10
42.68399999999999
 20
0.496
 30
0.0
 11
42.68399999999999
 21
17.136
 31
0.0
  0
TEXT
  5
10ED
330
1E
100
AcDbEntity
  8
TEXT
100
AcDbText
 10
37.171
 20
17.468
 30
0.0
 40
1.0
  1
SLIDE
 41
0.75
  7
STANDARD
 72
     1
 11
38.79599999999999
 21
17.468
 31
0.0
100
AcDbText
  0
TEXT
  5
10EE
330
1E
100
AcDbEntity
  8
TEXT
100
AcDbText
 10
29.127
 20
15.804
 30
0.0
 40
1.0
  1
LENGTH
 41
0.75
  7
STANDARD
 72
     1
 11
31.25199999999999
 21
15.804
 31
0.0
100
AcDbText
  0
TEXT
  5
10EF
330
1E
100
AcDbEntity
  8
TEXT
100
AcDbText
 10
31.002
 20
14.13733299999999
 30
0.0
 40
1.0
  1
C
 41
0.75
  7
STANDARD
 72
     1
 11
31.25199999999999
 21
14.13733299999999
 31
0.0
100
AcDbText
  0
TEXT
  5
10F0
330
1E
100
AcDbEntity
  8
TEXT
100
AcDbText
 10
30.752
 20
12.470667
 30
0.0
 40
1.0
  1
12
 41
0.75
  7
STANDARD
 72
     1
 11
31.25199999999999
 21
12.470667
 31
0.0
100
AcDbText
  0
TEXT
  5
10F1
330
1E
100
AcDbEntity
  8
TEXT
100
AcDbText
 10
30.752
 20
10.804
 30
0.0
 40
1.0
  1
16
 41
0.75
  7
STANDARD
 72
     1
 11
31.25199999999999
 21
10.804
 31
0.0
100
AcDbText
  0
TEXT
  5
10F2
330
1E
100
AcDbEntity
  8
TEXT
100
AcDbText
 10
30.6895
 20
9.137332999999999
 30
0.0
 40
1.0
  1
20
 41
0.75
  7
STANDARD
 72
     1
 11
31.25199999999999
 21
9.137332999999999
 31
0.0
100
AcDbText
  0
TEXT
  5
10F3
330
1E
100
AcDbEntity
  8
TEXT
100
AcDbText
 10
30.62699999999999
 20
7.470666999999999
 30
0.0
 40
1.0
  1
26
 41
0.75
  7
STANDARD
 72
     1
 11
31.25199999999999
 21
7.470666999999999
 31
0.0
100
AcDbText
  0
TEXT
  5
10F4
330
1E
100
AcDbEntity
  8
TEXT
100
AcDbText
 10
36.546
 20
15.804
 30
0.0
 40
1.0
  1
TRAVEL
 41
0.75
  7
STANDARD
 72
     1
 11
38.79599999999999
 21
15.804
 31
0.0
100
AcDbText
  0
TEXT
  5
10F5
330
1E
100
AcDbEntity
  8
TEXT
100
AcDbText
 10
38.54599999999999
 20
14.13733299999999
 30
0.0
 40
1.0
  1
D
 41
0.75
  7
STANDARD
 72
     1
 11
38.79599999999999
 21
14.13733299999999
 31
0.0
100
AcDbText
  0
TEXT
  5
10F6
330
1E
100
AcDbEntity
  8
TEXT
100
AcDbText
 10
38.54599999999999
 20
12.470667
 30
0.0
 40
1.0
  1
9
 41
0.75
  7
STANDARD
 72
     1
 11
38.79599999999999
 21
12.470667
 31
0.0
100
AcDbText
  0
TEXT
  5
10F7
330
1E
100
AcDbEntity
  8
TEXT
100
AcDbText
 10
38.296
 20
10.804
 30
0.0
 40
1.0
  1
12
 41
0.75
  7
STANDARD
 72
     1
 11
38.79599999999999
 21
10.804
 31
0.0
100
AcDbText
  0
TEXT
  5
10F8
330
1E
100
AcDbEntity
  8
TEXT
100
AcDbText
 10
38.296
 20
9.137332999999999
 30
0.0
 40
1.0
  1
15
 41
0.75
  7
STANDARD
 72
     1
 11
38.79599999999999
 21
9.137332999999999
 31
0.0
100
AcDbText
  0
TEXT
  5
10F9
330
1E
100
AcDbEntity
  8
TEXT
100
AcDbText
 10
38.296
 20
7.470666999999999
 30
0.0
 40
1.0
  1
19
 41
0.75
  7
STANDARD
 72
     1
 11
38.79599999999999
 21
7.470666999999999
 31
0.0
100
AcDbText
  0
TEXT
  5
10FA
330
1E
100
AcDbEntity
  8
TEXT
100
AcDbText
 10
44.965
 20
15.804
 30
0.0
 40
1.0
  1
LOAD
 41
0.75
  7
STANDARD
 72
     1
 11
46.34
 21
15.804
 31
0.0
100
AcDbText
  0
TEXT
  5
10FB
330
1E
100
AcDbEntity
  8
TEXT
100
AcDbText
 10
44.34
 20
14.13733299999999
 30
0.0
 40
1.0
  1
RATING
 41
0.75
  7
STANDARD
 72
     1
 11
46.34
 21
14.13733299999999
 31
0.0
100
AcDbText
  0
TEXT
  5
10FC
330
1E
100
AcDbEntity
  8
TEXT
100
AcDbText
 10
45.5275
 20
12.470667
 30
0.0
 40
1.0
  1
140
 41
0.75
  7
STANDARD
 72
     1
 11
46.34
 21
12.470667
 31
0.0
100
AcDbText
  0
TEXT
  5
10FD
330
1E
100
AcDbEntity
  8
TEXT
100
AcDbText
 10
45.5275
 20
10.804
 30
0.0
 40
1.0
  1
120
 41
0.75
  7
STANDARD
 72
     1
 11
46.34
 21
10.804
 31
0.0
100
AcDbText
  0
TEXT
  5
10FE
330
1E
100
AcDbEntity
  8
TEXT
100
AcDbText
 10
45.715
 20
9.137332999999999
 30
0.0
 40
1.0
  1
92
 41
0.75
  7
STANDARD
 72
     1
 11
46.34
 21
9.137332999999999
 31
0.0
100
AcDbText
  0
TEXT
  5
10FF
330
1E
100
AcDbEntity
  8
TEXT
100
AcDbText
 10
45.7775
 20
7.470666999999999
 30
0.0
 40
1.0
  1
70
 41
0.75
  7
STANDARD
 72
     1
 11
46.34
 21
7.470666999999999
 31
0.0
100
AcDbText
  0
TEXT
  5
1100
330
1E
100
AcDbEntity
  8
TEXT
100
AcDbText
 10
45.7775
 20
0.814667
 30
0.0
 40
1.0
  1
70
 41
0.75
  7
STANDARD
 72
     1
 11
46.34
 21
0.814667
 31
0.0
100
AcDbText
  0
TEXT
  5
1101
330
1E
100
AcDbEntity
  8
TEXT
100
AcDbText
 10
45.715
 20
2.481333
 30
0.0
 40
1.0
  1
92
 41
0.75
  7
STANDARD
 72
     1
 11
46.34
 21
2.481333
 31
0.0
100
AcDbText
  0
TEXT
  5
1102
330
1E
100
AcDbEntity
  8
TEXT
100
AcDbText
 10
45.5275
 20
4.147999999999999
 30
0.0
 40
1.0
  1
120
 41
0.75
  7
STANDARD
 72
     1
 11
46.34
 21
4.147999999999999
 31
0.0
100
AcDbText
  0
TEXT
  5
1103
330
1E
100
AcDbEntity
  8
TEXT
100
AcDbText
 10
45.5275
 20
5.814667
 30
0.0
 40
1.0
  1
140
 41
0.75
  7
STANDARD
 72
     1
 11
46.34
 21
5.814667
 31
0.0
100
AcDbText
  0
TEXT
  5
1104
330
1E
100
AcDbEntity
  8
TEXT
100
AcDbText
 10
38.296
 20
0.814667
 30
0.0
 40
1.0
  1
19
 41
0.75
  7
STANDARD
 72
     1
 11
38.79599999999999
 21
0.814667
 31
0.0
100
AcDbText
  0
TEXT
  5
1105
330
1E
100
AcDbEntity
  8
TEXT
100
AcDbText
 10
38.296
 20
2.481333
 30
0.0
 40
1.0
  1
15
 41
0.75
  7
STANDARD
 72
     1
 11
38.79599999999999
 21
2.481333
 31
0.0
100
AcDbText
  0
TEXT
  5
1106
330
1E
100
AcDbEntity
  8
TEXT
100
AcDbText
 10
38.296
 20
4.147999999999999
 30
0.0
 40
1.0
  1
12
 41
0.75
  7
STANDARD
 72
     1
 11
38.79599999999999
 21
4.147999999999999
 31
0.0
100
AcDbText
  0
TEXT
  5
1107
330
1E
100
AcDbEntity
  8
TEXT
100
AcDbText
 10
38.54599999999999
 20
5.814667
 30
0.0
 40
1.0
  1
9
 41
0.75
  7
STANDARD
 72
     1
 11
38.79599999999999
 21
5.814667
 31
0.0
100
AcDbText
  0
TEXT
  5
1108
330
1E
100
AcDbEntity
  8
TEXT
100
AcDbText
 10
30.62699999999999
 20
0.814667
 30
0.0
 40
1.0
  1
26
 41
0.75
  7
STANDARD
 72
     1
 11
31.25199999999999
 21
0.814667
 31
0.0
100
AcDbText
  0
TEXT
  5
1109
330
1E
100
AcDbEntity
  8
TEXT
100
AcDbText
 10
30.6895
 20
2.481333
 30
0.0
 40
1.0
  1
20
 41
0.75
  7
STANDARD
 72
     1
 11
31.25199999999999
 21
2.481333
 31
0.0
100
AcDbText
  0
TEXT
  5
110A
330
1E
100
AcDbEntity
  8
TEXT
100
AcDbText
 10
30.752
 20
4.147999999999999
 30
0.0
 40
1.0
  1
16
 41
0.75
  7
STANDARD
 72
     1
 11
31.25199999999999
 21
4.147999999999999
 31
0.0
100
AcDbText
  0
TEXT
  5
110B
330
1E
100
AcDbEntity
  8
TEXT
100
AcDbText
 10
30.752
 20
5.814667
 30
0.0
 40
1.0
  1
12
 41
0.75
  7
STANDARD
 72
     1
 11
31.25199999999999
 21
5.814667
 31
0.0
100
AcDbText
  0
TEXT
  5
110C
330
1E
100
AcDbEntity
  8
TEXT
100
AcDbText
 10
20.546
 20
16.63599999999999
 30
0.0
 40
1.0
  1
SHELF
 41
0.75
  7
STANDARD
 72
     1
 11
22.296
 21
16.63599999999999
 31
0.0
100
AcDbText
  0
TEXT
  5
110D
330
1E
100
AcDbEntity
  8
TEXT
100
AcDbText
 10
17.863
 20
121.207
 30
0.0
 40
1.25
  1
SLIDING SHELF
 41
0.75
  7
STANDARD
 72
     1
 11
23.488
 21
121.207
 31
0.0
100
AcDbText
  0
TEXT
  5
110E
330
1E
100
AcDbEntity
  8
TEXT
100
AcDbText
 10
54.50124999999999
 20
121.207
 30
0.0
 40
1.25
  1
SH-2387  TO  SH-2494
 41
0.75
  7
STANDARD
 72
     1
 11
63.71999999999999
 21
121.207
 31
0.0
100
AcDbText
  0
LINE
  5
110F
330
1E
100
AcDbEntity
  8
TITLE
100
AcDbLine
 10
16.996
 20
0.496
 30
0.0
 11
16.996
 21
18.8
 31
0.0
  0
LINE
  5
1110
330
1E
100
AcDbEntity
  8
TITLE
100
AcDbLine
 10
59.809722
 20
0.496
 30
0.0
 11
59.809722
 21
18.8
 31
0.0
  0
LINE
  5
1111
330
1E
100
AcDbEntity
  8
TITLE
100
AcDbLine
 10
65.91634
 20
0.496
 30
0.0
 11
65.91634
 21
18.8
 31
0.0
  0
LINE
  5
1112
330
1E
100
AcDbEntity
  8
TITLE
100
AcDbLine
 10
69.67234000000001
 20
0.496
 30
0.0
 11
69.67234000000001
 21
18.8
 31
0.0
  0
LINE
  5
1113
330
1E
100
AcDbEntity
  8
TITLE
100
AcDbLine
 10
76.023443
 20
0.496
 30
0.0
 11
76.023443
 21
18.8
 31
0.0
  0
TEXT
  5
1114
330
1E
100
AcDbEntity
  8
TEXT
100
AcDbText
 10
61.2585
 20
0.8257419999999999
 30
0.0
 40
1.0
  1
24.000
 41
0.75
  7
STANDARD
 72
     1
 11
62.946
 21
0.8257419999999999
 31
0.0
100
AcDbText
  0
TEXT
  5
1115
330
1E
100
AcDbEntity
  8
TEXT
100
AcDbText
 10
61.3835
 20
2.492408999999999
 30
0.0
 40
1.0
  1
18.000
 41
0.75
  7
STANDARD
 72
     1
 11
62.946
 21
2.492408999999999
 31
0.0
100
AcDbText
  0
TEXT
  5
1116
330
1E
100
AcDbEntity
  8
TEXT
100
AcDbText
 10
61.3835
 20
4.159075999999999
 30
0.0
 40
1.0
  1
15.000
 41
0.75
  7
STANDARD
 72
     1
 11
62.946
 21
4.159075999999999
 31
0.0
100
AcDbText
  0
TEXT
  5
1117
330
1E
100
AcDbEntity
  8
TEXT
100
AcDbText
 10
61.3835
 20
5.825741999999999
 30
0.0
 40
1.0
  1
12.000
 41
0.75
  7
STANDARD
 72
     1
 11
62.946
 21
5.825741999999999
 31
0.0
100
AcDbText
  0
SOLID
  5
1118
330
1E
100
AcDbEntity
  8
DIM
100
AcDbTrace
 10
58.774916
 20
91.393578
 30
0.0
 11
58.885252
 21
91.86072499999999
 31
0.0
 12
57.42864399999999
 22
91.95815999999998
 32
0.0
 13
57.42864399999999
 23
91.95815999999998
 33
0.0
  0
LINE
  5
1119
330
1E
100
AcDbEntity
  8
DIM
100
AcDbLine
 10
58.830084
 20
91.62715199999999
 30
0.0
 11
61.13724000000001
 21
91.08222099999998
 31
0.0
  0
TEXT
  5
111A
330
1E
100
AcDbEntity
  8
TEXT
100
AcDbText
 10
26.214413
 20
111.6310919999999
 30
0.0
 40
1.0
  1
SMOOTH BLACK
 41
0.75
  7
STANDARD
100
AcDbText
  0
TEXT
  5
111B
330
1E
100
AcDbEntity
  8
TEXT
100
AcDbText
 10
3.354601
 20
111.633759
 30
0.0
 40
1.0
  1
SHELF & MOUNTING BRACKETS
 41
0.75
  7
STANDARD
100
AcDbText
  0
LINE
  5
111C
330
1E
100
AcDbEntity
  8
TEXT
100
AcDbLine
 10
22.250999
 20
111.6310919999999
 30
0.0
 11
25.688222
 21
111.6310919999999
 31
0.0
  0
TEXT
  5
111D
330
1E
100
AcDbEntity
  8
DIM
100
AcDbText
 10
136.3056729999999
 20
58.776659
 30
0.0
 40
0.5
  1

  7
STANDARD
100
AcDbText
  0
TEXT
  5
111E
330
1E
100
AcDbEntity
  8
DIM
100
AcDbText
 10
118.883673
 20
76.67335200000001
 30
0.0
 40
0.5
  1

  7
STANDARD
100
AcDbText
  0
TEXT
  5
111F
330
1E
100
AcDbEntity
  8
DIM
100
AcDbText
 10
151.952852
 20
71.191639
 30
0.0
 40
0.5
  1

  7
STANDARD
100
AcDbText
  0
TEXT
  5
1120
330
1E
100
AcDbEntity
  8
DIM
100
AcDbText
 10
154.4801309999999
 20
69.44815600000001
 30
0.0
 40
0.5
  1

  7
STANDARD
100
AcDbText
  0
TEXT
  5
1121
330
1E
100
AcDbEntity
  8
DIM
100
AcDbText
 10
96.247108
 20
49.822982
 30
0.0
 40
0.5
  1

  7
STANDARD
100
AcDbText
  0
TEXT
  5
1122
330
1E
100
AcDbEntity
  8
DIM
100
AcDbText
 10
106.306236
 20
53.739003
 30
0.0
 40
0.5
  1

  7
STANDARD
100
AcDbText
  0
TEXT
  5
1123
330
1E
100
AcDbEntity
  8
DIM
100
AcDbText
 10
135.5772909999999
 20
63.845232
 30
0.0
 40
0.5
  1

  7
STANDARD
100
AcDbText
  0
TEXT
  5
1124
330
1E
100
AcDbEntity
  8
DIM
100
AcDbText
 10
116.8272909999999
 20
63.845232
 30
0.0
 40
0.5
  1

  7
STANDARD
100
AcDbText
  0
TEXT
  5
1125
330
1E
100
AcDbEntity
  8
DIM
100
AcDbText
 10
132.410624
 20
55.70154599999999
 30
0.0
 40
0.5
  1

  7
STANDARD
100
AcDbText
  0
ARC
  5
112E
330
1E
100
AcDbEntity
  8
OBJECT
100
AcDbCircle
 10
52.310157
 20
75.861327
 30
0.0
 40
0.35
100
AcDbArc
 50
90.0
 51
180.0
  0
ARC
  5
112F
330
1E
100
AcDbEntity
  8
OBJECT
100
AcDbCircle
 10
53.480157
 20
75.861327
 30
0.0
 40
0.35
100
AcDbArc
 50
0.0
 51
90.0
  0
ARC
  5
1130
330
1E
100
AcDbEntity
  8
OBJECT
100
AcDbCircle
 10
55.30015699999999
 20
75.861327
 30
0.0
 40
0.35
100
AcDbArc
 50
90.0
 51
180.0
  0
LINE
  5
1131
330
1E
100
AcDbEntity
  8
HIDDEN
100
AcDbLine
 10
55.14353299999999
 20
76.17432700000001
 30
0.0
 11
56.626781
 21
76.17432700000001
 31
0.0
  0
LINE
  5
1132
330
1E
100
AcDbEntity
  8
OBJECT
100
AcDbLine
 10
56.47015699999999
 20
76.211327
 30
0.0
 11
55.30015699999999
 21
76.211327
 31
0.0
  0
ARC
  5
1133
330
1E
100
AcDbEntity
  8
OBJECT
100
AcDbCircle
 10
56.47015699999999
 20
75.861327
 30
0.0
 40
0.35
100
AcDbArc
 50
0.0
 51
90.0
  0
ARC
  5
1134
330
1E
100
AcDbEntity
  8
OBJECT
100
AcDbCircle
 10
71.09865699999999
 20
75.861327
 30
0.0
 40
0.35
100
AcDbArc
 50
90.0
 51
180.0
  0
LINE
  5
1135
330
1E
100
AcDbEntity
  8
HIDDEN
100
AcDbLine
 10
70.942033
 20
76.17432700000001
 30
0.0
 11
72.42528100000001
 21
76.17432700000001
 31
0.0
  0
LINE
  5
1136
330
1E
100
AcDbEntity
  8
OBJECT
100
AcDbLine
 10
72.26865699999999
 20
76.211327
 30
0.0
 11
71.09865699999999
 21
76.211327
 31
0.0
  0
LINE
  5
1137
330
1E
100
AcDbEntity
  8
OBJECT
100
AcDbLine
 10
75.258657
 20
76.211327
 30
0.0
 11
74.08865699999999
 21
76.211327
 31
0.0
  0
LINE
  5
1138
330
1E
100
AcDbEntity
  8
HIDDEN
100
AcDbLine
 10
73.93203299999999
 20
76.17432700000001
 30
0.0
 11
75.415281
 21
76.17432700000001
 31
0.0
  0
ARC
  5
1139
330
1E
100
AcDbEntity
  8
OBJECT
100
AcDbCircle
 10
74.08865699999999
 20
75.861327
 30
0.0
 40
0.35
100
AcDbArc
 50
90.0
 51
180.0
  0
ARC
  5
113A
330
1E
100
AcDbEntity
  8
OBJECT
100
AcDbCircle
 10
75.258657
 20
75.861327
 30
0.0
 40
0.35
100
AcDbArc
 50
0.0
 51
90.0
  0
ARC
  5
113B
330
1E
100
AcDbEntity
  8
OBJECT
100
AcDbCircle
 10
72.26865699999999
 20
75.861327
 30
0.0
 40
0.35
100
AcDbArc
 50
0.0
 51
90.0
  0
ARC
  5
113C
330
1E
100
AcDbEntity
  8
OBJECT
100
AcDbCircle
 10
72.26865699999999
 20
93.611327
 30
0.0
 40
0.35
100
AcDbArc
 50
270.0
 51
0.0
  0
LINE
  5
113D
330
1E
100
AcDbEntity
  8
HIDDEN
100
AcDbLine
 10
70.942033
 20
93.298327
 30
0.0
 11
72.42528100000001
 21
93.298327
 31
0.0
  0
LINE
  5
113E
330
1E
100
AcDbEntity
  8
OBJECT
100
AcDbLine
 10
72.26865699999999
 20
93.261327
 30
0.0
 11
71.09865699999999
 21
93.261327
 31
0.0
  0
ARC
  5
113F
330
1E
100
AcDbEntity
  8
OBJECT
100
AcDbCircle
 10
71.09865699999999
 20
93.611327
 30
0.0
 40
0.35
100
AcDbArc
 50
180.0
 51
270.0
  0
ARC
  5
1140
330
1E
100
AcDbEntity
  8
OBJECT
100
AcDbCircle
 10
74.08865699999999
 20
93.611327
 30
0.0
 40
0.35
100
AcDbArc
 50
180.0
 51
270.0
  0
ARC
  5
1141
330
1E
100
AcDbEntity
  8
OBJECT
100
AcDbCircle
 10
75.258657
 20
93.611327
 30
0.0
 40
0.35
100
AcDbArc
 50
270.0
 51
0.0
  0
LINE
  5
1142
330
1E
100
AcDbEntity
  8
HIDDEN
100
AcDbLine
 10
73.93203299999999
 20
93.298327
 30
0.0
 11
75.415281
 21
93.298327
 31
0.0
  0
LINE
  5
1143
330
1E
100
AcDbEntity
  8
OBJECT
100
AcDbLine
 10
75.258657
 20
93.261327
 30
0.0
 11
74.08865699999999
 21
93.261327
 31
0.0
  0
ARC
  5
1144
330
1E
100
AcDbEntity
  8
OBJECT
100
AcDbCircle
 10
52.310157
 20
93.611327
 30
0.0
 40
0.35
100
AcDbArc
 50
180.0
 51
270.0
  0
ARC
  5
1145
330
1E
100
AcDbEntity
  8
OBJECT
100
AcDbCircle
 10
53.480157
 20
93.611327
 30
0.0
 40
0.35
100
AcDbArc
 50
270.0
 51
0.0
  0
LINE
  5
1146
330
1E
100
AcDbEntity
  8
HIDDEN
100
AcDbLine
 10
52.153533
 20
93.298327
 30
0.0
 11
53.63678100000001
 21
93.298327
 31
0.0
  0
LINE
  5
1147
330
1E
100
AcDbEntity
  8
OBJECT
100
AcDbLine
 10
53.480157
 20
93.261327
 30
0.0
 11
52.310157
 21
93.261327
 31
0.0
  0
ARC
  5
1148
330
1E
100
AcDbEntity
  8
OBJECT
100
AcDbCircle
 10
55.30015699999999
 20
93.611327
 30
0.0
 40
0.35
100
AcDbArc
 50
180.0
 51
270.0
  0
ARC
  5
1149
330
1E
100
AcDbEntity
  8
OBJECT
100
AcDbCircle
 10
56.47015699999999
 20
93.611327
 30
0.0
 40
0.35
100
AcDbArc
 50
270.0
 51
0.0
  0
LINE
  5
114A
330
1E
100
AcDbEntity
  8
OBJECT
100
AcDbLine
 10
56.47015699999999
 20
93.261327
 30
0.0
 11
55.30015699999999
 21
93.261327
 31
0.0
  0
LINE
  5
114B
330
1E
100
AcDbEntity
  8
HIDDEN
100
AcDbLine
 10
55.14353299999999
 20
93.298327
 30
0.0
 11
56.626781
 21
93.298327
 31
0.0
  0
ARC
  5
114C
330
1E
100
AcDbEntity
  8
OBJECT
100
AcDbCircle
 10
33.464596
 20
35.73561199999999
 30
0.0
 40
1.399999999999999
100
AcDbArc
 50
180.0
 51
270.0
  0
ARC
  5
114D
330
1E
100
AcDbEntity
  8
OBJECT
100
AcDbCircle
 10
38.144596
 20
35.73561199999999
 30
0.0
 40
1.399999999999999
100
AcDbArc
 50
270.0
 51
0.0
  0
ARC
  5
114E
330
1E
100
AcDbEntity
  8
OBJECT
100
AcDbCircle
 10
45.42459599999999
 20
35.73561199999999
 30
0.0
 40
1.399999999999999
100
AcDbArc
 50
180.0
 51
270.0
  0
LINE
  5
114F
330
1E
100
AcDbEntity
  8
OBJECT
100
AcDbLine
 10
50.104596
 20
34.33561199999999
 30
0.0
 11
45.42459599999999
 21
34.33561199999999
 31
0.0
  0
ARC
  5
1150
330
1E
100
AcDbEntity
  8
OBJECT
100
AcDbCircle
 10
50.104596
 20
35.73561199999999
 30
0.0
 40
1.399999999999999
100
AcDbArc
 50
270.0
 51
288.291793
  0
ARC
  5
1151
330
1E
100
AcDbEntity
  8
OBJECT
100
AcDbCircle
 10
50.104596
 20
35.73561199999999
 30
0.0
 40
1.399999999999999
100
AcDbArc
 50
329.9931589999999
 51
0.0
  0
TEXT
  5
16CF
330
1E
100
AcDbEntity
  8
DIM
100
AcDbText
 10
136.3764385335388
 20
46.02466772932521
 30
0.0
 40
0.5
  1

  7
STANDARD
100
AcDbText
  0
TEXT
  5
16D0
330
1E
100
AcDbEntity
  8
DIM
100
AcDbText
 10
118.9544385335388
 20
63.92136160568681
 30
0.0
 40
0.5
  1

  7
STANDARD
100
AcDbText
  0
TEXT
  5
16D1
330
1E
100
AcDbEntity
  8
DIM
100
AcDbText
 10
152.0236177687643
 20
58.43964841344374
 30
0.0
 40
0.5
  1

  7
STANDARD
100
AcDbText
  0
TEXT
  5
16D8
330
1E
100
AcDbEntity
  8
DIM
100
AcDbText
 10
154.5508961337885
 20
56.69616561886599
 30
0.0
 40
0.5
  1

  7
STANDARD
100
AcDbText
  0
TEXT
  5
16E8
330
1E
100
AcDbEntity
  8
DIM
100
AcDbText
 10
96.31787351566536
 20
37.07099147913728
 30
0.0
 40
0.5
  1

  7
STANDARD
100
AcDbText
  0
TEXT
  5
179E
330
1E
100
AcDbEntity
  8
DIM
100
AcDbText
 10
106.3770012494115
 20
40.9870117482536
 30
0.0
 40
0.5
  1

  7
STANDARD
100
AcDbText
  0
TEXT
  5
179F
330
1E
100
AcDbEntity
  8
DIM
100
AcDbText
 10
135.6480559325623
 20
51.09324112464459
 30
0.0
 40
0.5
  1

  7
STANDARD
100
AcDbText
  0
TEXT
  5
17A1
330
1E
100
AcDbEntity
  8
DIM
100
AcDbText
 10
116.8980559325623
 20
51.09324112464459
 30
0.0
 40
0.5
  1

  7
STANDARD
100
AcDbText
  0
TEXT
  5
1818
330
1E
100
AcDbEntity
  8
DIM
100
AcDbText
 10
132.4813892658956
 20
42.94955489238832
 30
0.0
 40
0.5
  1

  7
STANDARD
100
AcDbText
  0
TEXT
  5
19F4
330
1E
100
AcDbEntity
  8
DIM
100
AcDbText
 10
136.3764385335388
 20
110.0246677293252
 30
0.0
 40
0.5
  1

  7
STANDARD
100
AcDbText
  0
TEXT
  5
19F5
330
1E
100
AcDbEntity
  8
DIM
100
AcDbText
 10
118.9544385335388
 20
127.9213616056868
 30
0.0
 40
0.5
  1

  7
STANDARD
100
AcDbText
  0
TEXT
  5
19F6
330
1E
100
AcDbEntity
  8
DIM
100
AcDbText
 10
152.0236177687643
 20
122.4396484134437
 30
0.0
 40
0.5
  1

  7
STANDARD
100
AcDbText
  0
TEXT
  5
19F7
330
1E
100
AcDbEntity
  8
DIM
100
AcDbText
 10
154.5508961337885
 20
120.696165618866
 30
0.0
 40
0.5
  1

  7
STANDARD
100
AcDbText
  0
TEXT
  5
19F8
330
1E
100
AcDbEntity
  8
DIM
100
AcDbText
 10
96.31787351566536
 20
101.0709914791372
 30
0.0
 40
0.5
  1

  7
STANDARD
100
AcDbText
  0
TEXT
  5
19F9
330
1E
100
AcDbEntity
  8
DIM
100
AcDbText
 10
106.3770012494115
 20
104.9870117482536
 30
0.0
 40
0.5
  1

  7
STANDARD
100
AcDbText
  0
TEXT
  5
19FA
330
1E
100
AcDbEntity
  8
DIM
100
AcDbText
 10
135.6480559325623
 20
115.0932411246446
 30
0.0
 40
0.5
  1

  7
STANDARD
100
AcDbText
  0
TEXT
  5
19FB
330
1E
100
AcDbEntity
  8
DIM
100
AcDbText
 10
116.8980559325623
 20
115.0932411246446
 30
0.0
 40
0.5
  1

  7
STANDARD
100
AcDbText
  0
TEXT
  5
19FC
330
1E
100
AcDbEntity
  8
DIM
100
AcDbText
 10
132.4813892658956
 20
106.9495548923883
 30
0.0
 40
0.5
  1

  7
STANDARD
100
AcDbText
  0
INSERT
  5
1C3E
330
1E
100
AcDbEntity
  8
OBJECT
100
AcDbBlockReference
  2
MB
 10
51.360657
 20
57.87078700000001
 30
0.0
  0
INSERT
  5
1C42
330
1E
100
AcDbEntity
  8
OBJECT
100
AcDbBlockReference
  2
MB
 10
76.208157
 20
57.87078700000001
 30
0.0
 41
-1.0
  0
LINE
  5
1C46
330
1E
100
AcDbEntity
  8
OBJECT
100
AcDbLine
 10
77.20015699999999
 20
58.621287
 30
0.0
 11
77.20015699999999
 21
57.121287
 31
0.0
  0
LINE
  5
1C47
330
1E
100
AcDbEntity
  8
OBJECT
100
AcDbLine
 10
76.978657
 20
58.621287
 30
0.0
 11
77.20015699999999
 21
58.621287
 31
0.0
  0
LINE
  5
1C48
330
1E
100
AcDbEntity
  8
OBJECT
100
AcDbLine
 10
76.978657
 20
57.121287
 30
0.0
 11
77.20015699999999
 21
57.121287
 31
0.0
  0
ENDSEC
  0
SECTION
  2
OBJECTS
  0
DICTIONARY
  5
C
330
0
100
AcDbDictionary
281
     1
  3
ACAD_GROUP
350
D
  3
ACAD_LAYOUT
350
19
  3
ACAD_MLINESTYLE
350
16
  3
ACAD_PLOTSETTINGS
350
18
  3
ACAD_PLOTSTYLENAME
350
E
  3
AcadDim
350
56
  0
DICTIONARY
  5
D
102
{ACAD_REACTORS
330
C
102
}
330
C
100
AcDbDictionary
281
     1
  0
DICTIONARY
  5
19
102
{ACAD_REACTORS
330
C
102
}
330
C
100
AcDbDictionary
281
     1
  3
Layout1
350
1D
  3
Model
350
21
  0
DICTIONARY
  5
16
102
{ACAD_REACTORS
330
C
102
}
330
C
100
AcDbDictionary
281
     1
  3
Standard
350
17
  0
DICTIONARY
  5
18
102
{ACAD_REACTORS
330
C
102
}
330
C
100
AcDbDictionary
281
     1
  0
ACDBDICTIONARYWDFLT
  5
E
102
{ACAD_REACTORS
330
C
102
}
330
C
100
AcDbDictionary
281
     1
  3
Normal
350
F
100
AcDbDictionaryWithDefault
340
F
  0
XRECORD
  5
56
102
{ACAD_REACTORS
330
C
102
}
330
C
100
AcDbXrecord
280
     1
 90
   990106
  3

 60
     0
 61
     0
 62
     1
 63
     1
 64
     0
 65
     0
 66
     0
 67
     3
 68
     1
 69
     0
 70
     0
 71
     0
 72
     0
 40
0.0
170
     2
  0
LAYOUT
  5
1D
102
{ACAD_REACTORS
330
19
102
}
330
19
100
AcDbPlotSettings
  1

  2
C:\Program Files\ACAD2000\plotters\DWF ePlot.pc3
  4

  6

 40
0.0
 41
0.0
 42
0.0
 43
0.0
 44
0.0
 45
0.0
 46
0.0
 47
0.0
 48
0.0
 49
0.0
140
0.0
141
0.0
142
1.0
143
1.0
 70
   688
 72
     0
 73
     0
 74
     5
  7
monochrome.ctb
 75
    16
147
1.0
148
0.0
149
0.0
100
AcDbLayout
  1
Layout1
 70
     1
 71
     1
 10
0.0
 20
0.0
 11
12.0
 21
9.0
 12
0.0
 22
0.0
 32
0.0
 14
1.000000000000000E+20
 24
1.000000000000000E+20
 34
1.000000000000000E+20
 15
-1.000000000000000E+20
 25
-1.000000000000000E+20
 35
-1.000000000000000E+20
146
0.0
 13
0.0
 23
0.0
 33
0.0
 16
1.0
 26
0.0
 36
0.0
 17
0.0
 27
1.0
 37
0.0
 76
     0
330
1A
  0
LAYOUT
  5
21
102
{ACAD_REACTORS
330
19
102
}
330
19
100
AcDbPlotSettings
  1

  2
\\HOST\HP6L
  4
Letter
  6

 40
7.143749713897705
 41
5.027085304260253
 42
7.14373779296875
 43
5.027069091796875
 44
215.8999938964843
 45
279.3999938964843
 46
0.0
 47
0.0
 48
0.0
 49
0.0
140
0.0
141
0.0
142
1.0
143
1.336891976530134
 70
 11952
 72
     0
 73
     1
 74
     0
  7
monochrome.ctb
 75
     0
147
0.7480035915807289
148
0.0
149
0.0
100
AcDbLayout
  1
Model
 70
     1
 71
     0
 10
0.0
 20
0.0
 11
12.0
 21
9.0
 12
0.0
 22
0.0
 32
0.0
 14
0.0
 24
0.0
 34
0.0
 15
0.0
 25
0.0
 35
0.0
146
0.0
 13
0.0
 23
0.0
 33
0.0
 16
1.0
 26
0.0
 36
0.0
 17
0.0
 27
1.0
 37
0.0
 76
     0
330
1E
  0
MLINESTYLE
  5
17
102
{ACAD_REACTORS
330
16
102
}
330
16
100
AcDbMlineStyle
  2
STANDARD
 70
     0
  3

 62
   256
 51
90.0
 52
90.0
 71
     2
 49
0.5
 62
   256
  6
BYLAYER
 49
-0.5
 62
   256
  6
BYLAYER
  0
ACDBPLACEHOLDER
  5
F
102
{ACAD_REACTORS
330
E
102
}
330
E
  0
ENDSEC
  0
EOF
