  0
SECTION
  2
HEADER
  9
$ACADVER
  1
AC1009
  9
$INSBASE
 10
0.0
 20
0.0
 30
0.0
  9
$EXTMIN
 10
0.3111521198638911
 20
0.3796466659698581
 30
-0.0015258207003583
  9
$EXTMAX
 10
10.641762346179799
 20
8.2437122851358708
 30
0.0000000349246037
  9
$LIMMIN
 10
0.0
 20
0.0
  9
$LIMMAX
 10
11.0
 20
8.5
  9
$ORTHOMODE
 70
     0
  9
$REGENMODE
 70
     1
  9
$FILLMODE
 70
     1
  9
$QTEXTMODE
 70
     0
  9
$MIRRTEXT
 70
     1
  9
$DRAGMODE
 70
     2
  9
$LTSCALE
 40
1.0
  9
$OSMODE
 70
   229
  9
$ATTMODE
 70
     1
  9
$TEXTSIZE
 40
0.2
  9
$TRACEWID
 40
0.05
  9
$TEXTSTYLE
  7
STANDARD
  9
$CLAYER
  8
0
  9
$CELTYPE
  6
BYLAYER
  9
$CECOLOR
 62
   256
  9
$DIMSCALE
 40
1.0
  9
$DIMASZ
 40
0.18
  9
$DIMEXO
 40
0.0625
  9
$DIMDLI
 40
0.38
  9
$DIMRND
 40
0.0
  9
$DIMDLE
 40
0.0
  9
$DIMEXE
 40
0.18
  9
$DIMTP
 40
0.0
  9
$DIMTM
 40
0.0
  9
$DIMTXT
 40
0.18
  9
$DIMCEN
 40
0.09
  9
$DIMTSZ
 40
0.0
  9
$DIMTOL
 70
     0
  9
$DIMLIM
 70
     0
  9
$DIMTIH
 70
     1
  9
$DIMTOH
 70
     1
  9
$DIMSE1
 70
     0
  9
$DIMSE2
 70
     0
  9
$DIMTAD
 70
     0
  9
$DIMZIN
 70
     0
  9
$DIMBLK
  1

  9
$DIMASO
 70
     1
  9
$DIMSHO
 70
     1
  9
$DIMPOST
  1

  9
$DIMAPOST
  1

  9
$DIMALT
 70
     0
  9
$DIMALTD
 70
     2
  9
$DIMALTF
 40
25.399999999999999
  9
$DIMLFAC
 40
1.0
  9
$DIMTOFL
 70
     0
  9
$DIMTVP
 40
0.0
  9
$DIMTIX
 70
     0
  9
$DIMSOXD
 70
     0
  9
$DIMSAH
 70
     0
  9
$DIMBLK1
  1

  9
$DIMBLK2
  1

  9
$DIMSTYLE
  2
STANDARD
  9
$DIMCLRD
 70
     0
  9
$DIMCLRE
 70
     0
  9
$DIMCLRT
 70
     0
  9
$DIMTFAC
 40
1.0
  9
$DIMGAP
 40
0.09
  9
$LUNITS
 70
     2
  9
$LUPREC
 70
     2
  9
$SKETCHINC
 40
0.1
  9
$FILLETRAD
 40
0.5
  9
$AUNITS
 70
     0
  9
$AUPREC
 70
     2
  9
$MENU
  1
.
  9
$ELEVATION
 40
0.0
  9
$PELEVATION
 40
0.0
  9
$THICKNESS
 40
0.0
  9
$LIMCHECK
 70
     0
  9
$BLIPMODE
 70
     0
  9
$CHAMFERA
 40
0.5
  9
$CHAMFERB
 40
0.5
  9
$SKPOLY
 70
     0
  9
$TDCREATE
 40
2456161.56297309
  9
$TDUPDATE
 40
2456161.4096099068
  9
$TDINDWG
 40
0.011596875
  9
$TDUSRTIMER
 40
0.011596875
  9
$USRTIMER
 70
     1
  9
$ANGBASE
 50
0.0
  9
$ANGDIR
 70
     0
  9
$PDMODE
 70
     0
  9
$PDSIZE
 40
-1.0
  9
$PLINEWID
 40
0.0
  9
$COORDS
 70
     2
  9
$SPLFRAME
 70
     0
  9
$SPLINETYPE
 70
     6
  9
$SPLINESEGS
 70
     8
  9
$ATTDIA
 70
     0
  9
$ATTREQ
 70
     1
  9
$HANDLING
 70
  4097
  9
$HANDSEED
  5
103F
  9
$SURFTAB1
 70
     6
  9
$SURFTAB2
 70
     6
  9
$SURFTYPE
 70
     6
  9
$SURFU
 70
     6
  9
$SURFV
 70
     6
  9
$UCSNAME
  2

  9
$UCSORG
 10
0.0
 20
0.0
 30
0.0
  9
$UCSXDIR
 10
1.0
 20
0.0
 30
0.0
  9
$UCSYDIR
 10
0.0
 20
1.0
 30
0.0
  9
$PUCSNAME
  2

  9
$PUCSORG
 10
0.0
 20
0.0
 30
0.0
  9
$PUCSXDIR
 10
1.0
 20
0.0
 30
0.0
  9
$PUCSYDIR
 10
0.0
 20
1.0
 30
0.0
  9
$USERI1
 70
     0
  9
$USERI2
 70
     0
  9
$USERI3
 70
     0
  9
$USERI4
 70
     0
  9
$USERI5
 70
     0
  9
$USERR1
 40
0.0
  9
$USERR2
 40
0.0
  9
$USERR3
 40
0.0
  9
$USERR4
 40
0.0
  9
$USERR5
 40
0.0
  9
$WORLDVIEW
 70
     1
  9
$SHADEDGE
 70
     3
  9
$SHADEDIF
 70
    70
  9
$TILEMODE
 70
     1
  9
$MAXACTVP
 70
    64
  9
$PLIMCHECK
 70
     0
  9
$PEXTMIN
 10
1.0000000000000000E+020
 20
1.0000000000000000E+020
 30
1.0000000000000000E+020
  9
$PEXTMAX
 10
-1.0000000000000000E+020
 20
-1.0000000000000000E+020
 30
-1.0000000000000000E+020
  9
$PLIMMIN
 10
0.0
 20
0.0
  9
$PLIMMAX
 10
12.0
 20
9.0
  9
$UNITMODE
 70
     0
  9
$VISRETAIN
 70
     1
  9
$PLINEGEN
 70
     0
  9
$PSLTSCALE
 70
     1
  0
ENDSEC
  0
SECTION
  2
TABLES
  0
TABLE
  2
VPORT
 70
     4
  0
VPORT
  2
*ACTIVE
 70
     0
 10
0.0
 20
0.0
 11
1.0
 21
1.0
 12
5.4764572330218453
 22
4.3116794755528636
 13
0.0
 23
0.0
 14
0.5
 24
0.5
 15
0.5
 25
0.5
 16
0.0
 26
0.0
 36
1.0
 17
0.0
 27
0.0
 37
0.0
 40
7.9432340649965418
 41
1.8369747899159661
 42
50.0
 43
0.0
 44
0.0
 50
0.0
 51
0.0
 71
     0
 72
  2000
 73
     1
 74
     3
 75
     0
 76
     0
 77
     0
 78
     0
  0
ENDTAB
  0
TABLE
  2
LTYPE
 70
     7
  0
LTYPE
  2
CONTINUOUS
 70
     0
  3
Solid line
 72
    65
 73
     0
 40
0.0
  0
ENDTAB
  0
TABLE
  2
LAYER
 70
     4
  0
LAYER
  2
0
 70
     0
 62
     7
  6
CONTINUOUS
  0
ENDTAB
  0
TABLE
  2
STYLE
 70
     2
  0
STYLE
  2
STANDARD
 70
     0
 40
0.0
 41
1.0
 50
0.0
 71
     0
 42
0.2
  3
txt
  4

  0
STYLE
  2
SLDTEXTSTYLE0
 70
     0
 40
0.0
 41
0.75
 50
0.0
 71
     0
 42
0.2
  3
TXT
  4

  0
ENDTAB
  0
TABLE
  2
VIEW
 70
     0
  0
ENDTAB
  0
TABLE
  2
UCS
 70
     0
  0
ENDTAB
  0
TABLE
  2
APPID
 70
     4
  0
APPID
  2
ACAD
 70
     0
  0
APPID
  2
ADE
 70
     0
  0
APPID
  2
ACAD_PSEXT
 70
     0
  0
APPID
  2
ACAD_DSTYLE_DIMRADIAL_EXTE
 70
     0
  0
ENDTAB
  0
TABLE
  2
DIMSTYLE
 70
     3
  0
DIMSTYLE
  2
STANDARD
 70
     0
  3

  4

  5

  6

  7

 40
1.0
 41
0.18
 42
0.0625
 43
0.38
 44
0.18
 45
0.0
 46
0.0
 47
0.0
 48
0.0
140
0.18
141
0.09
142
0.0
143
25.399999999999999
144
1.0
145
0.0
146
1.0
147
0.09
 71
     0
 72
     0
 73
     1
 74
     1
 75
     0
 76
     0
 77
     0
 78
     0
170
     0
171
     2
172
     0
173
     0
174
     0
175
     0
176
     0
177
     0
178
     0
  0
DIMSTYLE
  2
SLDDIMSTYLE0
 70
     0
  3

  4

  5

  6

  7

 40
1.0
 41
0.13
 42
0.0625
 43
0.38
 44
0.0
 45
0.000000001
 46
0.0
 47
0.0
 48
0.0
140
0.18
141
0.09
142
0.0
143
25.399999999999999
144
1.0
145
0.0
146
0.13
147
0.0
 71
     0
 72
     0
 73
     1
 74
     1
 75
     0
 76
     0
 77
     0
 78
     0
170
     0
171
     2
172
     0
173
     1
174
     0
175
     0
176
     0
177
     0
178
     0
  0
ENDTAB
  0
ENDSEC
  0
SECTION
  2
BLOCKS
  0
BLOCK
  8
0
  2
$MODEL_SPACE
 70
     0
 10
0.0
 20
0.0
 30
0.0
  3
$MODEL_SPACE
  1

  0
ENDBLK
  5
21
  8
0
  0
BLOCK
 67
     1
  8
0
  2
$PAPER_SPACE
 70
     0
 10
0.0
 20
0.0
 30
0.0
  3
$PAPER_SPACE
  1

  0
ENDBLK
  5
1D
 67
     1
  8
0
  0
BLOCK
  8
0
  2
SW_NOTE_0
 70
     0
 10
0.0
 20
0.0
 30
0.0
  3
SW_NOTE_0
  1

  0
TEXT
  5
57
  8
0
 62
     0
 10
0.0
 20
0.0361334674714955
 30
0.0
 40
0.125
  1
NOTES:
 41
0.75
  7
SLDTEXTSTYLE0
  0
TEXT
  5
58
  8
0
 62
     0
 10
0.0937500000000001
 20
-0.1282366070447106
 30
0.0
 40
0.125
  1
DIMENSIONS IN MM.
 41
0.75
  7
SLDTEXTSTYLE0
  0
TEXT
  5
59
  8
0
 62
     0
 10
0.0937500000000001
 20
-0.4569767560771231
 30
0.0
 40
0.125
  1
DESIGNED TO FIT CIRCUIT BOARD
 41
0.75
  7
SLDTEXTSTYLE0
  0
TEXT
  5
5A
  8
0
 62
     0
 10
0.1875000000000001
 20
-0.6213468305933294
 30
0.0
 40
0.125
  1
"A" LOCATION OF THE DIN RAIL
 41
0.75
  7
SLDTEXTSTYLE0
  0
TEXT
  5
5B
  8
0
 62
     0
 10
0.1875000000000001
 20
-0.7857169051095359
 30
0.0
 40
0.125
  1
MOUNT MULT-BOARD BOX.
 41
0.75
  7
SLDTEXTSTYLE0
  0
TEXT
  5
5C
  8
0
 62
     0
 10
0.0937500000000001
 20
-1.1144570541419481
 30
0.0
 40
0.125
  1
PRE PLATED HOLES FOR EASY
 41
0.75
  7
SLDTEXTSTYLE0
  0
TEXT
  5
5D
  8
0
 62
     0
 10
0.2343750000000001
 20
-1.2788271286581541
 30
0.0
 40
0.125
  1
SOLDERING.
 41
0.75
  7
SLDTEXTSTYLE0
  0
TEXT
  5
5E
  8
0
 62
     0
 10
0.0937500000000001
 20
-1.607567277690567
 30
0.0
 40
0.125
  1
TERMINALS CAN BE USED IN
 41
0.75
  7
SLDTEXTSTYLE0
  0
TEXT
  5
5F
  8
0
 62
     0
 10
0.1875000000000001
 20
-1.771937352206773
 30
0.0
 40
0.125
  1
MULTIPLES OF (3)
 41
0.75
  7
SLDTEXTSTYLE0
  0
ENDBLK
  5
56
  8
0
  0
BLOCK
  8
0
  2
SW_NOTE_1
 70
     0
 10
0.0
 20
0.0
 30
0.0
  3
SW_NOTE_1
  1

  0
TEXT
  5
64
  8
0
 62
     0
 10
0.0175781250000001
 20
0.036133467471496
 30
0.0
 40
0.125
  1
PART
 41
0.75
  7
SLDTEXTSTYLE0
  0
TEXT
  5
65
  8
0
 62
     0
 10
0.015017361856821
 20
-0.1282366070447103
 30
0.0
 40
0.125
  1
NAME
 41
0.75
  7
SLDTEXTSTYLE0
  0
ENDBLK
  5
63
  8
0
  0
BLOCK
  8
0
  2
SW_NOTE_2
 70
     0
 10
0.0
 20
0.0
 30
0.0
  3
SW_NOTE_2
  1

  0
TEXT
  5
6A
  8
0
 62
     0
 10
0.0175781250000005
 20
0.036133467471496
 30
0.0
 40
0.125
  1
PART
 41
0.75
  7
SLDTEXTSTYLE0
  0
TEXT
  5
6B
  8
0
 62
     0
 10
0.1006944331479828
 20
-0.1282366070447103
 30
0.0
 40
0.125
  1
No.
 41
0.75
  7
SLDTEXTSTYLE0
  0
ENDBLK
  5
69
  8
0
  0
BLOCK
  8
0
  2
SW_NOTE_3
 70
     0
 10
0.0
 20
0.0
 30
0.0
  3
SW_NOTE_3
  1

  0
TEXT
  5
70
  8
0
 62
     0
 10
0.0156250000000005
 20
0.036133467471496
 30
0.0
 40
0.125
  1
REV.
 41
0.75
  7
SLDTEXTSTYLE0
  0
TEXT
  5
71
  8
0
 62
     0
 10
-0.0015190974699233
 20
-0.1282366070447103
 30
0.0
 40
0.125
  1
DATE
 41
0.75
  7
SLDTEXTSTYLE0
  0
ENDBLK
  5
6F
  8
0
  0
BLOCK
  8
0
  2
SW_NOTE_4
 70
     0
 10
0.0
 20
0.0
 30
0.0
  3
SW_NOTE_4
  1

  0
TEXT
  5
26D
  8
0
 62
     0
 10
-1.161241572184184
 20
-0.0277634955383765
 30
0.0
 40
0.125
  1
CIRCUIT BOARD
 41
0.75
  7
SLDTEXTSTYLE0
  0
TEXT
  5
26E
  8
0
 62
     0
 10
-1.043880528450309
 20
-0.1921335700545828
 30
0.0
 40
0.125
  1
"A" LOCATION
 41
0.75
  7
SLDTEXTSTYLE0
  0
ENDBLK
  5
26C
  8
0
  0
BLOCK
  8
0
  2
SW_NOTE_5
 70
     0
 10
0.0
 20
0.0
 30
0.0
  3
SW_NOTE_5
  1

  0
TEXT
  5
275
  8
0
 62
     0
 10
-1.259245033085171
 20
-0.0276752063327226
 30
0.0
 40
0.125
  1
DIN RAIL MOUNT
 41
0.75
  7
SLDTEXTSTYLE0
  0
TEXT
  5
276
  8
0
 62
     0
 10
-1.219922128136059
 20
-0.1920452808489289
 30
0.0
 40
0.125
  1
BOX #DMB-4770
 41
0.75
  7
SLDTEXTSTYLE0
  0
ENDBLK
  5
274
  8
0
  0
BLOCK
  8
0
  2
SW_NOTE_6
 70
     0
 10
0.0
 20
0.0
 30
0.0
  3
SW_NOTE_6
  1

  0
TEXT
  5
27C
  8
0
 62
     0
 10
-1.552647922667294
 20
-0.0276752063326768
 30
0.0
 40
0.125
  1
OPTIONAL TERMINAL
 41
0.75
  7
SLDTEXTSTYLE0
  0
TEXT
  5
27D
  8
0
 62
     0
 10
-2.0792971344719922
 20
-0.192045280848883
 30
0.0
 40
0.125
  1
CONNECTOR #DMB-4770-T3
 41
0.75
  7
SLDTEXTSTYLE0
  0
ENDBLK
  5
27B
  8
0
  0
BLOCK
  8
0
  2
*X58
 70
     1
 10
0.0
 20
0.0
 30
0.0
  3
*X58
  1

  0
LINE
  5
F47
  8
0
 62
     0
 10
9.5369144550242417
 20
3.5265068149385859
 30
0.0
 11
9.5563469922275015
 21
3.545939352141847
 31
0.0
  0
LINE
  5
F48
  8
0
 62
     0
 10
9.3616671200505852
 20
3.5280361752615699
 30
0.0
 11
9.4229603005285583
 21
3.589329355739542
 31
0.0
  0
ENDBLK
  5
F4A
  8
0
  0
BLOCK
  8
0
  2
*X59
 70
     1
 10
0.0
 20
0.0
 30
0.0
  3
*X59
  1

  0
LINE
  5
F4C
  8
0
 62
     0
 10
9.4893999402861482
 20
7.0145262061332332
 30
0.0
 11
9.5523572483026431
 21
7.0774835141497263
 31
0.0
  0
LINE
  5
F4D
  8
0
 62
     0
 10
9.3201370776190142
 20
7.0220400387627331
 30
0.0
 11
9.3740242646348211
 21
7.0759272257785391
 31
0.0
  0
ENDBLK
  5
F4F
  8
0
  0
BLOCK
  8
0
  2
*X60
 70
     1
 10
0.0
 20
0.0
 30
0.0
  3
*X60
  1

  0
LINE
  5
F51
  8
0
 62
     0
 10
8.7575051347533286
 20
6.4594080958970483
 30
0.0
 11
8.8083154961644432
 21
6.5102184573081638
 31
0.0
  0
LINE
  5
F52
  8
0
 62
     0
 10
8.5807284394566921
 20
6.4594080958970483
 30
0.0
 11
8.6422715216277357
 21
6.520951178068092
 31
0.0
  0
LINE
  5
F53
  8
0
 62
     0
 10
8.4039517441600537
 20
6.4594080958970466
 30
0.0
 11
8.463938537959935
 21
6.5193948896969287
 31
0.0
  0
LINE
  5
F54
  8
0
 62
     0
 10
8.2271750488634172
 20
6.4594080958970466
 30
0.0
 11
8.2856055542921379
 21
6.5178386013257681
 31
0.0
  0
LINE
  5
F55
  8
0
 62
     0
 10
8.0503983535667807
 20
6.4594080958970457
 30
0.0
 11
8.1072725706243371
 21
6.5162823129546048
 31
0.0
  0
ENDBLK
  5
F57
  8
0
  0
BLOCK
  8
0
  2
*X61
 70
     1
 10
0.0
 20
0.0
 30
0.0
  3
*X61
  1

  0
LINE
  5
F59
  8
0
 62
     0
 10
7.9004033953200308
 20
6.132636442353661
 30
0.0
 11
8.0012288819912936
 21
6.233461929024922
 31
0.0
  0
LINE
  5
F5A
  8
0
 62
     0
 10
7.942173763881045
 20
6.3511835062113118
 30
0.0
 11
7.9834692197067092
 21
6.3924789620369751
 31
0.0
  0
LINE
  5
F5B
  8
0
 62
     0
 10
7.7236267000233951
 20
6.132636442353661
 30
0.0
 11
7.7832635334995066
 21
6.1922732758297743
 31
0.0
  0
LINE
  5
F5C
  8
0
 62
     0
 10
7.5681580158495487
 20
6.1539444534764529
 30
0.0
 11
7.6049305498317583
 21
6.1907169874586616
 31
0.0
  0
ENDBLK
  5
F5E
  8
0
  0
BLOCK
  8
0
  2
*X62
 70
     1
 10
0.0
 20
0.0
 30
0.0
  3
*X62
  1

  0
LINE
  5
F60
  8
0
 62
     0
 10
7.9421737638810539
 20
4.2298631626516796
 30
0.0
 11
8.0012288819912918
 21
4.2889182807619166
 31
0.0
  0
LINE
  5
F61
  8
0
 62
     0
 10
7.9421737638810681
 20
4.4066398579483304
 30
0.0
 11
8.0012288819912936
 21
4.4656949760585549
 31
0.0
  0
LINE
  5
F62
  8
0
 62
     0
 10
7.7704513072834542
 20
4.411694096647353
 30
0.0
 11
7.8299763301552119
 21
4.4712191195191124
 31
0.0
  0
LINE
  5
F63
  8
0
 62
     0
 10
7.595203972309795
 20
4.4132234569703321
 30
0.0
 11
7.6531996348585762
 21
4.4712191195191124
 31
0.0
  0
ENDBLK
  5
F65
  8
0
  0
BLOCK
  8
0
  2
*X63
 70
     1
 10
0.0
 20
0.0
 30
0.0
  3
*X63
  1

  0
LINE
  5
F67
  8
0
 62
     0
 10
8.6787798580917084
 20
4.0825857803791488
 30
0.0
 11
8.7406415436884242
 21
4.1444474659758672
 31
0.0
  0
LINE
  5
F68
  8
0
 62
     0
 10
8.5035325231180892
 20
4.0841151407021679
 30
0.0
 11
8.5638648483917894
 21
4.1444474659758672
 31
0.0
  0
LINE
  5
F69
  8
0
 62
     0
 10
8.3282851881444682
 20
4.0856445010251861
 30
0.0
 11
8.3870881530951529
 21
4.1444474659758672
 31
0.0
  0
LINE
  5
F6A
  8
0
 62
     0
 10
8.1530378531708507
 20
4.0871738613482007
 30
0.0
 11
8.2103114577985146
 21
4.1444474659758654
 31
0.0
  0
LINE
  5
F6B
  8
0
 62
     0
 10
7.9777905181972333
 20
4.0887032216712207
 30
0.0
 11
8.033534762501878
 21
4.1444474659758672
 31
0.0
  0
ENDBLK
  5
F6D
  8
0
  0
BLOCK
  8
0
  2
*X64
 70
     1
 10
0.0
 20
0.0
 30
0.0
  3
*X64
  1

  0
LINE
  5
F6F
  8
0
 62
     0
 10
9.5563469922274962
 20
6.551143172184668
 30
0.0
 11
9.5957170709676571
 21
6.5905132509248281
 31
0.0
  0
ENDBLK
  5
F71
  8
0
  0
BLOCK
  8
0
  2
*X65
 70
     1
 10
0.0
 20
0.0
 30
0.0
  3
*X65
  1

  0
LINE
  5
F73
  8
0
 62
     0
 10
9.7163137960854478
 20
3.5291294607031558
 30
0.0
 11
9.8319375434084613
 21
3.6447532080261702
 31
0.0
  0
LINE
  5
F74
  8
0
 62
     0
 10
9.7728824252983681
 20
3.7624747852127141
 30
0.0
 11
9.831937543408463
 21
3.8215299033228081
 31
0.0
  0
LINE
  5
F75
  8
0
 62
     0
 10
9.5563469922273612
 20
3.5459393521417049
 30
0.0
 11
9.6627291218095799
 21
3.6523214817239258
 31
0.0
  0
LINE
  5
F76
  8
0
 62
     0
 10
9.7728824252983681
 20
3.939251480509351
 30
0.0
 11
9.831937543408463
 21
3.998306598619445
 31
0.0
  0
LINE
  5
F77
  8
0
 62
     0
 10
9.4579217953769668
 20
3.6242908505879501
 30
0.0
 11
9.4859524265129433
 21
3.6523214817239258
 31
0.0
  0
LINE
  5
F78
  8
0
 62
     0
 10
9.7728824252983681
 20
4.1160281758059876
 30
0.0
 11
9.8319375434084613
 21
4.1750832939160807
 31
0.0
  0
LINE
  5
F79
  8
0
 62
     0
 10
9.7728824252983681
 20
4.2928048711026241
 30
0.0
 11
9.8319375434084613
 21
4.3518599892127181
 31
0.0
  0
LINE
  5
F7A
  8
0
 62
     0
 10
9.7728824252983681
 20
4.4695815663992606
 30
0.0
 11
9.8319375434084613
 21
4.5286366845093537
 31
0.0
  0
LINE
  5
F7B
  8
0
 62
     0
 10
9.6567984012318195
 20
4.5302742376293494
 30
0.0
 11
9.7371923423485267
 21
4.6106681787460557
 31
0.0
  0
LINE
  5
F7C
  8
0
 62
     0
 10
9.5563469922273931
 20
4.6065995239215587
 30
0.0
 11
9.6350871497076902
 21
4.6853396814018584
 31
0.0
  0
LINE
  5
F7D
  8
0
 62
     0
 10
9.556346992227402
 20
4.7833762192182059
 30
0.0
 11
9.6350871497077168
 21
4.8621163766985198
 31
0.0
  0
LINE
  5
F7E
  8
0
 62
     0
 10
9.5563469922274145
 20
4.960152914514854
 30
0.0
 11
9.6264683153420041
 21
5.0302742376294436
 31
0.0
  0
LINE
  5
F7F
  8
0
 62
     0
 10
9.5563469922274251
 20
5.136929609811502
 30
0.0
 11
9.5957170709676642
 21
5.1762996885517403
 31
0.0
  0
LINE
  5
F80
  8
0
 62
     0
 10
9.5563469922274358
 20
5.3137063051081501
 30
0.0
 11
9.5957170709676625
 21
5.3530763838483759
 31
0.0
  0
LINE
  5
F81
  8
0
 62
     0
 10
9.5563469922274464
 20
5.4904830004047973
 30
0.0
 11
9.5957170709676625
 21
5.5298530791450151
 31
0.0
  0
LINE
  5
F82
  8
0
 62
     0
 10
9.5563469922274571
 20
5.6672596957014463
 30
0.0
 11
9.5957170709676625
 21
5.7066297744416508
 31
0.0
  0
LINE
  5
F83
  8
0
 62
     0
 10
9.5563469922274678
 20
5.8440363909980926
 30
0.0
 11
9.5957170709676642
 21
5.8834064697382882
 31
0.0
  0
LINE
  5
F84
  8
0
 62
     0
 10
9.5563469922274802
 20
6.0208130862947398
 30
0.0
 11
9.5957170709676642
 21
6.0601831650349238
 31
0.0
  0
LINE
  5
F85
  8
0
 62
     0
 10
9.5563469922274908
 20
6.1975897815913887
 30
0.0
 11
9.5957170709676625
 21
6.2369598603315612
 31
0.0
  0
ENDBLK
  5
F87
  8
0
  0
BLOCK
  8
0
  2
*X66
 70
     1
 10
0.0
 20
0.0
 30
0.0
  3
*X66
  1

  0
LINE
  5
F89
  8
0
 62
     0
 10
9.4579217953769668
 20
6.9830480612240509
 30
0.0
 11
9.4854629324122968
 21
7.0105891982593791
 31
0.0
  0
ENDBLK
  5
F8B
  8
0
  0
BLOCK
  8
0
  2
*X67
 70
     1
 10
0.0
 20
0.0
 30
0.0
  3
*X67
  1

  0
LINE
  5
F8D
  8
0
 62
     0
 10
9.7453233701802571
 20
6.740119550137428
 30
0.0
 11
9.831937543408463
 21
6.826733723365634
 31
0.0
  0
LINE
  5
F8E
  8
0
 62
     0
 10
9.7453233701802482
 20
6.9168962454340592
 30
0.0
 11
9.7724026720824888
 21
6.9439755473362981
 31
0.0
  0
ENDBLK
  5
F90
  8
0
  0
BLOCK
  8
0
  2
*X68
 70
     1
 10
0.0
 20
0.0
 30
0.0
  3
*X68
  1

  0
LINE
  5
F92
  8
0
 62
     0
 10
9.7453233701802588
 20
6.3865661595441567
 30
0.0
 11
9.8319375434084861
 21
6.4731803327723858
 31
0.0
  0
ENDBLK
  5
F94
  8
0
  0
BLOCK
  8
0
  2
*X69
 70
     1
 10
0.0
 20
0.0
 30
0.0
  3
*X69
  1

  0
LINE
  5
F96
  8
0
 62
     0
 10
7.6571366427325831
 20
4.4751561273931184
 30
0.0
 11
7.6587091969519108
 21
4.476728681612447
 31
0.0
  0
LINE
  5
F97
  8
0
 62
     0
 10
7.5701265197865579
 20
4.5649226997437307
 30
0.0
 11
7.6488666772668719
 21
4.6436628572240446
 31
0.0
  0
LINE
  5
F98
  8
0
 62
     0
 10
7.5701265197865579
 20
4.7416993950403681
 30
0.0
 11
7.6488666772668736
 21
4.8204395525206829
 31
0.0
  0
LINE
  5
F99
  8
0
 62
     0
 10
7.5701265197865579
 20
4.9184760903370037
 30
0.0
 11
7.648866677266871
 21
4.9972162478173177
 31
0.0
  0
LINE
  5
F9A
  8
0
 62
     0
 10
7.570126519786557
 20
5.0952527856336403
 30
0.0
 11
7.6488666772668727
 21
5.173992943113956
 31
0.0
  0
LINE
  5
F9B
  8
0
 62
     0
 10
7.5701265197865579
 20
5.2720294809302777
 30
0.0
 11
7.6488666772668727
 21
5.3507696384105934
 31
0.0
  0
LINE
  5
F9C
  8
0
 62
     0
 10
7.570126519786557
 20
5.4488061762269151
 30
0.0
 11
7.6488666772668719
 21
5.527546333707229
 31
0.0
  0
LINE
  5
F9D
  8
0
 62
     0
 10
7.570126519786557
 20
5.6255828715235507
 30
0.0
 11
7.6488666772668736
 21
5.7043230290038673
 31
0.0
  0
LINE
  5
F9E
  8
0
 62
     0
 10
7.570126519786557
 20
5.8023595668201882
 30
0.0
 11
7.6488666772668736
 21
5.8810997243005039
 31
0.0
  0
LINE
  5
F9F
  8
0
 62
     0
 10
7.5701265197865579
 20
5.9791362621168247
 30
0.0
 11
7.6587091969519117
 21
6.0677189392821784
 31
0.0
  0
ENDBLK
  5
FA1
  8
0
  0
BLOCK
  8
0
  2
*X70
 70
     1
 10
0.0
 20
0.0
 30
0.0
  3
*X70
  1

  0
LINE
  5
FA3
  8
0
 62
     0
 10
9.6766890291501042
 20
7.2018152949971874
 30
0.0
 11
9.727084063343824
 21
7.252210329190909
 31
0.0
  0
ENDBLK
  5
FA5
  8
0
  0
BLOCK
  8
0
  2
*X71
 70
     1
 10
0.0
 20
0.0
 30
0.0
  3
*X71
  1

  0
LINE
  5
FA7
  8
0
 62
     0
 10
9.7177643150621602
 20
6.0054537138327868
 30
0.0
 11
9.8122525040385469
 21
6.0999419028091708
 31
0.0
  0
LINE
  5
FA8
  8
0
 62
     0
 10
9.6075280945897212
 20
6.0719941886569808
 30
0.0
 11
9.7137271536859782
 21
6.1781932477532422
 31
0.0
  0
ENDBLK
  5
FAA
  8
0
  0
BLOCK
  8
0
  2
*X72
 70
     1
 10
0.0
 20
0.0
 30
0.0
  3
*X72
  1

  0
LINE
  5
FAC
  8
0
 62
     0
 10
9.6862682520700361
 20
6.8578411273238453
 30
0.0
 11
9.7453233701802695
 21
6.9168962454340797
 31
0.0
  0
LINE
  5
FAD
  8
0
 62
     0
 10
9.6862682520700361
 20
7.0346178226204801
 30
0.0
 11
9.7353554882262632
 21
7.083705058776709
 31
0.0
  0
ENDBLK
  5
FAF
  8
0
  0
BLOCK
  8
0
  2
*X73
 70
     1
 10
0.0
 20
0.0
 30
0.0
  3
*X73
  1

  0
LINE
  5
FB1
  8
0
 62
     0
 10
8.5819375434086158
 20
3.8089667703994201
 30
0.0
 11
8.6114651024637361
 21
3.8384943294545391
 31
0.0
  0
ENDBLK
  5
FB3
  8
0
  0
BLOCK
  8
0
  2
*X74
 70
     1
 10
0.0
 20
0.0
 30
0.0
  3
*X74
  1

  0
LINE
  5
FB5
  8
0
 62
     0
 10
8.7940251010214343
 20
4.0210543280122382
 30
0.0
 11
8.8526929430201893
 21
4.0797221700109931
 31
0.0
  0
LINE
  5
FB6
  8
0
 62
     0
 10
8.6172484057247978
 20
4.0210543280122382
 30
0.0
 11
8.6751413304981231
 21
4.0789472527855626
 31
0.0
  0
LINE
  5
FB7
  8
0
 62
     0
 10
8.5622525040385664
 20
3.9660584263260059
 30
0.0
 11
8.6114651024637396
 21
4.0152710247511791
 31
0.0
  0
ENDBLK
  5
FB9
  8
0
  0
BLOCK
  8
0
  2
*X75
 70
     1
 10
0.0
 20
0.0
 30
0.0
  3
*X75
  1

  0
LINE
  5
FBB
  8
0
 62
     0
 10
9.2170392848921132
 20
3.5601850353997322
 30
0.0
 11
9.2527117271109312
 21
3.5958574776185501
 31
0.0
  0
LINE
  5
FBC
  8
0
 62
     0
 10
9.0147442322081588
 20
3.5346666780124152
 30
0.0
 11
9.0759350318142946
 21
3.5958574776185501
 31
0.0
  0
LINE
  5
FBD
  8
0
 62
     0
 10
8.8364112485404451
 20
3.5331103896413389
 30
0.0
 11
8.8991583365176563
 21
3.5958574776185501
 31
0.0
  0
LINE
  5
FBE
  8
0
 62
     0
 10
8.6606777801558952
 20
3.5341536165534282
 30
0.0
 11
8.7223816412210198
 21
3.5958574776185501
 31
0.0
  0
LINE
  5
FBF
  8
0
 62
     0
 10
8.5622525040386783
 20
3.6125050357328461
 30
0.0
 11
8.6114651024637396
 21
3.6617176341579061
 31
0.0
  0
ENDBLK
  5
FC1
  8
0
  0
BLOCK
  8
0
  2
*X76
 70
     1
 10
0.0
 20
0.0
 30
0.0
  3
*X76
  1

  0
LINE
  5
FC3
  8
0
 62
     0
 10
8.5819375434086158
 20
6.814170590442246
 30
0.0
 11
8.6114651024637361
 21
6.8436981494973654
 31
0.0
  0
ENDBLK
  5
FC5
  8
0
  0
BLOCK
  8
0
  2
*X77
 70
     1
 10
0.0
 20
0.0
 30
0.0
  3
*X77
  1

  0
LINE
  5
FC7
  8
0
 62
     0
 10
8.8219622480057982
 20
6.5238652091495188
 30
0.0
 11
8.8808982727169532
 21
6.5828012338606738
 31
0.0
  0
LINE
  5
FC8
  8
0
 62
     0
 10
8.6464787868757327
 20
6.5251584433160899
 30
0.0
 11
8.7041215774203167
 21
6.582801233860673
 31
0.0
  0
LINE
  5
FC9
  8
0
 62
     0
 10
8.5622525040386623
 20
6.617708855775656
 30
0.0
 11
8.6114651024637379
 21
6.6669214542007307
 31
0.0
  0
ENDBLK
  5
FCB
  8
0
  0
BLOCK
  8
0
  2
*X78
 70
     1
 10
0.0
 20
0.0
 30
0.0
  3
*X78
  1

  0
LINE
  5
FCD
  8
0
 62
     0
 10
9.3060951231106444
 20
7.0079980842543641
 30
0.0
 11
9.3161895119126097
 21
7.0180924730563294
 31
0.0
  0
LINE
  5
FCE
  8
0
 62
     0
 10
9.1293184278140078
 20
7.0079980842543641
 30
0.0
 11
9.1667471114294923
 21
7.0454267678698477
 31
0.0
  0
LINE
  5
FCF
  8
0
 62
     0
 10
8.9525417325173713
 20
7.0079980842543641
 30
0.0
 11
9.0137412847135643
 21
7.0691976364505571
 31
0.0
  0
LINE
  5
FD0
  8
0
 62
     0
 10
8.7757650372207312
 20
7.0079980842543641
 30
0.0
 11
8.8384939497399113
 21
7.0707269967735407
 31
0.0
  0
LINE
  5
FD1
  8
0
 62
     0
 10
8.5622525040385717
 20
6.9712622463688376
 30
0.0
 11
8.6606923299636271
 21
7.069702072293893
 31
0.0
  0
ENDBLK
  5
FD3
  8
0
  0
BLOCK
  8
0
  2
*X79
 70
     1
 10
0.0
 20
0.0
 30
0.0
  3
*X79
  1

  0
LINE
  5
FD5
  8
0
 62
     0
 10
9.4579217953769668
 20
3.6235536565741611
 30
0.0
 11
9.3949296693927131
 21
3.6865457825584129
 31
0.0
  0
LINE
  5
FD6
  8
0
 62
     0
 10
9.4249288044657717
 20
3.5912978596767542
 30
0.0
 11
9.4579217953769668
 21
3.6242908505879501
 31
0.0
  0
LINE
  5
FD7
  8
0
 62
     0
 10
9.3949296693927131
 20
3.7380754199003352
 30
0.0
 11
9.4450510043135161
 21
3.7881967548211342
 31
0.0
  0
ENDBLK
  5
FD9
  8
0
  0
BLOCK
  8
0
  2
*X80
 70
     1
 10
0.0
 20
0.0
 30
0.0
  3
*X80
  1

  0
LINE
  5
FDB
  8
0
 62
     0
 10
9.4579217953769668
 20
6.6287574766169888
 30
0.0
 11
9.3949296693927167
 21
6.6917496026012389
 31
0.0
  0
LINE
  5
FDC
  8
0
 62
     0
 10
9.4579217953769668
 20
6.4519807813203522
 30
0.0
 11
9.3949296693927167
 21
6.5149729073046032
 31
0.0
  0
LINE
  5
FDD
  8
0
 62
     0
 10
9.4579217953769632
 20
6.2752040860237157
 30
0.0
 11
9.3949296693927131
 21
6.3381962120079658
 31
0.0
  0
LINE
  5
FDE
  8
0
 62
     0
 10
9.4579217953769668
 20
6.0984273907270783
 30
0.0
 11
9.3949296693927167
 21
6.1614195167113284
 31
0.0
  0
LINE
  5
FDF
  8
0
 62
     0
 10
9.4579217953769668
 20
5.9216506954304409
 30
0.0
 11
9.3949296693927167
 21
5.9846428214146918
 31
0.0
  0
LINE
  5
FE0
  8
0
 62
     0
 10
9.4579217953769668
 20
5.7448740001338052
 30
0.0
 11
9.3949296693927131
 21
5.8078661261180553
 31
0.0
  0
LINE
  5
FE1
  8
0
 62
     0
 10
9.4579217953769632
 20
5.5680973048371678
 30
0.0
 11
9.3949296693927131
 21
5.6310894308214179
 31
0.0
  0
LINE
  5
FE2
  8
0
 62
     0
 10
9.4579217953769668
 20
5.3913206095405313
 30
0.0
 11
9.3949296693927167
 21
5.4543127355247822
 31
0.0
  0
LINE
  5
FE3
  8
0
 62
     0
 10
9.4579217953769668
 20
5.214543914243893
 30
0.0
 11
9.3949296693927167
 21
5.2775360402281448
 31
0.0
  0
LINE
  5
FE4
  8
0
 62
     0
 10
9.4579217953769668
 20
5.0377672189472564
 30
0.0
 11
9.3949296693927167
 21
5.1007593449315074
 31
0.0
  0
LINE
  5
FE5
  8
0
 62
     0
 10
9.4579217953769632
 20
4.8609905236506199
 30
0.0
 11
9.3949296693927131
 21
4.92398264963487
 31
0.0
  0
LINE
  5
FE6
  8
0
 62
     0
 10
9.4579217953769668
 20
4.6842138283539834
 30
0.0
 11
9.3949296693927131
 21
4.7472059543382343
 31
0.0
  0
LINE
  5
FE7
  8
0
 62
     0
 10
9.4579217953769668
 20
4.5074371330573459
 30
0.0
 11
9.3949296693927131
 21
4.5704292590415969
 31
0.0
  0
LINE
  5
FE8
  8
0
 62
     0
 10
9.4579217953769668
 20
4.3306604377607094
 30
0.0
 11
9.3949296693927131
 21
4.3936525637449613
 31
0.0
  0
LINE
  5
FE9
  8
0
 62
     0
 10
9.4579217953769668
 20
4.1538837424640711
 30
0.0
 11
9.3949296693927131
 21
4.2168758684483238
 31
0.0
  0
LINE
  5
FEA
  8
0
 62
     0
 10
9.4579217953769668
 20
3.9771070471674341
 30
0.0
 11
9.3949296693927131
 21
4.0400991731516873
 31
0.0
  0
LINE
  5
FEB
  8
0
 62
     0
 10
9.4189712929516674
 20
3.8392808542960979
 30
0.0
 11
9.3949296693927131
 21
3.8633224778550499
 31
0.0
  0
LINE
  5
FEC
  8
0
 62
     0
 10
9.3949296693927131
 20
3.9148521151969708
 30
0.0
 11
9.4579217953769668
 21
3.9778442411812232
 31
0.0
  0
LINE
  5
FED
  8
0
 62
     0
 10
9.3949296693927167
 20
4.0916288104936083
 30
0.0
 11
9.4579217953769668
 21
4.1546209364778601
 31
0.0
  0
LINE
  5
FEE
  8
0
 62
     0
 10
9.3949296693927167
 20
4.2684055057902457
 30
0.0
 11
9.4579217953769685
 21
4.3313976317744958
 31
0.0
  0
LINE
  5
FEF
  8
0
 62
     0
 10
9.3949296693927167
 20
4.4451822010868831
 30
0.0
 11
9.4579217953769685
 21
4.5081743270711341
 31
0.0
  0
LINE
  5
FF0
  8
0
 62
     0
 10
9.3949296693927131
 20
4.6219588963835188
 30
0.0
 11
9.4579217953769668
 21
4.6849510223677706
 31
0.0
  0
LINE
  5
FF1
  8
0
 62
     0
 10
9.3949296693927131
 20
4.7987355916801562
 30
0.0
 11
9.4579217953769668
 21
4.861727717664408
 31
0.0
  0
LINE
  5
FF2
  8
0
 62
     0
 10
9.3949296693927167
 20
4.9755122869767918
 30
0.0
 11
9.4579217953769668
 21
5.0385044129610437
 31
0.0
  0
LINE
  5
FF3
  8
0
 62
     0
 10
9.3949296693927131
 20
5.1522889822734292
 30
0.0
 11
9.4579217953769632
 21
5.2152811082576811
 31
0.0
  0
LINE
  5
FF4
  8
0
 62
     0
 10
9.3949296693927167
 20
5.3290656775700667
 30
0.0
 11
9.4579217953769685
 21
5.3920578035543167
 31
0.0
  0
LINE
  5
FF5
  8
0
 62
     0
 10
9.3949296693927131
 20
5.5058423728667032
 30
0.0
 11
9.4579217953769668
 21
5.5688344988509551
 31
0.0
  0
LINE
  5
FF6
  8
0
 62
     0
 10
9.3949296693927131
 20
5.6826190681633397
 30
0.0
 11
9.4579217953769668
 21
5.7456111941475916
 31
0.0
  0
LINE
  5
FF7
  8
0
 62
     0
 10
9.3949296693927167
 20
5.8593957634599771
 30
0.0
 11
9.4579217953769668
 21
5.922387889444229
 31
0.0
  0
LINE
  5
FF8
  8
0
 62
     0
 10
9.3949296693927131
 20
6.0361724587566128
 30
0.0
 11
9.4579217953769685
 21
6.0991645847408646
 31
0.0
  0
LINE
  5
FF9
  8
0
 62
     0
 10
9.3949296693927167
 20
6.2129491540532511
 30
0.0
 11
9.4579217953769632
 21
6.2759412800375021
 31
0.0
  0
LINE
  5
FFA
  8
0
 62
     0
 10
9.3949296693927167
 20
6.3897258493498876
 30
0.0
 11
9.4579217953769668
 21
6.4527179753341377
 31
0.0
  0
LINE
  5
FFB
  8
0
 62
     0
 10
9.3949296693927131
 20
6.5665025446465242
 30
0.0
 11
9.4579217953769632
 21
6.629494670630776
 31
0.0
  0
LINE
  5
FFC
  8
0
 62
     0
 10
9.3949296693927167
 20
6.7432792399431607
 30
0.0
 11
9.4162251370266521
 21
6.764574707577097
 31
0.0
  0
ENDBLK
  5
FFE
  8
0
  0
BLOCK
  8
0
  2
*X81
 70
     1
 10
0.0
 20
0.0
 30
0.0
  3
*X81
  1

  0
LINE
  5
1000
  8
0
 62
     0
 10
9.4579217953769668
 20
6.9823108672102618
 30
0.0
 11
9.4276749603907906
 21
7.012557702196438
 31
0.0
  0
LINE
  5
1001
  8
0
 62
     0
 10
9.4477971602385331
 20
6.815658807052059
 30
0.0
 11
9.3949296693927131
 21
6.8685262978978781
 31
0.0
  0
LINE
  5
1002
  8
0
 62
     0
 10
9.3949296693927131
 20
6.9200559352397981
 30
0.0
 11
9.4579217953769668
 21
6.9830480612240491
 31
0.0
  0
ENDBLK
  5
1004
  8
0
  0
BLOCK
  8
0
  2
*X82
 70
     1
 10
0.0
 20
0.0
 30
0.0
  3
*X82
  1

  0
LINE
  5
1006
  8
0
 62
     0
 10
9.4450025028700235
 20
3.788148253377642
 30
0.0
 11
9.4764985658620766
 21
3.819644316369696
 31
0.0
  0
LINE
  5
1007
  8
0
 62
     0
 10
9.3041773896419002
 20
3.647323140149521
 30
0.0
 11
9.3949296693927131
 21
3.7380754199003339
 31
0.0
  0
LINE
  5
1008
  8
0
 62
     0
 10
9.272882425298226
 20
3.792804871102482
 30
0.0
 11
9.3949296693927131
 21
3.9148521151969708
 31
0.0
  0
LINE
  5
1009
  8
0
 62
     0
 10
9.1201181812641323
 20
3.6400406270683869
 30
0.0
 11
9.1823312441958649
 21
3.7022536900001208
 31
0.0
  0
LINE
  5
100A
  8
0
 62
     0
 10
9.0481420256625373
 20
3.7448411667634312
 30
0.0
 11
9.2843624981034925
 21
3.9810616392043849
 31
0.0
  0
LINE
  5
100B
  8
0
 62
     0
 10
8.9713175861244192
 20
3.668016727225313
 30
0.0
 11
9.0304254902294367
 21
3.7271246313303301
 31
0.0
  0
LINE
  5
100C
  8
0
 62
     0
 10
8.9914440705254322
 20
3.8649199069229621
 30
0.0
 11
8.9953233701801167
 21
3.8687992065776462
 31
0.0
  0
LINE
  5
100D
  8
0
 62
     0
 10
8.9461107717549186
 20
3.8195866081524481
 30
0.0
 11
8.9894755665863784
 21
3.8629514029839069
 31
0.0
  0
LINE
  5
100E
  8
0
 62
     0
 10
9.0071921020194772
 20
3.8806679384170071
 30
0.0
 11
9.0902403655076984
 21
3.9637162019052279
 31
0.0
  0
LINE
  5
100F
  8
0
 62
     0
 10
8.9106777008887779
 20
3.7841535372863082
 30
0.0
 11
8.9146724169801121
 21
3.7881482533776429
 31
0.0
  0
ENDBLK
  5
1011
  8
0
  0
BLOCK
  8
0
  2
*X83
 70
     1
 10
0.0
 20
0.0
 30
0.0
  3
*X83
  1

  0
LINE
  5
1013
  8
0
 62
     0
 10
9.4358616749530526
 20
6.7842112455034966
 30
0.0
 11
9.4673577379451057
 21
6.8157073084955497
 31
0.0
  0
LINE
  5
1014
  8
0
 62
     0
 10
9.2744443521183637
 20
6.6227939226688077
 30
0.0
 11
9.3949296693927131
 21
6.7432792399431589
 31
0.0
  0
LINE
  5
1015
  8
0
 62
     0
 10
9.272882425298226
 20
6.7980086911453093
 30
0.0
 11
9.3949296693927131
 21
6.9200559352397981
 31
0.0
  0
LINE
  5
1016
  8
0
 62
     0
 10
9.1100058404650284
 20
6.6351321063121107
 30
0.0
 11
9.1980613576091041
 21
6.7231876234561847
 31
0.0
  0
LINE
  5
1017
  8
0
 62
     0
 10
9.0393291930358473
 20
6.741232154179567
 30
0.0
 11
9.1886228209668381
 21
6.8905257821105561
 31
0.0
  0
LINE
  5
1018
  8
0
 62
     0
 10
8.9689606048559973
 20
6.6708635659997171
 30
0.0
 11
9.0212846623124658
 21
6.7231876234561847
 31
0.0
  0
LINE
  5
1019
  8
0
 62
     0
 10
8.9850248582443051
 20
6.8637045146846623
 30
0.0
 11
8.9953233701801167
 21
6.874003026620473
 31
0.0
  0
LINE
  5
101A
  8
0
 62
     0
 10
8.9980512741025063
 20
6.8767309305428617
 30
0.0
 11
9.0974821852702252
 21
6.9761618417105806
 31
0.0
  0
LINE
  5
101B
  8
0
 62
     0
 10
8.9370276520551961
 20
6.8157073084955506
 30
0.0
 11
8.9800067433791249
 21
6.858686399819482
 31
0.0
  0
ENDBLK
  5
101D
  8
0
  0
BLOCK
  8
0
  2
*U84
 70
     1
 10
0.0
 20
0.0
 30
0.0
  3
*U84
  1

  0
TEXT
  5
101F
  8
0
 62
     1
 10
369.69105150864328
 20
-233.73170412691519
 30
0.0
 40
2.5
  1
32,8
  0
TEXT
  5
1020
  8
0
 62
     1
 10
378.4410515086434
 20
-232.06503746024859
 30
0.0
 40
2.5
  1
 0
  0
TEXT
  5
1021
  8
0
 62
     1
 10
378.4410515086434
 20
-235.81503746024859
 30
0.0
 40
2.5
  1
-0,1
  0
ENDBLK
  5
1023
  8
0
  0
BLOCK
  8
0
  2
*U85
 70
     1
 10
0.0
 20
0.0
 30
0.0
  3
*U85
  1

  0
TEXT
  5
1025
  8
0
 62
     1
 10
415.50608792596648
 20
-306.6734313442505
 30
0.0
 40
2.5
  1
86,9
 50
90.0
  0
TEXT
  5
1026
  8
0
 62
     1
 10
413.83942125929991
 20
-297.9234313442505
 30
0.0
 40
2.5
  1
 0
 50
90.0
  0
TEXT
  5
1027
  8
0
 62
     1
 10
417.5894212592998
 20
-297.9234313442505
 30
0.0
 40
2.5
  1
-0,1
 50
90.0
  0
ENDBLK
  5
1029
  8
0
  0
BLOCK
  8
0
  2
*U86
 70
     1
 10
0.0
 20
0.0
 30
0.0
  3
*U86
  1

  0
TEXT
  5
102B
  8
0
 62
     1
 10
347.2919381908273
 20
-302.65338185233071
 30
0.0
 40
2.5
  1
\U+22051,3
 50
309.93328136800051
  0
TEXT
  5
102C
  8
0
 62
     1
 10
353.65159547087808
 20
-307.65399663145411
 30
0.0
 40
2.5
  1
+0,2
 50
309.93328136800051
  0
TEXT
  5
102D
  8
0
 62
     1
 10
351.09562072448989
 20
-309.79364711855158
 30
0.0
 40
2.5
  1
 0
 50
309.93328136800051
  0
ENDBLK
  5
102F
  8
0
  0
ENDSEC
  0
SECTION
  2
ENTITIES
  0
LINE
  5
44
  8
0
  6
CONTINUOUS
 62
     7
 10
0.3919269999999984
 20
8.1300731707317055
 30
0.0
 11
0.3919269999999979
 21
0.4540731707317041
 31
0.0
  0
LINE
  5
45
  8
0
  6
CONTINUOUS
 62
     7
 10
0.3299269999999985
 20
8.1920731707317032
 30
0.0
 11
0.3299269999999985
 21
0.3920731707317054
 31
0.0
  0
LINE
  5
46
  8
0
  6
CONTINUOUS
 62
     7
 10
10.629927
 20
0.3920731707317041
 30
0.0
 11
0.3299269999999985
 21
0.3920731707317054
 31
0.0
  0
LINE
  5
47
  8
0
  6
CONTINUOUS
 62
     7
 10
10.629927
 20
0.3920731707317041
 30
0.0
 11
10.629927
 21
8.1920731707317032
 31
0.0
  0
LINE
  5
48
  8
0
  6
CONTINUOUS
 62
     7
 10
10.56792699999999
 20
0.4540731707317041
 30
0.0
 11
0.3919269999999979
 21
0.4540731707317041
 31
0.0
  0
LINE
  5
49
  8
0
  6
CONTINUOUS
 62
     7
 10
10.56792699999999
 20
0.4540731707317041
 30
0.0
 11
10.56792699999999
 21
8.1300731707317055
 31
0.0
  0
LINE
  5
4A
  8
0
  6
CONTINUOUS
 62
     7
 10
0.3919269999999984
 20
8.1300731707317055
 30
0.0
 11
10.56792699999999
 21
8.1300731707317055
 31
0.0
  0
LINE
  5
4B
  8
0
  6
CONTINUOUS
 62
     7
 10
0.3919269999999984
 20
7.724073170731705
 30
0.0
 11
10.56792699999999
 21
7.724073170731705
 31
0.0
  0
LINE
  5
4C
  8
0
  6
CONTINUOUS
 62
     7
 10
0.9539269999999984
 20
8.1300731707317055
 30
0.0
 11
0.9539269999999984
 21
7.724073170731705
 31
0.0
  0
LINE
  5
4D
  8
0
  6
CONTINUOUS
 62
     7
 10
9.0209161630781534
 20
8.1300731707317055
 30
0.0
 11
9.0209161630781534
 21
7.724073170731705
 31
0.0
  0
LINE
  5
4E
  8
0
  6
CONTINUOUS
 62
     7
 10
9.5829161630781527
 20
8.1300731707317055
 30
0.0
 11
9.5829161630781527
 21
7.724073170731705
 31
0.0
  0
LINE
  5
4F
  8
0
  6
CONTINUOUS
 62
     7
 10
5.4539269999999984
 20
8.1300731707317055
 30
0.0
 11
5.4539269999999984
 21
7.724073170731705
 31
0.0
  0
LINE
  5
50
  8
0
  6
CONTINUOUS
 62
     7
 10
6.0159269999999978
 20
8.1300731707317055
 30
0.0
 11
6.0159269999999978
 21
7.724073170731705
 31
0.0
  0
LINE
  5
51
  8
0
  6
CONTINUOUS
 62
     7
 10
0.3299269999999985
 20
8.1920731707317032
 30
0.0
 11
10.629927
 21
8.1920731707317032
 31
0.0
  0
TEXT
  5
53
  8
0
 62
     7
 10
2.3314263841150642
 20
0.8571625928849747
 30
0.0
 40
0.125
  1
PCB THICKNESS: 1.6mm
 41
0.75
  7
SLDTEXTSTYLE0
  0
INSERT
  5
60
  8
0
  6
CONTINUOUS
 62
     7
  2
SW_NOTE_0
 10
5.6733709642064776
 20
2.4579710379378912
 30
0.0
  0
INSERT
  5
66
  8
0
  6
CONTINUOUS
 62
     7
  2
SW_NOTE_1
 10
0.4700130873777168
 20
7.914031890322593
 30
0.0
  0
INSERT
  5
6C
  8
0
  6
CONTINUOUS
 62
     7
  2
SW_NOTE_2
 10
5.5393881544520136
 20
7.9135712069467941
 30
0.0
  0
INSERT
  5
72
  8
0
  6
CONTINUOUS
 62
     7
  2
SW_NOTE_3
 10
9.1290491867108674
 20
7.9199729233358864
 30
0.0
  0
TEXT
  5
73
  8
0
 62
     7
 10
1.3748170857701261
 20
7.8435653238054321
 30
0.0
 40
0.1875
  1
PCB FOR DIN RAIL MOUNT BOX
 41
0.75
  7
SLDTEXTSTYLE0
  0
TEXT
  5
74
  8
0
 62
     7
 10
6.801580506320076
 20
7.8383199070570253
 30
0.0
 40
0.1875
  1
DMB-4770-CB
 41
0.75
  7
SLDTEXTSTYLE0
  0
TEXT
  5
75
  8
0
 62
     7
 10
9.6800489047343525
 20
7.8354025962005567
 30
0.0
 40
0.1875
  1
8-2-12
 41
0.75
  7
SLDTEXTSTYLE0
  0
ARC
  5
76
  8
0
  6
CONTINUOUS
 62
     7
 10
8.9618588032472903
 20
6.8668884108577863
 30
0.0
 40
0.0118110236220481
 50
0.0
 51
90.0
  0
ARC
  5
77
  8
0
  6
CONTINUOUS
 62
     7
 10
8.9618588032472903
 20
6.7330301431412831
 30
0.0
 40
0.0118110236220481
 50
270.0000000000008
 51
0.0
  0
ARC
  5
78
  8
0
  6
CONTINUOUS
 62
     7
 10
8.9185517166331163
 20
6.8708254187319318
 30
0.0
 40
0.0078740157480315
 50
90.0
 51
180.00000000101539
  0
LINE
  5
79
  8
0
  6
CONTINUOUS
 62
     7
 10
8.9106776975209154
 20
6.729077640450507
 30
0.0
 11
8.9106853699322812
 21
6.7287772705870719
 31
0.0
  0
ARC
  5
7A
  8
0
  6
CONTINUOUS
 62
     7
 10
8.9185517166331163
 20
6.7290931352672763
 30
0.0
 40
0.0078740157480397
 50
210.9283262660787
 51
270.0000000000008
  0
LINE
  5
7B
  8
0
  6
CONTINUOUS
 62
     7
 10
8.9618588046057326
 20
6.8787369249070158
 30
0.0
 11
8.9185517182262242
 21
6.8787369249070158
 31
0.0
  0
LINE
  5
7C
  8
0
  6
CONTINUOUS
 62
     7
 10
8.9185517182262242
 20
6.721192931535338
 30
0.0
 11
8.9618588046057326
 21
6.721192931535338
 31
0.0
  0
LINE
  5
7D
  8
0
  6
CONTINUOUS
 62
     7
 10
9.0780005366765337
 20
6.8589876063861617
 30
0.0
 11
8.9736698264971331
 21
6.8589876063861617
 31
0.0
  0
LINE
  5
7E
  8
0
  6
CONTINUOUS
 62
     7
 10
8.9736698264971331
 20
6.7408671575903334
 30
0.0
 11
9.0780005366765337
 21
6.7408671575903334
 31
0.0
  0
LINE
  5
7F
  8
0
  6
CONTINUOUS
 62
     7
 10
8.5819375301553809
 20
6.7383140137511353
 30
0.0
 11
8.6114651123835646
 21
6.7383140137511353
 31
0.0
  0
LINE
  5
80
  8
0
  6
CONTINUOUS
 62
     7
 10
8.6114651123835646
 20
6.8564344625469653
 30
0.0
 11
8.5819375301553809
 21
6.8564344625469653
 31
0.0
  0
LINE
  5
81
  8
0
  6
CONTINUOUS
 62
     7
 10
8.5819375301553809
 20
3.747456191062589
 30
0.0
 11
8.6114651123835646
 21
3.747456191062589
 31
0.0
  0
LINE
  5
82
  8
0
  6
CONTINUOUS
 62
     7
 10
8.6114651123835646
 20
3.865576639858419
 30
0.0
 11
8.5819375301553809
 21
3.865576639858419
 31
0.0
  0
LINE
  5
83
  8
0
  6
CONTINUOUS
 62
     7
 10
8.0012289018843425
 20
6.3295106296160473
 30
0.0
 11
8.1783942485884733
 21
6.3387470029166737
 31
0.0
  0
LINE
  5
84
  8
0
  6
CONTINUOUS
 62
     7
 10
8.1783942485884733
 20
6.4304349037302204
 30
0.0
 11
8.0012289018843425
 21
6.4397463694967056
 31
0.0
  0
LINE
  5
85
  8
0
  6
CONTINUOUS
 62
     7
 10
8.0012289018843425
 20
4.1641442841128482
 30
0.0
 11
8.1783942485884733
 21
4.1733806574134746
 31
0.0
  0
LINE
  5
86
  8
0
  6
CONTINUOUS
 62
     7
 10
8.1783942485884733
 20
4.2650685582270214
 30
0.0
 11
8.0012289018843425
 21
4.2743800239935066
 31
0.0
  0
LINE
  5
87
  8
0
  6
CONTINUOUS
 62
     7
 10
7.9185517303114166
 20
6.1227810711068811
 30
0.0
 11
7.7177643764907291
 21
6.1227810711068811
 31
0.0
  0
LINE
  5
88
  8
0
  6
CONTINUOUS
 62
     7
 10
7.658709138701874
 20
5.996775913395882
 30
0.0
 11
7.9185517303114166
 21
5.996775913395882
 31
0.0
  0
LINE
  5
89
  8
0
  6
CONTINUOUS
 62
     7
 10
7.9185517303114166
 20
4.607039647747813
 30
0.0
 11
7.658709138701874
 21
4.607039647747813
 31
0.0
  0
LINE
  5
8A
  8
0
  6
CONTINUOUS
 62
     7
 10
7.7177643764907291
 20
4.481034490036814
 30
0.0
 11
7.9185517303114166
 21
4.481034490036814
 31
0.0
  0
ARC
  5
8B
  8
0
  6
CONTINUOUS
 62
     7
 10
8.9619868174089508
 20
6.733176096597246
 30
0.0
 40
0.0116834965197631
 50
269.37221360949621
 51
0.5233708801661307
  0
LINE
  5
8C
  8
0
  6
CONTINUOUS
 62
     7
 10
8.9736698264971331
 20
6.7332828185385978
 30
0.0
 11
8.9736698264971331
 21
6.7330575411410223
 31
0.0
  0
LINE
  5
8D
  8
0
  6
CONTINUOUS
 62
     7
 10
8.9736698264971331
 20
6.8668723153013316
 30
0.0
 11
8.9736698264971331
 21
6.8665719454378973
 31
0.0
  0
ARC
  5
8E
  8
0
  6
CONTINUOUS
 62
     7
 10
8.9618321387379627
 20
6.866598866706334
 30
0.0
 40
0.0118377183713041
 50
359.86969816802718
 51
89.870934336798015
  0
ARC
  5
8F
  8
0
  6
CONTINUOUS
 62
     7
 10
8.8791816421993666
 20
6.7195061661850231
 30
0.0
 40
0.0039372172351354
 50
359.41263684356892
 51
180.58736315643279
  0
LINE
  5
90
  8
0
  6
CONTINUOUS
 62
     7
 10
8.8752446318467122
 20
6.8804640516217681
 30
0.0
 11
8.8752446318467122
 21
6.7194658048205858
 31
0.0
  0
ARC
  5
91
  8
0
  6
CONTINUOUS
 62
     7
 10
8.8791816421993666
 20
6.8804236902573299
 30
0.0
 40
0.0039372172351354
 50
179.41263684355499
 51
0.5873631564447434
  0
LINE
  5
92
  8
0
  6
CONTINUOUS
 62
     7
 10
8.8831186525520192
 20
6.7194658048205858
 30
0.0
 11
8.8831186525520192
 21
6.8804640516217681
 31
0.0
  0
ARC
  5
93
  8
0
  6
CONTINUOUS
 62
     7
 10
8.9185029120301405
 20
6.870611267130279
 30
0.0
 40
0.0078254401135558
 50
89.642651769277279
 51
180.43506886385461
  0
LINE
  5
94
  8
0
  6
CONTINUOUS
 62
     7
 10
8.9106776975209154
 20
6.8705518461284107
 30
0.0
 11
8.9106776975209154
 21
6.8708522159918459
 31
0.0
  0
LINE
  5
95
  8
0
  6
CONTINUOUS
 62
     7
 10
8.9106776975209154
 20
6.729077640450507
 30
0.0
 11
8.9106776975209154
 21
6.7293780103139431
 31
0.0
  0
ARC
  5
96
  8
0
  6
CONTINUOUS
 62
     7
 10
8.9185476518858113
 20
6.7293632685201068
 30
0.0
 40
0.0078699681718562
 50
179.89267516148459
 51
270.02960420537971
  0
LINE
  5
97
  8
0
  6
CONTINUOUS
 62
     7
 10
9.1902052583946787
 20
6.7783382980538542
 30
0.0
 11
9.1902052583946787
 21
6.76647368844817
 31
0.0
  0
LINE
  5
98
  8
0
  6
CONTINUOUS
 62
     7
 10
9.1902052583946787
 20
6.76647368844817
 30
0.0
 11
9.1882367578016328
 21
6.7645212843358431
 31
0.0
  0
LINE
  5
99
  8
0
  6
CONTINUOUS
 62
     7
 10
9.1882367578016328
 20
6.7645212843358431
 30
0.0
 11
9.1902052583946787
 21
6.7625688802235153
 31
0.0
  0
LINE
  5
9A
  8
0
  6
CONTINUOUS
 62
     7
 10
9.1902052583946787
 20
6.7625688802235153
 30
0.0
 11
9.1902052583946787
 21
6.750779363083689
 31
0.0
  0
LINE
  5
9B
  8
0
  6
CONTINUOUS
 62
     7
 10
9.1902052583946787
 20
6.750779363083689
 30
0.0
 11
9.1882367578016328
 21
6.7487518665055033
 31
0.0
  0
LINE
  5
9C
  8
0
  6
CONTINUOUS
 62
     7
 10
9.1882367578016328
 20
6.7487518665055033
 30
0.0
 11
9.1902052583946787
 21
6.7467994623931746
 31
0.0
  0
LINE
  5
9D
  8
0
  6
CONTINUOUS
 62
     7
 10
9.1902052583946787
 20
6.7467994623931746
 30
0.0
 11
9.1902052583946787
 21
6.7350099452533501
 31
0.0
  0
LINE
  5
9E
  8
0
  6
CONTINUOUS
 62
     7
 10
9.1902052583946787
 20
6.7350099452533501
 30
0.0
 11
9.1882367578016328
 21
6.7330575411410223
 31
0.0
  0
LINE
  5
9F
  8
0
  6
CONTINUOUS
 62
     7
 10
9.1882367578016328
 20
6.7330575411410223
 30
0.0
 11
9.1902052583946787
 21
6.7310300445628348
 31
0.0
  0
LINE
  5
A0
  8
0
  6
CONTINUOUS
 62
     7
 10
9.1902052583946787
 20
6.7310300445628348
 30
0.0
 11
9.1902052583946787
 21
6.7232204281135237
 31
0.0
  0
LINE
  5
A1
  8
0
  6
CONTINUOUS
 62
     7
 10
9.1902052583946787
 20
6.7232204281135237
 30
0.0
 11
9.2728824299676056
 21
6.7232204281135237
 31
0.0
  0
LINE
  5
A2
  8
0
  6
CONTINUOUS
 62
     7
 10
9.2728824299676056
 20
6.7232204281135237
 30
0.0
 11
9.2728824299676056
 21
6.8767094283288301
 31
0.0
  0
LINE
  5
A3
  8
0
  6
CONTINUOUS
 62
     7
 10
9.2728824299676056
 20
6.8767094283288301
 30
0.0
 11
9.2886304530450978
 21
6.8767094283288301
 31
0.0
  0
LINE
  5
A4
  8
0
  6
CONTINUOUS
 62
     7
 10
9.2886304530450978
 20
6.8767094283288301
 30
0.0
 11
9.2886304530450978
 21
6.9298748941568311
 31
0.0
  0
LINE
  5
A5
  8
0
  6
CONTINUOUS
 62
     7
 10
9.2886304530450978
 20
6.9298748941568311
 30
0.0
 11
9.316189516347114
 21
6.9771080551819908
 31
0.0
  0
LINE
  5
A6
  8
0
  6
CONTINUOUS
 62
     7
 10
9.316189516347114
 20
6.9771080551819908
 30
0.0
 11
9.3949296684008257
 21
6.9771080551819908
 31
0.0
  0
LINE
  5
A7
  8
0
  6
CONTINUOUS
 62
     7
 10
9.3949296684008257
 20
6.9771080551819908
 30
0.0
 11
9.3949296684008257
 21
6.8157343460515172
 31
0.0
  0
LINE
  5
A8
  8
0
  6
CONTINUOUS
 62
     7
 10
9.3949296684008257
 20
6.8157343460515172
 30
0.0
 11
9.5327249299115397
 21
6.8157343460515172
 31
0.0
  0
LINE
  5
A9
  8
0
  6
CONTINUOUS
 62
     7
 10
9.5327249299115397
 20
6.8157343460515172
 30
0.0
 11
9.5327249299115397
 21
6.7841955103908367
 31
0.0
  0
LINE
  5
AA
  8
0
  6
CONTINUOUS
 62
     7
 10
9.5327249299115397
 20
6.7841955103908367
 30
0.0
 11
9.3949296684008257
 21
6.7841955103908367
 31
0.0
  0
LINE
  5
AB
  8
0
  6
CONTINUOUS
 62
     7
 10
9.3949296684008257
 20
6.7841955103908367
 30
0.0
 11
9.3949296684008257
 21
6.622821801260363
 31
0.0
  0
LINE
  5
AC
  8
0
  6
CONTINUOUS
 62
     7
 10
9.3949296684008257
 20
6.622821801260363
 30
0.0
 11
9.1587091939065708
 21
6.622821801260363
 31
0.0
  0
LINE
  5
AD
  8
0
  6
CONTINUOUS
 62
     7
 10
9.1587091939065708
 20
6.622821801260363
 30
0.0
 11
8.8634336099553135
 21
6.697613897255688
 31
0.0
  0
LINE
  5
AE
  8
0
  6
CONTINUOUS
 62
     7
 10
8.8634336099553135
 20
6.697613897255688
 30
0.0
 11
8.8634336099553135
 21
6.7194658048205858
 31
0.0
  0
LINE
  5
AF
  8
0
  6
CONTINUOUS
 62
     7
 10
8.8752446318467122
 20
6.7194658048205858
 30
0.0
 11
8.8634336099553135
 21
6.7194658048205858
 31
0.0
  0
LINE
  5
B0
  8
0
  6
CONTINUOUS
 62
     7
 10
8.9776068368497874
 20
6.7194658048205858
 30
0.0
 11
8.8831186525520192
 21
6.7194658048205858
 31
0.0
  0
LINE
  5
B1
  8
0
  6
CONTINUOUS
 62
     7
 10
8.9776068368497874
 20
6.7194658048205858
 30
0.0
 11
8.9863711781033686
 21
6.7392902158072987
 31
0.0
  0
LINE
  5
B2
  8
0
  6
CONTINUOUS
 62
     7
 10
8.9953233696868882
 20
6.7392902158072987
 30
0.0
 11
8.9863711781033686
 21
6.7392902158072987
 31
0.0
  0
LINE
  5
B3
  8
0
  6
CONTINUOUS
 62
     7
 10
8.9953233696868882
 20
6.7392902158072987
 30
0.0
 11
8.9953233696868882
 21
6.7232204281135237
 31
0.0
  0
LINE
  5
B4
  8
0
  6
CONTINUOUS
 62
     7
 10
8.9953233696868882
 20
6.7232204281135237
 30
0.0
 11
9.0780005366765337
 21
6.7232204281135237
 31
0.0
  0
LINE
  5
B5
  8
0
  6
CONTINUOUS
 62
     7
 10
9.0780005366765337
 20
6.7232204281135237
 30
0.0
 11
9.0780005366765337
 21
6.7412426199196274
 31
0.0
  0
LINE
  5
B6
  8
0
  6
CONTINUOUS
 62
     7
 10
9.0780005366765337
 20
6.7412426199196274
 30
0.0
 11
8.9736698264971331
 21
6.7412426199196274
 31
0.0
  0
LINE
  5
B7
  8
0
  6
CONTINUOUS
 62
     7
 10
8.9736698264971331
 20
6.7412426199196274
 30
0.0
 11
8.9736698264971331
 21
6.7332828185385978
 31
0.0
  0
LINE
  5
B8
  8
0
  6
CONTINUOUS
 62
     7
 10
8.9618588046057326
 20
6.7214933013987732
 30
0.0
 11
8.9185517182262242
 21
6.7214933013987732
 31
0.0
  0
LINE
  5
B9
  8
0
  6
CONTINUOUS
 62
     7
 10
8.9106776975209154
 20
6.7293780103139431
 30
0.0
 11
8.9106776975209154
 21
6.7841955103908367
 31
0.0
  0
LINE
  5
BA
  8
0
  6
CONTINUOUS
 62
     7
 10
8.9106776975209154
 20
6.7841955103908367
 30
0.0
 11
8.9461107723616777
 21
6.7841955103908367
 31
0.0
  0
LINE
  5
BB
  8
0
  6
CONTINUOUS
 62
     7
 10
8.9461107723616777
 20
6.7841955103908367
 30
0.0
 11
8.9461107723616777
 21
6.8157343460515172
 31
0.0
  0
LINE
  5
BC
  8
0
  6
CONTINUOUS
 62
     7
 10
8.9461107723616777
 20
6.8157343460515172
 30
0.0
 11
8.9106776975209154
 21
6.8157343460515172
 31
0.0
  0
LINE
  5
BD
  8
0
  6
CONTINUOUS
 62
     7
 10
8.9106776975209154
 20
6.8157343460515172
 30
0.0
 11
8.9106776975209154
 21
6.8705518461284107
 31
0.0
  0
LINE
  5
BE
  8
0
  6
CONTINUOUS
 62
     7
 10
8.9185517182262242
 20
6.8784365550435806
 30
0.0
 11
8.9618588046057326
 21
6.8784365550435806
 31
0.0
  0
LINE
  5
BF
  8
0
  6
CONTINUOUS
 62
     7
 10
8.9736698264971331
 20
6.8665719454378973
 30
0.0
 11
8.9736698264971331
 21
6.8586872365227274
 31
0.0
  0
LINE
  5
C0
  8
0
  6
CONTINUOUS
 62
     7
 10
8.9736698264971331
 20
6.8586872365227274
 30
0.0
 11
9.0780005366765337
 21
6.8586872365227274
 31
0.0
  0
LINE
  5
C1
  8
0
  6
CONTINUOUS
 62
     7
 10
9.0780005366765337
 20
6.8586872365227274
 30
0.0
 11
9.0780005366765337
 21
6.8767094283288301
 31
0.0
  0
LINE
  5
C2
  8
0
  6
CONTINUOUS
 62
     7
 10
9.0780005366765337
 20
6.8767094283288301
 30
0.0
 11
8.9953233696868882
 21
6.8767094283288301
 31
0.0
  0
LINE
  5
C3
  8
0
  6
CONTINUOUS
 62
     7
 10
8.9953233696868882
 20
6.8767094283288301
 30
0.0
 11
8.9953233696868882
 21
6.8606396406350552
 31
0.0
  0
LINE
  5
C4
  8
0
  6
CONTINUOUS
 62
     7
 10
8.9863711781033686
 20
6.8606396406350552
 30
0.0
 11
8.9953233696868882
 21
6.8606396406350552
 31
0.0
  0
LINE
  5
C5
  8
0
  6
CONTINUOUS
 62
     7
 10
8.9863711781033686
 20
6.8606396406350552
 30
0.0
 11
8.9776068368497874
 21
6.8804640516217681
 31
0.0
  0
LINE
  5
C6
  8
0
  6
CONTINUOUS
 62
     7
 10
8.8831186525520192
 20
6.8804640516217681
 30
0.0
 11
8.9776068368497874
 21
6.8804640516217681
 31
0.0
  0
LINE
  5
C7
  8
0
  6
CONTINUOUS
 62
     7
 10
8.8634336099553135
 20
6.8804640516217681
 30
0.0
 11
8.8752446318467122
 21
6.8804640516217681
 31
0.0
  0
LINE
  5
C8
  8
0
  6
CONTINUOUS
 62
     7
 10
8.8634336099553135
 20
6.8804640516217681
 30
0.0
 11
8.8634336099553135
 21
6.9023159591866659
 31
0.0
  0
LINE
  5
C9
  8
0
  6
CONTINUOUS
 62
     7
 10
8.8634336099553135
 20
6.9023159591866659
 30
0.0
 11
9.0661895113476714
 21
6.9653185380421663
 31
0.0
  0
LINE
  5
CA
  8
0
  6
CONTINUOUS
 62
     7
 10
9.0661895113476714
 20
6.9653185380421663
 30
0.0
 11
9.0661895113476714
 21
6.9771080551819908
 31
0.0
  0
LINE
  5
CB
  8
0
  6
CONTINUOUS
 62
     7
 10
9.0661895113476714
 20
6.9771080551819908
 30
0.0
 11
9.0957170695136345
 21
6.9771080551819908
 31
0.0
  0
LINE
  5
CC
  8
0
  6
CONTINUOUS
 62
     7
 10
9.0957170695136345
 20
6.9771080551819908
 30
0.0
 11
9.1823312468559326
 21
6.9298748941568311
 31
0.0
  0
LINE
  5
CD
  8
0
  6
CONTINUOUS
 62
     7
 10
9.1823312468559326
 20
6.9298748941568311
 30
0.0
 11
9.1823312468559326
 21
6.90148994206222
 31
0.0
  0
ARC
  5
CE
  8
0
  6
CONTINUOUS
 62
     7
 10
9.1587091969480774
 20
6.8806679384168792
 30
0.0
 40
0.031496062992143
 50
0.0
 51
41.409622109305943
  0
LINE
  5
CF
  8
0
  6
CONTINUOUS
 62
     7
 10
9.1902052583946787
 20
6.8806893290193436
 30
0.0
 11
9.1902052583946787
 21
6.8767094283288301
 31
0.0
  0
LINE
  5
D0
  8
0
  6
CONTINUOUS
 62
     7
 10
9.1902052583946787
 20
6.8767094283288301
 30
0.0
 11
9.1882367578016328
 21
6.8747570242165024
 31
0.0
  0
LINE
  5
D1
  8
0
  6
CONTINUOUS
 62
     7
 10
9.1882367578016328
 20
6.8747570242165024
 30
0.0
 11
9.1902052583946787
 21
6.8728046201041737
 31
0.0
  0
LINE
  5
D2
  8
0
  6
CONTINUOUS
 62
     7
 10
9.1902052583946787
 20
6.8728046201041737
 30
0.0
 11
9.1902052583946787
 21
6.8610151029643491
 31
0.0
  0
LINE
  5
D3
  8
0
  6
CONTINUOUS
 62
     7
 10
9.1902052583946787
 20
6.8610151029643491
 30
0.0
 11
9.1882367578016328
 21
6.8589876063861617
 31
0.0
  0
LINE
  5
D4
  8
0
  6
CONTINUOUS
 62
     7
 10
9.1882367578016328
 20
6.8589876063861617
 30
0.0
 11
9.1902052583946787
 21
6.8570352022738339
 31
0.0
  0
LINE
  5
D5
  8
0
  6
CONTINUOUS
 62
     7
 10
9.1902052583946787
 20
6.8570352022738339
 30
0.0
 11
9.1902052583946787
 21
6.8452456851340093
 31
0.0
  0
LINE
  5
D6
  8
0
  6
CONTINUOUS
 62
     7
 10
9.1902052583946787
 20
6.8452456851340093
 30
0.0
 11
9.1882367578016328
 21
6.8432932810216807
 31
0.0
  0
LINE
  5
D7
  8
0
  6
CONTINUOUS
 62
     7
 10
9.1882367578016328
 20
6.8432932810216807
 30
0.0
 11
9.1902052583946787
 21
6.8412657844434941
 31
0.0
  0
LINE
  5
D8
  8
0
  6
CONTINUOUS
 62
     7
 10
9.1902052583946787
 20
6.8412657844434941
 30
0.0
 11
9.1902052583946787
 21
6.8294762673036704
 31
0.0
  0
LINE
  5
D9
  8
0
  6
CONTINUOUS
 62
     7
 10
9.1902052583946787
 20
6.8294762673036704
 30
0.0
 11
9.1882367578016328
 21
6.8275238631913417
 31
0.0
  0
LINE
  5
DA
  8
0
  6
CONTINUOUS
 62
     7
 10
9.1882367578016328
 20
6.8275238631913417
 30
0.0
 11
9.1902052583946787
 21
6.825571459079014
 31
0.0
  0
LINE
  5
DB
  8
0
  6
CONTINUOUS
 62
     7
 10
9.1902052583946787
 20
6.825571459079014
 30
0.0
 11
9.1902052583946787
 21
6.8137068494733297
 31
0.0
  0
LINE
  5
DC
  8
0
  6
CONTINUOUS
 62
     7
 10
9.1902052583946787
 20
6.8137068494733297
 30
0.0
 11
9.1882367578016328
 21
6.8117544453610019
 31
0.0
  0
LINE
  5
DD
  8
0
  6
CONTINUOUS
 62
     7
 10
9.1882367578016328
 20
6.8117544453610019
 30
0.0
 11
9.1902052583946787
 21
6.8098020412486751
 31
0.0
  0
LINE
  5
DE
  8
0
  6
CONTINUOUS
 62
     7
 10
9.1902052583946787
 20
6.8098020412486751
 30
0.0
 11
9.1902052583946787
 21
6.7980125241088487
 31
0.0
  0
LINE
  5
DF
  8
0
  6
CONTINUOUS
 62
     7
 10
9.1902052583946787
 20
6.7980125241088487
 30
0.0
 11
9.1882367578016328
 21
6.795985027530663
 31
0.0
  0
LINE
  5
E0
  8
0
  6
CONTINUOUS
 62
     7
 10
9.1882367578016328
 20
6.795985027530663
 30
0.0
 11
9.1902052583946787
 21
6.7940326234183352
 31
0.0
  0
LINE
  5
E1
  8
0
  6
CONTINUOUS
 62
     7
 10
9.1902052583946787
 20
6.7940326234183352
 30
0.0
 11
9.1902052583946787
 21
6.7822431062785089
 31
0.0
  0
LINE
  5
E2
  8
0
  6
CONTINUOUS
 62
     7
 10
9.1902052583946787
 20
6.7822431062785089
 30
0.0
 11
9.1882367578016328
 21
6.780290702166182
 31
0.0
  0
LINE
  5
E3
  8
0
  6
CONTINUOUS
 62
     7
 10
9.1882367578016328
 20
6.780290702166182
 30
0.0
 11
9.1902052583946787
 21
6.7783382980538542
 31
0.0
  0
LINE
  5
E4
  8
0
  6
CONTINUOUS
 62
     7
 10
8.8634336099553135
 20
6.7194658048205858
 30
0.0
 11
8.8634336099553135
 21
6.8804640516217681
 31
0.0
  0
LINE
  5
E5
  8
0
  6
CONTINUOUS
 62
     7
 10
8.9776068368497874
 20
6.7194658048205858
 30
0.0
 11
8.9776068368497874
 21
6.7408671575903334
 31
0.0
  0
LINE
  5
E6
  8
0
  6
CONTINUOUS
 62
     7
 10
8.9776068368497874
 20
6.8589876063861617
 30
0.0
 11
8.9776068368497874
 21
6.8804640516217681
 31
0.0
  0
LINE
  5
E7
  8
0
  6
CONTINUOUS
 62
     7
 10
8.9863711781033686
 20
6.7392902158072987
 30
0.0
 11
8.9863711781033686
 21
6.7408671575903334
 31
0.0
  0
LINE
  5
E8
  8
0
  6
CONTINUOUS
 62
     7
 10
8.9863711781033686
 20
6.8589876063861617
 30
0.0
 11
8.9863711781033686
 21
6.8606396406350552
 31
0.0
  0
LINE
  5
E9
  8
0
  6
CONTINUOUS
 62
     7
 10
8.9953233696868882
 20
6.7392902158072987
 30
0.0
 11
8.9953233696868882
 21
6.7408671575903334
 31
0.0
  0
LINE
  5
EA
  8
0
  6
CONTINUOUS
 62
     7
 10
8.9953233696868882
 20
6.8589876063861617
 30
0.0
 11
8.9953233696868882
 21
6.8606396406350552
 31
0.0
  0
LINE
  5
EB
  8
0
  6
CONTINUOUS
 62
     7
 10
9.1823312468559326
 20
6.9298748941568311
 30
0.0
 11
9.2886304530450978
 21
6.9298748941568311
 31
0.0
  0
LINE
  5
EC
  8
0
  6
CONTINUOUS
 62
     7
 10
9.0957170695136345
 20
6.9771080551819908
 30
0.0
 11
9.316189516347114
 21
6.9771080551819908
 31
0.0
  0
ARC
  5
ED
  8
0
  6
CONTINUOUS
 62
     7
 10
8.9185517166331163
 20
3.8747624266059368
 30
0.0
 40
0.0078740157480315
 50
90.0
 51
180.0
  0
LINE
  5
EE
  8
0
  6
CONTINUOUS
 62
     7
 10
8.9185517182262242
 20
3.882622629608357
 30
0.0
 11
8.9618588046057326
 21
3.882622629608357
 31
0.0
  0
LINE
  5
EF
  8
0
  6
CONTINUOUS
 62
     7
 10
8.9618588046057326
 20
3.725153728702538
 30
0.0
 11
8.9185517182262242
 21
3.725153728702538
 31
0.0
  0
LINE
  5
F0
  8
0
  6
CONTINUOUS
 62
     7
 10
8.9736698264971331
 20
3.8629484035533621
 30
0.0
 11
9.0780005366765337
 21
3.8629484035533621
 31
0.0
  0
LINE
  5
F1
  8
0
  6
CONTINUOUS
 62
     7
 10
9.0780005366765337
 20
3.7448279547575329
 30
0.0
 11
8.9736698264971331
 21
3.7448279547575329
 31
0.0
  0
ARC
  5
F2
  8
0
  6
CONTINUOUS
 62
     7
 10
8.9618588032472903
 20
3.87082541873193
 30
0.0
 40
0.0118110236220481
 50
0.0000000006786031
 51
90.0
  0
ARC
  5
F3
  8
0
  6
CONTINUOUS
 62
     7
 10
8.9618588032472903
 20
3.7369671510154272
 30
0.0
 40
0.0118110236220481
 50
270.0000000000008
 51
0.0
  0
LINE
  5
F4
  8
0
  6
CONTINUOUS
 62
     7
 10
8.9863711781033686
 20
3.7428755506452052
 30
0.0
 11
8.9863711781033686
 21
3.7448279547575329
 31
0.0
  0
LINE
  5
F5
  8
0
  6
CONTINUOUS
 62
     7
 10
8.9863711781033686
 20
3.8629484035533621
 30
0.0
 11
8.9863711781033686
 21
3.8649008076656899
 31
0.0
  0
LINE
  5
F6
  8
0
  6
CONTINUOUS
 62
     7
 10
8.9863711781033686
 20
3.8649008076656899
 30
0.0
 11
8.9953233696868882
 21
3.8649008076656899
 31
0.0
  0
LINE
  5
F7
  8
0
  6
CONTINUOUS
 62
     7
 10
8.9953233696868882
 20
3.7428755506452052
 30
0.0
 11
8.9863711781033686
 21
3.7428755506452052
 31
0.0
  0
LINE
  5
F8
  8
0
  6
CONTINUOUS
 62
     7
 10
8.9953233696868882
 20
3.7428755506452052
 30
0.0
 11
8.9953233696868882
 21
3.7448279547575329
 31
0.0
  0
LINE
  5
F9
  8
0
  6
CONTINUOUS
 62
     7
 10
8.9953233696868882
 20
3.8629484035533621
 30
0.0
 11
8.9953233696868882
 21
3.8649008076656899
 31
0.0
  0
LINE
  5
FA
  8
0
  6
CONTINUOUS
 62
     7
 10
9.1882367578016328
 20
3.8235999514433718
 30
0.0
 11
9.1902052583946787
 21
3.8216475473310441
 31
0.0
  0
LINE
  5
FB
  8
0
  6
CONTINUOUS
 62
     7
 10
9.1902052583946787
 20
3.8216475473310441
 30
0.0
 11
9.1902052583946787
 21
3.8097829377253598
 31
0.0
  0
LINE
  5
FC
  8
0
  6
CONTINUOUS
 62
     7
 10
9.1902052583946787
 20
3.8097829377253598
 30
0.0
 11
9.1882367578016328
 21
3.807830533613032
 31
0.0
  0
LINE
  5
FD
  8
0
  6
CONTINUOUS
 62
     7
 10
9.1882367578016328
 20
3.807830533613032
 30
0.0
 11
9.1902052583946787
 21
3.8058781295007051
 31
0.0
  0
LINE
  5
FE
  8
0
  6
CONTINUOUS
 62
     7
 10
9.1902052583946787
 20
3.8058781295007051
 30
0.0
 11
9.1902052583946787
 21
3.7940886123608788
 31
0.0
  0
LINE
  5
FF
  8
0
  6
CONTINUOUS
 62
     7
 10
9.1902052583946787
 20
3.7940886123608788
 30
0.0
 11
9.1882367578016328
 21
3.7920611157826931
 31
0.0
  0
LINE
  5
100
  8
0
  6
CONTINUOUS
 62
     7
 10
9.1882367578016328
 20
3.7920611157826931
 30
0.0
 11
9.1902052583946787
 21
3.7901087116703649
 31
0.0
  0
LINE
  5
101
  8
0
  6
CONTINUOUS
 62
     7
 10
9.1902052583946787
 20
3.7901087116703649
 30
0.0
 11
9.1902052583946787
 21
3.778319194530539
 31
0.0
  0
LINE
  5
102
  8
0
  6
CONTINUOUS
 62
     7
 10
9.1902052583946787
 20
3.778319194530539
 30
0.0
 11
9.1882367578016328
 21
3.7763667904182121
 31
0.0
  0
LINE
  5
103
  8
0
  6
CONTINUOUS
 62
     7
 10
9.1882367578016328
 20
3.7763667904182121
 30
0.0
 11
9.1902052583946787
 21
3.7743392938400251
 31
0.0
  0
LINE
  5
104
  8
0
  6
CONTINUOUS
 62
     7
 10
9.1902052583946787
 20
3.7743392938400251
 30
0.0
 11
9.1902052583946787
 21
3.7625497767002001
 31
0.0
  0
LINE
  5
105
  8
0
  6
CONTINUOUS
 62
     7
 10
9.1902052583946787
 20
3.7625497767002001
 30
0.0
 11
9.1882367578016328
 21
3.7605973725878719
 31
0.0
  0
LINE
  5
106
  8
0
  6
CONTINUOUS
 62
     7
 10
9.1882367578016328
 20
3.7605973725878719
 30
0.0
 11
9.1902052583946787
 21
3.7586449684755441
 31
0.0
  0
LINE
  5
107
  8
0
  6
CONTINUOUS
 62
     7
 10
9.1902052583946787
 20
3.7586449684755441
 30
0.0
 11
9.1902052583946787
 21
3.7467803588698612
 31
0.0
  0
LINE
  5
108
  8
0
  6
CONTINUOUS
 62
     7
 10
9.1902052583946787
 20
3.7467803588698612
 30
0.0
 11
9.1882367578016328
 21
3.7448279547575329
 31
0.0
  0
LINE
  5
109
  8
0
  6
CONTINUOUS
 62
     7
 10
9.1882367578016328
 20
3.7448279547575329
 30
0.0
 11
9.1902052583946787
 21
3.7428755506452052
 31
0.0
  0
LINE
  5
10A
  8
0
  6
CONTINUOUS
 62
     7
 10
9.1902052583946787
 20
3.7428755506452052
 30
0.0
 11
9.1902052583946787
 21
3.7310860335053802
 31
0.0
  0
LINE
  5
10B
  8
0
  6
CONTINUOUS
 62
     7
 10
9.1902052583946787
 20
3.7310860335053802
 30
0.0
 11
9.1882367578016328
 21
3.7290585369271931
 31
0.0
  0
LINE
  5
10C
  8
0
  6
CONTINUOUS
 62
     7
 10
9.1882367578016328
 20
3.7290585369271931
 30
0.0
 11
9.1902052583946787
 21
3.7271061328148649
 31
0.0
  0
LINE
  5
10D
  8
0
  6
CONTINUOUS
 62
     7
 10
9.1902052583946787
 20
3.7271061328148649
 30
0.0
 11
9.1902052583946787
 21
3.7232013245902098
 31
0.0
  0
ARC
  5
10E
  8
0
  6
CONTINUOUS
 62
     7
 10
9.1587091969480774
 20
3.7231876234563339
 30
0.0
 40
0.031496062992143
 50
318.59037789069481
 51
0.0
  0
LINE
  5
10F
  8
0
  6
CONTINUOUS
 62
     7
 10
9.1823312468559326
 20
3.7023256190814751
 30
0.0
 11
9.1823312468559326
 21
3.6739406669868631
 31
0.0
  0
LINE
  5
110
  8
0
  6
CONTINUOUS
 62
     7
 10
9.1823312468559326
 20
3.6739406669868631
 30
0.0
 11
9.0957170695136345
 21
3.6267075059617029
 31
0.0
  0
LINE
  5
111
  8
0
  6
CONTINUOUS
 62
     7
 10
9.0957170695136345
 20
3.6267075059617029
 30
0.0
 11
9.0661895113476714
 21
3.6267075059617029
 31
0.0
  0
LINE
  5
112
  8
0
  6
CONTINUOUS
 62
     7
 10
9.0661895113476714
 20
3.6267075059617029
 30
0.0
 11
9.0661895113476714
 21
3.638572115567388
 31
0.0
  0
LINE
  5
113
  8
0
  6
CONTINUOUS
 62
     7
 10
9.0661895113476714
 20
3.638572115567388
 30
0.0
 11
8.8634336099553135
 21
3.7014996019570279
 31
0.0
  0
LINE
  5
114
  8
0
  6
CONTINUOUS
 62
     7
 10
8.8634336099553135
 20
3.7014996019570279
 30
0.0
 11
8.8634336099553135
 21
3.7232013245902098
 31
0.0
  0
LINE
  5
115
  8
0
  6
CONTINUOUS
 62
     7
 10
8.8752446318467122
 20
3.7232013245902098
 30
0.0
 11
8.8634336099553135
 21
3.7232013245902098
 31
0.0
  0
ARC
  5
116
  8
0
  6
CONTINUOUS
 62
     7
 10
8.8791816378929571
 20
3.7231876234563339
 30
0.0
 40
0.0039370078740166
 50
0.0
 51
180.0
  0
LINE
  5
117
  8
0
  6
CONTINUOUS
 62
     7
 10
8.9776068368497874
 20
3.7232013245902098
 30
0.0
 11
8.8831186525520192
 21
3.7232013245902098
 31
0.0
  0
LINE
  5
118
  8
0
  6
CONTINUOUS
 62
     7
 10
8.9776068368497874
 20
3.7232013245902098
 30
0.0
 11
8.9863711781033686
 21
3.7428755506452052
 31
0.0
  0
LINE
  5
119
  8
0
  6
CONTINUOUS
 62
     7
 10
8.9953233696868882
 20
3.7271061328148649
 30
0.0
 11
9.0780005366765337
 21
3.7271061328148649
 31
0.0
  0
ARC
  5
11A
  8
0
  6
CONTINUOUS
 62
     7
 10
8.9185517166331163
 20
3.7330301431414199
 30
0.0
 40
0.0078740157480315
 50
180.0
 51
270.0000000000008
  0
LINE
  5
11B
  8
0
  6
CONTINUOUS
 62
     7
 10
8.9106776975209154
 20
3.733038437617707
 30
0.0
 11
8.9106776975209154
 21
3.7881563075580371
 31
0.0
  0
LINE
  5
11C
  8
0
  6
CONTINUOUS
 62
     7
 10
8.9106776975209154
 20
3.7881563075580371
 30
0.0
 11
8.9461107723616777
 21
3.7881563075580371
 31
0.0
  0
LINE
  5
11D
  8
0
  6
CONTINUOUS
 62
     7
 10
8.9461107723616777
 20
3.7881563075580371
 30
0.0
 11
8.9461107723616777
 21
3.8196200507528579
 31
0.0
  0
LINE
  5
11E
  8
0
  6
CONTINUOUS
 62
     7
 10
8.9461107723616777
 20
3.8196200507528579
 30
0.0
 11
8.9106776975209154
 21
3.8196200507528579
 31
0.0
  0
LINE
  5
11F
  8
0
  6
CONTINUOUS
 62
     7
 10
8.9106776975209154
 20
3.8196200507528579
 30
0.0
 11
8.9106776975209154
 21
3.8747379206931871
 31
0.0
  0
LINE
  5
120
  8
0
  6
CONTINUOUS
 62
     7
 10
8.9863711781033686
 20
3.8649008076656899
 30
0.0
 11
8.9776068368497874
 21
3.8845750337206848
 31
0.0
  0
LINE
  5
121
  8
0
  6
CONTINUOUS
 62
     7
 10
8.8831186525520192
 20
3.8845750337206848
 30
0.0
 11
8.9776068368497874
 21
3.8845750337206848
 31
0.0
  0
ARC
  5
122
  8
0
  6
CONTINUOUS
 62
     7
 10
8.8791816378929571
 20
3.8846049462910228
 30
0.0
 40
0.0039370078740166
 50
179.9999999979641
 51
0.0
  0
LINE
  5
123
  8
0
  6
CONTINUOUS
 62
     7
 10
8.8634336099553135
 20
3.8845750337206848
 30
0.0
 11
8.8752446318467122
 21
3.8845750337206848
 31
0.0
  0
LINE
  5
124
  8
0
  6
CONTINUOUS
 62
     7
 10
8.8634336099553135
 20
3.8845750337206848
 30
0.0
 11
8.8634336099553135
 21
3.9062767563538658
 31
0.0
  0
LINE
  5
125
  8
0
  6
CONTINUOUS
 62
     7
 10
8.8634336099553135
 20
3.9062767563538658
 30
0.0
 11
9.1587091939065708
 21
3.9810688523491908
 31
0.0
  0
LINE
  5
126
  8
0
  6
CONTINUOUS
 62
     7
 10
9.1587091939065708
 20
3.9810688523491908
 30
0.0
 11
9.3949296684008257
 21
3.9810688523491908
 31
0.0
  0
LINE
  5
127
  8
0
  6
CONTINUOUS
 62
     7
 10
9.3949296684008257
 20
3.9810688523491908
 30
0.0
 11
9.3949296684008257
 21
3.8196200507528579
 31
0.0
  0
LINE
  5
128
  8
0
  6
CONTINUOUS
 62
     7
 10
9.3949296684008257
 20
3.8196200507528579
 30
0.0
 11
9.5327249299115397
 21
3.8196200507528579
 31
0.0
  0
LINE
  5
129
  8
0
  6
CONTINUOUS
 62
     7
 10
9.5327249299115397
 20
3.8196200507528579
 30
0.0
 11
9.5327249299115397
 21
3.7881563075580371
 31
0.0
  0
LINE
  5
12A
  8
0
  6
CONTINUOUS
 62
     7
 10
9.5327249299115397
 20
3.7881563075580371
 30
0.0
 11
9.3949296684008257
 21
3.7881563075580371
 31
0.0
  0
LINE
  5
12B
  8
0
  6
CONTINUOUS
 62
     7
 10
9.3949296684008257
 20
3.7881563075580371
 30
0.0
 11
9.3949296684008257
 21
3.6267075059617029
 31
0.0
  0
LINE
  5
12C
  8
0
  6
CONTINUOUS
 62
     7
 10
9.3949296684008257
 20
3.6267075059617029
 30
0.0
 11
9.316189516347114
 21
3.6267075059617029
 31
0.0
  0
LINE
  5
12D
  8
0
  6
CONTINUOUS
 62
     7
 10
9.316189516347114
 20
3.6267075059617029
 30
0.0
 11
9.2886304530450978
 21
3.6739406669868631
 31
0.0
  0
LINE
  5
12E
  8
0
  6
CONTINUOUS
 62
     7
 10
9.2886304530450978
 20
3.6739406669868631
 30
0.0
 11
9.2886304530450978
 21
3.7271061328148649
 31
0.0
  0
LINE
  5
12F
  8
0
  6
CONTINUOUS
 62
     7
 10
9.2886304530450978
 20
3.7271061328148649
 30
0.0
 11
9.2728824299676056
 21
3.7271061328148649
 31
0.0
  0
LINE
  5
130
  8
0
  6
CONTINUOUS
 62
     7
 10
9.2728824299676056
 20
3.7271061328148649
 30
0.0
 11
9.2728824299676056
 21
3.8806702254960288
 31
0.0
  0
LINE
  5
131
  8
0
  6
CONTINUOUS
 62
     7
 10
9.1902052583946787
 20
3.85701609875052
 30
0.0
 11
9.1882367578016328
 21
3.8550636946381922
 31
0.0
  0
LINE
  5
132
  8
0
  6
CONTINUOUS
 62
     7
 10
9.1882367578016328
 20
3.8550636946381922
 30
0.0
 11
9.1902052583946787
 21
3.853111290525864
 31
0.0
  0
LINE
  5
133
  8
0
  6
CONTINUOUS
 62
     7
 10
9.1902052583946787
 20
3.853111290525864
 30
0.0
 11
9.1902052583946787
 21
3.841321773386039
 31
0.0
  0
LINE
  5
134
  8
0
  6
CONTINUOUS
 62
     7
 10
9.1902052583946787
 20
3.841321773386039
 30
0.0
 11
9.1882367578016328
 21
3.8392942768078528
 31
0.0
  0
LINE
  5
135
  8
0
  6
CONTINUOUS
 62
     7
 10
9.1882367578016328
 20
3.8392942768078528
 30
0.0
 11
9.1902052583946787
 21
3.8373418726955251
 31
0.0
  0
LINE
  5
136
  8
0
  6
CONTINUOUS
 62
     7
 10
9.1902052583946787
 20
3.8373418726955251
 30
0.0
 11
9.1902052583946787
 21
3.8255523555557001
 31
0.0
  0
LINE
  5
137
  8
0
  6
CONTINUOUS
 62
     7
 10
9.1902052583946787
 20
3.8255523555557001
 30
0.0
 11
9.1882367578016328
 21
3.8235999514433718
 31
0.0
  0
LINE
  5
138
  8
0
  6
CONTINUOUS
 62
     7
 10
9.2728824299676056
 20
3.8806702254960288
 30
0.0
 11
9.1902052583946787
 21
3.8806702254960288
 31
0.0
  0
LINE
  5
139
  8
0
  6
CONTINUOUS
 62
     7
 10
9.1902052583946787
 20
3.8806702254960288
 30
0.0
 11
9.1902052583946787
 21
3.8727855165808589
 31
0.0
  0
LINE
  5
13A
  8
0
  6
CONTINUOUS
 62
     7
 10
9.1902052583946787
 20
3.8727855165808589
 30
0.0
 11
9.1882367578016328
 21
3.8708331124685311
 31
0.0
  0
LINE
  5
13B
  8
0
  6
CONTINUOUS
 62
     7
 10
9.1882367578016328
 20
3.8708331124685311
 30
0.0
 11
9.1902052583946787
 21
3.8688807083562038
 31
0.0
  0
LINE
  5
13C
  8
0
  6
CONTINUOUS
 62
     7
 10
9.1902052583946787
 20
3.8688807083562038
 30
0.0
 11
9.1902052583946787
 21
3.85701609875052
 31
0.0
  0
LINE
  5
13D
  8
0
  6
CONTINUOUS
 62
     7
 10
8.9736698264971331
 20
3.7448279547575329
 30
0.0
 11
8.9736698264971331
 21
3.736943245842363
 31
0.0
  0
LINE
  5
13E
  8
0
  6
CONTINUOUS
 62
     7
 10
8.9736698264971331
 20
3.8708331124685311
 30
0.0
 11
8.9736698264971331
 21
3.8629484035533621
 31
0.0
  0
LINE
  5
13F
  8
0
  6
CONTINUOUS
 62
     7
 10
9.0780005366765337
 20
3.8806702254960288
 30
0.0
 11
8.9953233696868882
 21
3.8806702254960288
 31
0.0
  0
LINE
  5
140
  8
0
  6
CONTINUOUS
 62
     7
 10
8.9953233696868882
 20
3.7428755506452052
 30
0.0
 11
8.9953233696868882
 21
3.7271061328148649
 31
0.0
  0
LINE
  5
141
  8
0
  6
CONTINUOUS
 62
     7
 10
8.9953233696868882
 20
3.8806702254960288
 30
0.0
 11
8.9953233696868882
 21
3.8649008076656899
 31
0.0
  0
LINE
  5
142
  8
0
  6
CONTINUOUS
 62
     7
 10
9.0780005366765337
 20
3.8629484035533621
 30
0.0
 11
9.0780005366765337
 21
3.8806702254960288
 31
0.0
  0
LINE
  5
143
  8
0
  6
CONTINUOUS
 62
     7
 10
9.0780005366765337
 20
3.7271061328148649
 30
0.0
 11
9.0780005366765337
 21
3.7448279547575329
 31
0.0
  0
LINE
  5
144
  8
0
  6
CONTINUOUS
 62
     7
 10
8.8634336099553135
 20
3.7232013245902098
 30
0.0
 11
8.8634336099553135
 21
3.8845750337206848
 31
0.0
  0
LINE
  5
145
  8
0
  6
CONTINUOUS
 62
     7
 10
8.8752446318467122
 20
3.8845750337206848
 30
0.0
 11
8.8752446318467122
 21
3.7232013245902098
 31
0.0
  0
LINE
  5
146
  8
0
  6
CONTINUOUS
 62
     7
 10
8.9776068368497874
 20
3.7232013245902098
 30
0.0
 11
8.9776068368497874
 21
3.7448279547575329
 31
0.0
  0
LINE
  5
147
  8
0
  6
CONTINUOUS
 62
     7
 10
8.9776068368497874
 20
3.8629484035533621
 30
0.0
 11
8.9776068368497874
 21
3.8845750337206848
 31
0.0
  0
LINE
  5
148
  8
0
  6
CONTINUOUS
 62
     7
 10
8.8831186525520192
 20
3.7232013245902098
 30
0.0
 11
8.8831186525520192
 21
3.8845750337206848
 31
0.0
  0
LINE
  5
149
  8
0
  6
CONTINUOUS
 62
     7
 10
9.2886304530450978
 20
3.6739406669868631
 30
0.0
 11
9.1823312468559326
 21
3.6739406669868631
 31
0.0
  0
LINE
  5
14A
  8
0
  6
CONTINUOUS
 62
     7
 10
9.316189516347114
 20
3.6267075059617029
 30
0.0
 11
9.0957170695136345
 21
3.6267075059617029
 31
0.0
  0
LINE
  5
14B
  8
0
  6
CONTINUOUS
 62
     7
 10
9.4579217973770433
 20
3.7882314000238959
 30
0.0
 11
9.3949296684008257
 21
3.7882314000238959
 31
0.0
  0
LINE
  5
14C
  8
0
  6
CONTINUOUS
 62
     7
 10
9.4579217973770433
 20
3.7882314000238959
 30
0.0
 11
9.4579217973770433
 21
3.5912638620763691
 31
0.0
  0
LINE
  5
14D
  8
0
  6
CONTINUOUS
 62
     7
 10
9.3949296684008257
 20
3.7882314000238959
 30
0.0
 11
9.3949296684008257
 21
3.5912638620763691
 31
0.0
  0
LINE
  5
14E
  8
0
  6
CONTINUOUS
 62
     7
 10
9.3949296684008257
 20
3.5912638620763691
 30
0.0
 11
9.4579217973770433
 21
3.5912638620763691
 31
0.0
  0
LINE
  5
14F
  8
0
  6
CONTINUOUS
 62
     7
 10
9.3949296684008257
 20
3.8392942768078528
 30
0.0
 11
9.4579217973770433
 21
3.8392942768078528
 31
0.0
  0
LINE
  5
150
  8
0
  6
CONTINUOUS
 62
     7
 10
9.4579217973770433
 20
6.764596376801701
 30
0.0
 11
9.3949296684008257
 21
6.764596376801701
 31
0.0
  0
LINE
  5
151
  8
0
  6
CONTINUOUS
 62
     7
 10
9.4579217973770433
 20
6.764596376801701
 30
0.0
 11
9.4579217973770433
 21
3.8392942768078528
 31
0.0
  0
LINE
  5
152
  8
0
  6
CONTINUOUS
 62
     7
 10
9.3949296684008257
 20
6.764596376801701
 30
0.0
 11
9.3949296684008257
 21
3.8392942768078528
 31
0.0
  0
LINE
  5
153
  8
0
  6
CONTINUOUS
 62
     7
 10
9.3949296684008257
 20
6.8156592535856584
 30
0.0
 11
9.4579217973770433
 21
6.8156592535856584
 31
0.0
  0
LINE
  5
154
  8
0
  6
CONTINUOUS
 62
     7
 10
9.4579217973770433
 20
7.012551699067326
 30
0.0
 11
9.3949296684008257
 21
7.012551699067326
 31
0.0
  0
LINE
  5
155
  8
0
  6
CONTINUOUS
 62
     7
 10
9.4579217973770433
 20
7.012551699067326
 30
0.0
 11
9.4579217973770433
 21
6.8156592535856584
 31
0.0
  0
LINE
  5
156
  8
0
  6
CONTINUOUS
 62
     7
 10
9.3949296684008257
 20
7.012551699067326
 30
0.0
 11
9.3949296684008257
 21
6.8156592535856584
 31
0.0
  0
LINE
  5
157
  8
0
  6
CONTINUOUS
 62
     7
 10
9.4579217973770433
 20
6.764596376801701
 30
0.0
 11
9.4579217973770433
 21
6.7841955103908367
 31
0.0
  0
LINE
  5
158
  8
0
  6
CONTINUOUS
 62
     7
 10
9.4579217973770433
 20
3.8392942768078528
 30
0.0
 11
9.4579217973770433
 21
3.8196200507528579
 31
0.0
  0
LINE
  5
159
  8
0
  6
CONTINUOUS
 62
     7
 10
8.8083155016844028
 20
6.523774838792658
 30
0.0
 11
8.5524099845934405
 21
6.525952520302563
 31
0.0
  0
LINE
  5
15A
  8
0
  6
CONTINUOUS
 62
     7
 10
8.5524099845934405
 20
6.525952520302563
 30
0.0
 11
8.5524099845934405
 21
6.5710079998178177
 31
0.0
  0
LINE
  5
15B
  8
0
  6
CONTINUOUS
 62
     7
 10
8.5524099845934405
 20
6.5710079998178177
 30
0.0
 11
8.5622524875586734
 21
6.5710079998178177
 31
0.0
  0
LINE
  5
15C
  8
0
  6
CONTINUOUS
 62
     7
 10
8.5622524875586734
 20
6.5710079998178177
 30
0.0
 11
8.5622524875586734
 21
6.7147349794714852
 31
0.0
  0
LINE
  5
15D
  8
0
  6
CONTINUOUS
 62
     7
 10
8.6114651123835646
 20
6.7147349794714852
 30
0.0
 11
8.5622524875586734
 21
6.7147349794714852
 31
0.0
  0
LINE
  5
15E
  8
0
  6
CONTINUOUS
 62
     7
 10
8.6114651123835646
 20
6.7147349794714852
 30
0.0
 11
8.6114651123835646
 21
6.582797516957644
 31
0.0
  0
LINE
  5
15F
  8
0
  6
CONTINUOUS
 62
     7
 10
8.6114651123835646
 20
6.582797516957644
 30
0.0
 11
8.9461107723616777
 21
6.582797516957644
 31
0.0
  0
LINE
  5
160
  8
0
  6
CONTINUOUS
 62
     7
 10
8.9461107723616777
 20
6.582797516957644
 30
0.0
 11
8.9461107723616777
 21
6.5249763182463978
 31
0.0
  0
LINE
  5
161
  8
0
  6
CONTINUOUS
 62
     7
 10
8.9461107723616777
 20
6.5249763182463978
 30
0.0
 11
8.8083155016844028
 21
6.523774838792658
 31
0.0
  0
LINE
  5
162
  8
0
  6
CONTINUOUS
 62
     7
 10
9.316189516347114
 20
7.0401857265033501
 30
0.0
 11
9.316189516347114
 21
7.0079710586499422
 31
0.0
  0
LINE
  5
163
  8
0
  6
CONTINUOUS
 62
     7
 10
8.6114651123835646
 20
7.0079710586499422
 30
0.0
 11
8.6114651123835646
 21
6.8800134968266153
 31
0.0
  0
LINE
  5
164
  8
0
  6
CONTINUOUS
 62
     7
 10
8.5622524875586734
 20
6.8800134968266153
 30
0.0
 11
8.6114651123835646
 21
6.8800134968266153
 31
0.0
  0
LINE
  5
165
  8
0
  6
CONTINUOUS
 62
     7
 10
8.5622524875586734
 20
6.8800134968266153
 30
0.0
 11
8.5622524875586734
 21
7.0237404764802811
 31
0.0
  0
LINE
  5
166
  8
0
  6
CONTINUOUS
 62
     7
 10
8.5622524875586734
 20
7.0237404764802811
 30
0.0
 11
8.5524099845934405
 21
7.0237404764802811
 31
0.0
  0
LINE
  5
167
  8
0
  6
CONTINUOUS
 62
     7
 10
8.5524099845934405
 20
7.0237404764802811
 30
0.0
 11
8.5524099845934405
 21
7.0687208635296779
 31
0.0
  0
LINE
  5
168
  8
0
  6
CONTINUOUS
 62
     7
 10
8.5524099845934405
 20
7.0687208635296779
 30
0.0
 11
8.8083155016844028
 21
7.0709736375054408
 31
0.0
  0
LINE
  5
169
  8
0
  6
CONTINUOUS
 62
     7
 10
8.8083155016844028
 20
7.0709736375054408
 30
0.0
 11
9.0405989612427238
 21
7.0689461409272552
 31
0.0
  0
LINE
  5
16A
  8
0
  6
CONTINUOUS
 62
     7
 10
9.0405989612427238
 20
7.0689461409272552
 30
0.0
 11
9.0405989612427238
 21
7.0497975621332714
 31
0.0
  0
LINE
  5
16B
  8
0
  6
CONTINUOUS
 62
     7
 10
9.0405989612427238
 20
7.0497975621332714
 30
0.0
 11
9.316189516347114
 21
7.0401857265033501
 31
0.0
  0
LINE
  5
16C
  8
0
  6
CONTINUOUS
 62
     7
 10
9.316189516347114
 20
7.0079710586499422
 30
0.0
 11
8.6114651123835646
 21
7.0079710586499422
 31
0.0
  0
LINE
  5
16D
  8
0
  6
CONTINUOUS
 62
     7
 10
8.5819375301553809
 20
6.7383140137511353
 30
0.0
 11
8.5819375301553809
 21
6.8564344625469653
 31
0.0
  0
LINE
  5
16E
  8
0
  6
CONTINUOUS
 62
     7
 10
8.6114651123835646
 20
6.8564344625469653
 30
0.0
 11
8.6114651123835646
 21
6.7383140137511353
 31
0.0
  0
LINE
  5
16F
  8
0
  6
CONTINUOUS
 62
     7
 10
8.5819375301553809
 20
6.8748321166823612
 30
0.0
 11
8.6114651123835646
 21
6.8748321166823612
 31
0.0
  0
LINE
  5
170
  8
0
  6
CONTINUOUS
 62
     7
 10
8.5819375301553809
 20
6.7199163596157394
 30
0.0
 11
8.6114651123835646
 21
6.7199163596157394
 31
0.0
  0
LINE
  5
171
  8
0
  6
CONTINUOUS
 62
     7
 10
8.5622524875586734
 20
6.7147349794714852
 30
0.0
 11
8.5622524875586734
 21
6.8800134968266153
 31
0.0
  0
LINE
  5
172
  8
0
  6
CONTINUOUS
 62
     7
 10
8.6114651123835646
 20
6.7199163596157394
 30
0.0
 11
8.6114651123835646
 21
6.7147349794714852
 31
0.0
  0
LINE
  5
173
  8
0
  6
CONTINUOUS
 62
     7
 10
8.6114651123835646
 20
6.8748321166823612
 30
0.0
 11
8.6114651123835646
 21
6.8800134968266153
 31
0.0
  0
LINE
  5
174
  8
0
  6
CONTINUOUS
 62
     7
 10
8.5819375301553809
 20
6.7199163596157394
 30
0.0
 11
8.5819375301553809
 21
6.7383140137511353
 31
0.0
  0
LINE
  5
175
  8
0
  6
CONTINUOUS
 62
     7
 10
8.6114651123835646
 20
6.7383140137511353
 30
0.0
 11
8.6114651123835646
 21
6.7199163596157394
 31
0.0
  0
LINE
  5
176
  8
0
  6
CONTINUOUS
 62
     7
 10
8.5819375301553809
 20
6.8748321166823612
 30
0.0
 11
8.5819375301553809
 21
6.8564344625469653
 31
0.0
  0
LINE
  5
177
  8
0
  6
CONTINUOUS
 62
     7
 10
8.6114651123835646
 20
6.8748321166823612
 30
0.0
 11
8.6114651123835646
 21
6.8564344625469653
 31
0.0
  0
LINE
  5
178
  8
0
  6
CONTINUOUS
 62
     7
 10
8.9854808483885336
 20
7.0079710586499422
 30
0.0
 11
8.9854808483885336
 21
6.9402376544453412
 31
0.0
  0
LINE
  5
179
  8
0
  6
CONTINUOUS
 62
     7
 10
8.9854808483885336
 20
6.6666758013218779
 30
0.0
 11
8.9854808483885336
 21
6.5643247703563894
 31
0.0
  0
ARC
  5
17A
  8
0
  6
CONTINUOUS
 62
     7
 10
8.946166021996083
 20
6.5642901027461029
 30
0.0
 40
0.0393148416773078
 50
270.42017897248439
 51
0.050523108521835
  0
LINE
  5
17B
  8
0
  6
CONTINUOUS
 62
     7
 10
8.9464543350594798
 20
6.5249763182463978
 30
0.0
 11
8.9461107723616777
 21
6.5249763182463978
 31
0.0
  0
LINE
  5
17C
  8
0
  6
CONTINUOUS
 62
     7
 10
8.5524099845934405
 20
6.5710079998178177
 30
0.0
 11
8.5524099845934405
 21
7.0237404764802811
 31
0.0
  0
LINE
  5
17D
  8
0
  6
CONTINUOUS
 62
     7
 10
8.6114651123835646
 20
4.021018044186051
 30
0.0
 11
8.6114651123835646
 21
3.8891556741380691
 31
0.0
  0
LINE
  5
17E
  8
0
  6
CONTINUOUS
 62
     7
 10
8.5622524875586734
 20
3.8891556741380691
 30
0.0
 11
8.6114651123835646
 21
3.8891556741380691
 31
0.0
  0
LINE
  5
17F
  8
0
  6
CONTINUOUS
 62
     7
 10
8.5524099845934405
 20
4.0328826537917362
 30
0.0
 11
8.5524099845934405
 21
4.077863040841132
 31
0.0
  0
LINE
  5
180
  8
0
  6
CONTINUOUS
 62
     7
 10
8.5622524875586734
 20
3.8891556741380691
 30
0.0
 11
8.5622524875586734
 21
4.0328826537917362
 31
0.0
  0
LINE
  5
181
  8
0
  6
CONTINUOUS
 62
     7
 10
8.5622524875586734
 20
4.0328826537917362
 30
0.0
 11
8.5524099845934405
 21
4.0328826537917362
 31
0.0
  0
LINE
  5
182
  8
0
  6
CONTINUOUS
 62
     7
 10
8.9461107723616777
 20
4.021018044186051
 30
0.0
 11
8.6114651123835646
 21
4.021018044186051
 31
0.0
  0
LINE
  5
183
  8
0
  6
CONTINUOUS
 62
     7
 10
8.8083155016844028
 20
4.080115814816895
 30
0.0
 11
8.9461107723616777
 21
4.0789143353631561
 31
0.0
  0
LINE
  5
184
  8
0
  6
CONTINUOUS
 62
     7
 10
8.9461107723616777
 20
4.0789143353631561
 30
0.0
 11
8.9461107723616777
 21
4.021018044186051
 31
0.0
  0
LINE
  5
185
  8
0
  6
CONTINUOUS
 62
     7
 10
8.5524099845934405
 20
4.077863040841132
 30
0.0
 11
8.8083155016844028
 21
4.080115814816895
 31
0.0
  0
LINE
  5
186
  8
0
  6
CONTINUOUS
 62
     7
 10
8.6114651123835646
 20
3.865576639858419
 30
0.0
 11
8.6114651123835646
 21
3.8655015473925598
 31
0.0
  0
LINE
  5
187
  8
0
  6
CONTINUOUS
 62
     7
 10
8.5819375301553809
 20
3.8655015473925598
 30
0.0
 11
8.6114651123835646
 21
3.8655015473925598
 31
0.0
  0
LINE
  5
188
  8
0
  6
CONTINUOUS
 62
     7
 10
8.5819375301553809
 20
3.8655015473925598
 30
0.0
 11
8.5819375301553809
 21
3.865576639858419
 31
0.0
  0
LINE
  5
189
  8
0
  6
CONTINUOUS
 62
     7
 10
8.6114651123835646
 20
3.8839742939938149
 30
0.0
 11
8.6114651123835646
 21
3.8891556741380691
 31
0.0
  0
LINE
  5
18A
  8
0
  6
CONTINUOUS
 62
     7
 10
8.5819375301553809
 20
3.8839742939938149
 30
0.0
 11
8.6114651123835646
 21
3.8839742939938149
 31
0.0
  0
LINE
  5
18B
  8
0
  6
CONTINUOUS
 62
     7
 10
8.5819375301553809
 20
3.7289834444613339
 30
0.0
 11
8.6114651123835646
 21
3.7289834444613339
 31
0.0
  0
LINE
  5
18C
  8
0
  6
CONTINUOUS
 62
     7
 10
8.6114651123835646
 20
3.7289834444613339
 30
0.0
 11
8.6114651123835646
 21
3.7238020643170802
 31
0.0
  0
LINE
  5
18D
  8
0
  6
CONTINUOUS
 62
     7
 10
8.6114651123835646
 20
3.7238020643170802
 30
0.0
 11
8.5622524875586734
 21
3.7238020643170802
 31
0.0
  0
LINE
  5
18E
  8
0
  6
CONTINUOUS
 62
     7
 10
8.5622524875586734
 20
3.7238020643170802
 30
0.0
 11
8.5622524875586734
 21
3.8891556741380691
 31
0.0
  0
LINE
  5
18F
  8
0
  6
CONTINUOUS
 62
     7
 10
8.6114651123835646
 20
3.8655015473925598
 30
0.0
 11
8.6114651123835646
 21
3.747456191062589
 31
0.0
  0
LINE
  5
190
  8
0
  6
CONTINUOUS
 62
     7
 10
8.5819375301553809
 20
3.747456191062589
 30
0.0
 11
8.5819375301553809
 21
3.8655015473925598
 31
0.0
  0
LINE
  5
191
  8
0
  6
CONTINUOUS
 62
     7
 10
8.8083155016844028
 20
3.5328419236382538
 30
0.0
 11
8.5524099845934405
 21
3.5350946976140172
 31
0.0
  0
LINE
  5
192
  8
0
  6
CONTINUOUS
 62
     7
 10
8.6114651123835646
 20
3.5958445024937529
 30
0.0
 11
9.316189516347114
 21
3.5958445024937529
 31
0.0
  0
LINE
  5
193
  8
0
  6
CONTINUOUS
 62
     7
 10
8.6114651123835646
 20
3.7238020643170802
 30
0.0
 11
8.6114651123835646
 21
3.5958445024937529
 31
0.0
  0
LINE
  5
194
  8
0
  6
CONTINUOUS
 62
     7
 10
8.5524099845934405
 20
3.5800750846634131
 30
0.0
 11
8.5622524875586734
 21
3.5800750846634131
 31
0.0
  0
LINE
  5
195
  8
0
  6
CONTINUOUS
 62
     7
 10
9.316189516347114
 20
3.5958445024937529
 30
0.0
 11
9.316189516347114
 21
3.563629834640345
 31
0.0
  0
LINE
  5
196
  8
0
  6
CONTINUOUS
 62
     7
 10
9.0405989612427238
 20
3.5348694202164399
 30
0.0
 11
8.8083155016844028
 21
3.5328419236382538
 31
0.0
  0
LINE
  5
197
  8
0
  6
CONTINUOUS
 62
     7
 10
9.316189516347114
 20
3.563629834640345
 30
0.0
 11
9.0405989612427238
 21
3.5540179990104241
 31
0.0
  0
LINE
  5
198
  8
0
  6
CONTINUOUS
 62
     7
 10
9.0405989612427238
 20
3.5540179990104241
 30
0.0
 11
9.0405989612427238
 21
3.5348694202164399
 31
0.0
  0
LINE
  5
199
  8
0
  6
CONTINUOUS
 62
     7
 10
8.5524099845934405
 20
3.5350946976140172
 30
0.0
 11
8.5524099845934405
 21
3.5800750846634131
 31
0.0
  0
LINE
  5
19A
  8
0
  6
CONTINUOUS
 62
     7
 10
8.5622524875586734
 20
3.5800750846634131
 30
0.0
 11
8.5622524875586734
 21
3.7238020643170802
 31
0.0
  0
LINE
  5
19B
  8
0
  6
CONTINUOUS
 62
     7
 10
8.6114651123835646
 20
3.8839742939938149
 30
0.0
 11
8.6114651123835646
 21
3.865576639858419
 31
0.0
  0
LINE
  5
19C
  8
0
  6
CONTINUOUS
 62
     7
 10
8.5819375301553809
 20
3.865576639858419
 30
0.0
 11
8.5819375301553809
 21
3.8839742939938149
 31
0.0
  0
LINE
  5
19D
  8
0
  6
CONTINUOUS
 62
     7
 10
8.6114651123835646
 20
3.747456191062589
 30
0.0
 11
8.6114651123835646
 21
3.7289834444613339
 31
0.0
  0
LINE
  5
19E
  8
0
  6
CONTINUOUS
 62
     7
 10
8.5819375301553809
 20
3.747456191062589
 30
0.0
 11
8.5819375301553809
 21
3.7289834444613339
 31
0.0
  0
LINE
  5
19F
  8
0
  6
CONTINUOUS
 62
     7
 10
8.9461107723616777
 20
4.0789143353631561
 30
0.0
 11
8.9464543350594798
 21
4.0789143353631561
 31
0.0
  0
ARC
  5
1A0
  8
0
  6
CONTINUOUS
 62
     7
 10
8.9460804538426597
 20
4.0395156828063588
 30
0.0
 40
0.0394004265263138
 50
0.073001100836292
 51
89.456296818158606
  0
LINE
  5
1A1
  8
0
  6
CONTINUOUS
 62
     7
 10
8.9854808483885336
 20
4.0395658832531653
 30
0.0
 11
8.9854808483885336
 21
3.9371397598218172
 31
0.0
  0
LINE
  5
1A2
  8
0
  6
CONTINUOUS
 62
     7
 10
8.9854808483885336
 20
3.6636529991642131
 30
0.0
 11
8.9854808483885336
 21
3.5958445024937529
 31
0.0
  0
LINE
  5
1A3
  8
0
  6
CONTINUOUS
 62
     7
 10
8.5524099845934405
 20
3.5800750846634131
 30
0.0
 11
8.5524099845934405
 21
4.0328826537917362
 31
0.0
  0
LINE
  5
1A4
  8
0
  6
CONTINUOUS
 62
     7
 10
9.6075280991122796
 20
7.2805567097172403
 30
0.0
 11
9.6665832269024037
 21
7.2805567097172403
 31
0.0
  0
ARC
  5
1A5
  8
0
  6
CONTINUOUS
 62
     7
 10
9.6665832126962634
 20
7.2018152949971972
 30
0.0
 40
0.0787401574803148
 50
0.0
 51
90.0
  0
LINE
  5
1A6
  8
0
  6
CONTINUOUS
 62
     7
 10
9.7453233606229919
 20
7.2017847130314001
 30
0.0
 11
9.6075280991122796
 21
7.2017847130314001
 31
0.0
  0
LINE
  5
1A7
  8
0
  6
CONTINUOUS
 62
     7
 10
9.6075280991122796
 20
7.2017847130314001
 30
0.0
 11
9.6075280991122796
 21
7.2805567097172403
 31
0.0
  0
LINE
  5
1A8
  8
0
  6
CONTINUOUS
 62
     7
 10
9.8122525274515464
 20
6.0054866394354978
 30
0.0
 11
9.7374493582508066
 21
5.961632639373982
 31
0.0
  0
LINE
  5
1A9
  8
0
  6
CONTINUOUS
 62
     7
 10
9.7177642789878558
 20
5.961632639373982
 30
0.0
 11
9.7177642789878558
 21
6.0325199271446506
 31
0.0
  0
LINE
  5
1AA
  8
0
  6
CONTINUOUS
 62
     7
 10
9.7177642789878558
 20
6.0325199271446506
 30
0.0
 11
9.6468981843056945
 21
6.0325199271446506
 31
0.0
  0
LINE
  5
1AB
  8
0
  6
CONTINUOUS
 62
     7
 10
9.6468981843056945
 20
6.0325199271446506
 30
0.0
 11
9.6468981843056945
 21
6.0286151189199959
 31
0.0
  0
LINE
  5
1AC
  8
0
  6
CONTINUOUS
 62
     7
 10
9.6075280991122796
 20
6.0286151189199959
 30
0.0
 11
9.6075280991122796
 21
6.178199310910645
 31
0.0
  0
LINE
  5
1AD
  8
0
  6
CONTINUOUS
 62
     7
 10
9.6075280991122796
 20
6.178199310910645
 30
0.0
 11
9.8122525274515464
 21
6.178199310910645
 31
0.0
  0
LINE
  5
1AE
  8
0
  6
CONTINUOUS
 62
     7
 10
9.8122525274515464
 20
6.178199310910645
 30
0.0
 11
9.8122525274515464
 21
6.0054866394354978
 31
0.0
  0
LINE
  5
1AF
  8
0
  6
CONTINUOUS
 62
     7
 10
9.6468981843056945
 20
6.0286151189199959
 30
0.0
 11
9.6075280991122796
 21
6.0286151189199959
 31
0.0
  0
LINE
  5
1B0
  8
0
  6
CONTINUOUS
 62
     7
 10
9.7374493582508066
 20
5.961632639373982
 30
0.0
 11
9.7177642789878558
 21
5.961632639373982
 31
0.0
  0
LINE
  5
1B1
  8
0
  6
CONTINUOUS
 62
     7
 10
9.6862682694991111
 20
6.8081500069997816
 30
0.0
 11
9.6862682694991111
 21
7.0837393567014297
 31
0.0
  0
LINE
  5
1B2
  8
0
  6
CONTINUOUS
 62
     7
 10
9.7453233606229919
 20
6.8081500069997816
 30
0.0
 11
9.6862682694991111
 21
6.8081500069997816
 31
0.0
  0
LINE
  5
1B3
  8
0
  6
CONTINUOUS
 62
     7
 10
9.7453233606229919
 20
7.0837393567014297
 30
0.0
 11
9.7453233606229919
 21
6.8081500069997816
 31
0.0
  0
LINE
  5
1B4
  8
0
  6
CONTINUOUS
 62
     7
 10
9.6862682694991111
 20
7.0837393567014297
 30
0.0
 11
9.7453233606229919
 21
7.0837393567014297
 31
0.0
  0
LINE
  5
1B5
  8
0
  6
CONTINUOUS
 62
     7
 10
9.7453233606229919
 20
7.2017847130314001
 30
0.0
 11
9.7453233606229919
 21
7.0837393567014297
 31
0.0
  0
LINE
  5
1B6
  8
0
  6
CONTINUOUS
 62
     7
 10
9.7453233606229919
 20
6.7366619795022418
 30
0.0
 11
9.7453233606229919
 21
6.5128113387772801
 31
0.0
  0
LINE
  5
1B7
  8
0
  6
CONTINUOUS
 62
     7
 10
9.7453233606229919
 20
6.3036037288947737
 30
0.0
 11
9.7453233606229919
 21
6.178199310910645
 31
0.0
  0
LINE
  5
1B8
  8
0
  6
CONTINUOUS
 62
     7
 10
9.6075280991122796
 20
6.178199310910645
 30
0.0
 11
9.6075280991122796
 21
7.2017847130314001
 31
0.0
  0
LINE
  5
1B9
  8
0
  6
CONTINUOUS
 62
     7
 10
9.8122525274515464
 20
6.178199310910645
 30
0.0
 11
9.8122525274515464
 21
6.3084096467097348
 31
0.0
  0
LINE
  5
1BA
  8
0
  6
CONTINUOUS
 62
     7
 10
7.5701265753485387
 20
6.0893649237997334
 30
0.0
 11
7.5602840357170642
 21
6.0893649237997334
 31
0.0
  0
LINE
  5
1BB
  8
0
  6
CONTINUOUS
 62
     7
 10
7.5602840357170642
 20
6.0893649237997334
 30
0.0
 11
7.5602840357170642
 21
6.1287133759097232
 31
0.0
  0
LINE
  5
1BC
  8
0
  6
CONTINUOUS
 62
     7
 10
7.658709138701874
 20
6.0420566703087131
 30
0.0
 11
7.6488667457353721
 21
6.0420566703087131
 31
0.0
  0
LINE
  5
1BD
  8
0
  6
CONTINUOUS
 62
     7
 10
7.6488667457353721
 20
6.0420566703087131
 30
0.0
 11
7.6488667457353721
 21
4.5617588908349811
 31
0.0
  0
LINE
  5
1BE
  8
0
  6
CONTINUOUS
 62
     7
 10
7.658709138701874
 20
4.4751772776998306
 30
0.0
 11
7.5602840357170642
 21
4.4751772776998306
 31
0.0
  0
LINE
  5
1BF
  8
0
  6
CONTINUOUS
 62
     7
 10
7.5602840357170642
 20
4.4751772776998306
 30
0.0
 11
7.5602840357170642
 21
4.5145257298098214
 31
0.0
  0
LINE
  5
1C0
  8
0
  6
CONTINUOUS
 62
     7
 10
7.5602840357170642
 20
4.5145257298098214
 30
0.0
 11
7.5701265753485387
 21
4.5145257298098214
 31
0.0
  0
LINE
  5
1C1
  8
0
  6
CONTINUOUS
 62
     7
 10
7.5701265753485387
 20
4.5145257298098214
 30
0.0
 11
7.5701265753485387
 21
6.0893649237997334
 31
0.0
  0
LINE
  5
1C2
  8
0
  6
CONTINUOUS
 62
     7
 10
7.5602840357170642
 20
6.1287133759097232
 30
0.0
 11
7.658709138701874
 21
6.1287133759097232
 31
0.0
  0
LINE
  5
1C3
  8
0
  6
CONTINUOUS
 62
     7
 10
7.658709138701874
 20
4.5617588908349811
 30
0.0
 11
7.658709138701874
 21
4.4751772776998306
 31
0.0
  0
LINE
  5
1C4
  8
0
  6
CONTINUOUS
 62
     7
 10
7.658709138701874
 20
6.1287133759097232
 30
0.0
 11
7.658709138701874
 21
6.0420566703087131
 31
0.0
  0
LINE
  5
1C5
  8
0
  6
CONTINUOUS
 62
     7
 10
7.6488667457353721
 20
4.5617588908349811
 30
0.0
 11
7.658709138701874
 21
4.5617588908349811
 31
0.0
  0
LINE
  5
1C6
  8
0
  6
CONTINUOUS
 62
     7
 10
7.658709138701874
 20
5.997902300383763
 30
0.0
 11
7.658709138701874
 21
4.605913260759932
 31
0.0
  0
LINE
  5
1C7
  8
0
  6
CONTINUOUS
 62
     7
 10
7.7728823930960314
 20
5.3943841522769098
 30
0.0
 11
7.658709138701874
 21
5.4003164570797519
 31
0.0
  0
LINE
  5
1C8
  8
0
  6
CONTINUOUS
 62
     7
 10
7.7728823930960314
 20
5.209506501332644
 30
0.0
 11
7.7728823930960314
 21
5.3943841522769098
 31
0.0
  0
LINE
  5
1C9
  8
0
  6
CONTINUOUS
 62
     7
 10
7.658709138701874
 20
5.2034991040639431
 30
0.0
 11
7.7728823930960314
 21
5.209506501332644
 31
0.0
  0
LINE
  5
1CA
  8
0
  6
CONTINUOUS
 62
     7
 10
7.5602840357170642
 20
4.5145257298098214
 30
0.0
 11
7.5602840357170642
 21
6.0893649237997334
 31
0.0
  0
LINE
  5
1CB
  8
0
  6
CONTINUOUS
 62
     7
 10
9.5563470103605841
 20
6.7232204281135237
 30
0.0
 11
9.5957170588877574
 21
6.7259988493502991
 31
0.0
  0
LINE
  5
1CC
  8
0
  6
CONTINUOUS
 62
     7
 10
9.5957170588877574
 20
6.7259988493502991
 30
0.0
 11
9.5957170588877574
 21
6.5235495613950816
 31
0.0
  0
LINE
  5
1CD
  8
0
  6
CONTINUOUS
 62
     7
 10
9.5957170588877574
 20
6.5235495613950816
 30
0.0
 11
9.5563470103605841
 21
6.5263279826318561
 31
0.0
  0
LINE
  5
1CE
  8
0
  6
CONTINUOUS
 62
     7
 10
9.5563470103605841
 20
6.5263279826318561
 30
0.0
 11
9.5563470103605841
 21
6.7232204281135237
 31
0.0
  0
LINE
  5
1CF
  8
0
  6
CONTINUOUS
 62
     7
 10
9.8319375333820105
 20
6.309836403561051
 30
0.0
 11
9.7453233606229919
 21
6.3036037288947737
 31
0.0
  0
LINE
  5
1D0
  8
0
  6
CONTINUOUS
 62
     7
 10
9.7453233606229919
 20
6.3036037288947737
 30
0.0
 11
9.7453233606229919
 21
6.5128113387772801
 31
0.0
  0
LINE
  5
1D1
  8
0
  6
CONTINUOUS
 62
     7
 10
9.8319375333820105
 20
6.5066537565768607
 30
0.0
 11
9.8319375333820105
 21
6.309836403561051
 31
0.0
  0
LINE
  5
1D2
  8
0
  6
CONTINUOUS
 62
     7
 10
9.7453233606229919
 20
6.5128113387772801
 30
0.0
 11
9.8319375333820105
 21
6.5066537565768607
 31
0.0
  0
LINE
  5
1D3
  8
0
  6
CONTINUOUS
 62
     7
 10
9.5957170588877574
 20
6.2929405987428311
 30
0.0
 11
9.5957170588877574
 21
5.0302607853277843
 31
0.0
  0
LINE
  5
1D4
  8
0
  6
CONTINUOUS
 62
     7
 10
9.5957170588877574
 20
5.0302607853277843
 30
0.0
 11
9.6350871440811723
 21
5.0302607853277843
 31
0.0
  0
LINE
  5
1D5
  8
0
  6
CONTINUOUS
 62
     7
 10
9.6350871440811723
 20
5.0302607853277843
 30
0.0
 11
9.6350871440811723
 21
4.786210271286814
 31
0.0
  0
LINE
  5
1D6
  8
0
  6
CONTINUOUS
 62
     7
 10
9.6350871440811723
 20
4.786210271286814
 30
0.0
 11
9.6547721866778815
 21
4.786210271286814
 31
0.0
  0
LINE
  5
1D7
  8
0
  6
CONTINUOUS
 62
     7
 10
9.6547721866778815
 20
4.786210271286814
 30
0.0
 11
9.6547721866778815
 21
4.7074382746009746
 31
0.0
  0
LINE
  5
1D8
  8
0
  6
CONTINUOUS
 62
     7
 10
9.6547721866778815
 20
4.7074382746009746
 30
0.0
 11
9.6350871440811723
 21
4.7074382746009746
 31
0.0
  0
LINE
  5
1D9
  8
0
  6
CONTINUOUS
 62
     7
 10
9.6350871440811723
 20
4.7074382746009746
 30
0.0
 11
9.6350871440811723
 21
4.6124463052896436
 31
0.0
  0
LINE
  5
1DA
  8
0
  6
CONTINUOUS
 62
     7
 10
9.8319375333820105
 20
4.6089920518601408
 30
0.0
 11
9.8319375333820105
 21
3.5311147969235019
 31
0.0
  0
LINE
  5
1DB
  8
0
  6
CONTINUOUS
 62
     7
 10
9.5563470103605841
 20
4.5302951476401612
 30
0.0
 11
9.5563470103605841
 21
6.2900870850401969
 31
0.0
  0
LINE
  5
1DC
  8
0
  6
CONTINUOUS
 62
     7
 10
9.5563470103605841
 20
6.2900870850401969
 30
0.0
 11
9.5957170588877574
 21
6.2929405987428311
 31
0.0
  0
LINE
  5
1DD
  8
0
  6
CONTINUOUS
 62
     7
 10
9.7728824422581297
 20
4.5302951476401612
 30
0.0
 11
9.5563470103605841
 21
4.5302951476401612
 31
0.0
  0
LINE
  5
1DE
  8
0
  6
CONTINUOUS
 62
     7
 10
9.6350871440811723
 20
4.6124463052896436
 30
0.0
 11
9.8319375333820105
 21
4.6089920518601408
 31
0.0
  0
LINE
  5
1DF
  8
0
  6
CONTINUOUS
 62
     7
 10
9.8319375333820105
 20
3.5311147969235019
 30
0.0
 11
9.5563470103605841
 21
3.5263088791085422
 31
0.0
  0
LINE
  5
1E0
  8
0
  6
CONTINUOUS
 62
     7
 10
9.5563470103605841
 20
3.5263088791085422
 30
0.0
 11
9.5563470103605841
 21
3.5932913586545552
 31
0.0
  0
LINE
  5
1E1
  8
0
  6
CONTINUOUS
 62
     7
 10
9.4579217973770433
 20
3.6523140368195408
 30
0.0
 11
9.7728824422581297
 21
3.6523140368195408
 31
0.0
  0
LINE
  5
1E2
  8
0
  6
CONTINUOUS
 62
     7
 10
9.7728824422581297
 20
3.6523140368195408
 30
0.0
 11
9.7728824422581297
 21
4.5302951476401612
 31
0.0
  0
ARC
  5
1E3
  8
0
  6
CONTINUOUS
 62
     7
 10
9.4776068347433533
 20
3.6129514029837311
 30
0.0
 40
0.0196850393700778
 50
180.0
 51
270.00000000000603
  0
LINE
  5
1E4
  8
0
  6
CONTINUOUS
 62
     7
 10
9.5563470103605841
 20
3.5932913586545552
 30
0.0
 11
9.4776068399737508
 21
3.5932913586545552
 31
0.0
  0
LINE
  5
1E5
  8
0
  6
CONTINUOUS
 62
     7
 10
9.4579217973770433
 20
3.6129655847095501
 30
0.0
 11
9.4579217973770433
 21
3.6523140368195408
 31
0.0
  0
LINE
  5
1E6
  8
0
  6
CONTINUOUS
 62
     7
 10
9.5563470103605841
 20
6.959386233239325
 30
0.0
 11
9.4579217973770433
 21
6.959386233239325
 31
0.0
  0
LINE
  5
1E7
  8
0
  6
CONTINUOUS
 62
     7
 10
9.5957170588877574
 20
6.9566078120025496
 30
0.0
 11
9.5563470103605841
 21
6.959386233239325
 31
0.0
  0
LINE
  5
1E8
  8
0
  6
CONTINUOUS
 62
     7
 10
9.5957170588877574
 20
7.0768308498424251
 30
0.0
 11
9.5957170588877574
 21
6.9566078120025496
 31
0.0
  0
LINE
  5
1E9
  8
0
  6
CONTINUOUS
 62
     7
 10
9.5563470103605841
 20
7.0775066820351542
 30
0.0
 11
9.5957170588877574
 21
7.0768308498424251
 31
0.0
  0
LINE
  5
1EA
  8
0
  6
CONTINUOUS
 62
     7
 10
9.5563470103605841
 20
7.0105992949549991
 30
0.0
 11
9.5563470103605841
 21
7.0775066820351542
 31
0.0
  0
LINE
  5
1EB
  8
0
  6
CONTINUOUS
 62
     7
 10
9.4579217973770433
 20
6.959386233239325
 30
0.0
 11
9.4579217973770433
 21
6.9909250689000029
 31
0.0
  0
LINE
  5
1EC
  8
0
  6
CONTINUOUS
 62
     7
 10
9.4776068399737508
 20
7.0105992949549991
 30
0.0
 11
9.5563470103605841
 21
7.0105992949549991
 31
0.0
  0
ARC
  5
1ED
  8
0
  6
CONTINUOUS
 62
     7
 10
9.4776068347433604
 20
6.9909041588892018
 30
0.0
 40
0.0196850393701729
 50
90.000000000005159
 51
180.0
  0
LINE
  5
1EE
  8
0
  6
CONTINUOUS
 62
     7
 10
9.7453233606229919
 20
6.7366619795022418
 30
0.0
 11
9.7453233606229919
 21
6.9459446818506061
 31
0.0
  0
LINE
  5
1EF
  8
0
  6
CONTINUOUS
 62
     7
 10
9.8319375333820105
 20
6.9397120071843288
 30
0.0
 11
9.8319375333820105
 21
6.7428946541685191
 31
0.0
  0
LINE
  5
1F0
  8
0
  6
CONTINUOUS
 62
     7
 10
9.7453233606229919
 20
6.9459446818506061
 30
0.0
 11
9.8319375333820105
 21
6.9397120071843288
 31
0.0
  0
LINE
  5
1F1
  8
0
  6
CONTINUOUS
 62
     7
 10
9.8319375333820105
 20
6.7428946541685191
 30
0.0
 11
9.7453233606229919
 21
6.7366619795022418
 31
0.0
  0
LINE
  5
1F2
  8
0
  6
CONTINUOUS
 62
     7
 10
9.6075280991122796
 20
6.7268248664747441
 30
0.0
 11
9.5957170588877574
 21
6.7259988493502991
 31
0.0
  0
LINE
  5
1F3
  8
0
  6
CONTINUOUS
 62
     7
 10
9.5957170588877574
 20
6.5235495613950816
 30
0.0
 11
9.6075280991122796
 21
6.5226484518047769
 31
0.0
  0
LINE
  5
1F4
  8
0
  6
CONTINUOUS
 62
     7
 10
9.8319375333820105
 20
6.5066537565768607
 30
0.0
 11
9.8319375333820105
 21
6.7428946541685191
 31
0.0
  0
LINE
  5
1F5
  8
0
  6
CONTINUOUS
 62
     7
 10
9.5957170588877574
 20
6.9566078120025496
 30
0.0
 11
9.6075280991122796
 21
6.9557817948781029
 31
0.0
  0
LINE
  5
1F6
  8
0
  6
CONTINUOUS
 62
     7
 10
9.8319375333820105
 20
7.0727007642201931
 30
0.0
 11
9.8319375333820105
 21
6.9397120071843288
 31
0.0
  0
LINE
  5
1F7
  8
0
  6
CONTINUOUS
 62
     7
 10
9.8319375333820105
 20
7.0727007642201931
 30
0.0
 11
9.7453233606229919
 21
7.0742026135373681
 31
0.0
  0
LINE
  5
1F8
  8
0
  6
CONTINUOUS
 62
     7
 10
9.6075280991122796
 20
7.0766055724448478
 30
0.0
 11
9.5957170588877574
 21
7.0768308498424251
 31
0.0
  0
LINE
  5
1F9
  8
0
  6
CONTINUOUS
 62
     7
 10
9.6350871440811723
 20
5.0302607853277843
 30
0.0
 11
9.6350871440811723
 21
6.0286151189199959
 31
0.0
  0
LINE
  5
1FA
  8
0
  6
CONTINUOUS
 62
     7
 10
9.5563470103605841
 20
6.2900870850401969
 30
0.0
 11
9.5563470103605841
 21
6.5263279826318561
 31
0.0
  0
LINE
  5
1FB
  8
0
  6
CONTINUOUS
 62
     7
 10
9.4579217973770433
 20
6.9515015243241551
 30
0.0
 11
9.5563470103605841
 21
6.9515015243241551
 31
0.0
  0
LINE
  5
1FC
  8
0
  6
CONTINUOUS
 62
     7
 10
9.5563470103605841
 20
6.7232204281135237
 30
0.0
 11
9.5563470103605841
 21
6.9515015243241551
 31
0.0
  0
LINE
  5
1FD
  8
0
  6
CONTINUOUS
 62
     7
 10
9.7531973629951771
 20
4.7153229835161454
 30
0.0
 11
9.8319375333820105
 21
4.7153229835161454
 31
0.0
  0
LINE
  5
1FE
  8
0
  6
CONTINUOUS
 62
     7
 10
9.6935563453066376
 20
4.6113950107676214
 30
0.0
 11
9.7531973629951771
 21
4.7153229835161454
 31
0.0
  0
LINE
  5
1FF
  8
0
  6
CONTINUOUS
 62
     7
 10
9.8319375333820105
 20
4.7153229835161454
 30
0.0
 11
9.8319375333820105
 21
4.6089920518601408
 31
0.0
  0
LINE
  5
200
  8
0
  6
CONTINUOUS
 62
     7
 10
9.6792550438498264
 20
4.6116953806310557
 30
0.0
 11
9.7138272778017622
 21
4.7153229835161454
 31
0.0
  0
LINE
  5
201
  8
0
  6
CONTINUOUS
 62
     7
 10
9.7138272778017622
 20
4.7153229835161454
 30
0.0
 11
9.7531973629951771
 21
4.7153229835161454
 31
0.0
  0
LINE
  5
202
  8
0
  6
CONTINUOUS
 62
     7
 10
9.7728824422581297
 20
3.7428755506452052
 30
0.0
 11
9.5957170588877574
 21
3.7428755506452052
 31
0.0
  0
LINE
  5
203
  8
0
  6
CONTINUOUS
 62
     7
 10
9.5957170588877574
 20
3.7428755506452052
 30
0.0
 11
9.5957170588877574
 21
3.6523140368195408
 31
0.0
  0
LINE
  5
204
  8
0
  6
CONTINUOUS
 62
     7
 10
9.6744571926083456
 20
3.7723868897276982
 30
0.0
 11
9.6744571926083456
 21
3.7428755506452052
 31
0.0
  0
LINE
  5
205
  8
0
  6
CONTINUOUS
 62
     7
 10
9.6744571926083456
 20
4.0361867222895214
 30
0.0
 11
9.7728824422581297
 21
4.0361867222895214
 31
0.0
  0
LINE
  5
206
  8
0
  6
CONTINUOUS
 62
     7
 10
9.6744571926083456
 20
4.0361867222895214
 30
0.0
 11
9.6744571926083456
 21
3.9968382701795302
 31
0.0
  0
LINE
  5
207
  8
0
  6
CONTINUOUS
 62
     7
 10
9.6744571926083456
 20
3.9968382701795302
 30
0.0
 11
9.6744571926083456
 21
3.7723868897276982
 31
0.0
  0
LINE
  5
208
  8
0
  6
CONTINUOUS
 62
     7
 10
9.8319375333820105
 20
6.085385023109219
 30
0.0
 11
9.8319375333820105
 21
6.309836403561051
 31
0.0
  0
LINE
  5
209
  8
0
  6
CONTINUOUS
 62
     7
 10
9.6350871440811723
 20
6.026362344944233
 30
0.0
 11
9.6425861974514682
 21
6.0286151189199959
 31
0.0
  0
LINE
  5
20A
  8
0
  6
CONTINUOUS
 62
     7
 10
9.6468981843056945
 20
6.0298916908395954
 30
0.0
 11
9.6557095591826076
 21
6.0325199271446506
 31
0.0
  0
LINE
  5
20B
  8
0
  6
CONTINUOUS
 62
     7
 10
9.8122525274515464
 20
6.079452718306376
 30
0.0
 11
9.8319375333820105
 21
6.085385023109219
 31
0.0
  0
LINE
  5
20C
  8
0
  6
CONTINUOUS
 62
     7
 10
8.8083155016844028
 20
4.144470058057852
 30
0.0
 11
8.8083155016844028
 21
4.0814674792023533
 31
0.0
  0
LINE
  5
20D
  8
0
  6
CONTINUOUS
 62
     7
 10
8.8083155016844028
 20
4.0814674792023533
 30
0.0
 11
7.9538817088431557
 21
4.0889016333223704
 31
0.0
  0
ARC
  5
20E
  8
0
  6
CONTINUOUS
 62
     7
 10
7.9539847874994107
 20
4.100722444502451
 30
0.0
 40
0.0118110236220739
 50
180.0
 51
269.49999999998988
  0
LINE
  5
20F
  8
0
  6
CONTINUOUS
 62
     7
 10
7.9421737374279751
 20
4.100691150462195
 30
0.0
 11
7.9421737374279751
 21
4.144470058057852
 31
0.0
  0
LINE
  5
210
  8
0
  6
CONTINUOUS
 62
     7
 10
7.9421737374279751
 20
4.144470058057852
 30
0.0
 11
8.8083155016844028
 21
4.144470058057852
 31
0.0
  0
LINE
  5
211
  8
0
  6
CONTINUOUS
 62
     7
 10
7.579866009504431
 20
6.190514475311482
 30
0.0
 11
7.9421737374279751
 21
6.1936683588775496
 31
0.0
  0
ARC
  5
212
  8
0
  6
CONTINUOUS
 62
     7
 10
7.5799690394679056
 20
6.1786876782912667
 30
0.0
 40
0.0118110236220481
 50
90.500000000021103
 51
180.0
  0
LINE
  5
213
  8
0
  6
CONTINUOUS
 62
     7
 10
7.9421737374279751
 20
6.1936683588775496
 30
0.0
 11
7.9421737374279751
 21
6.3925132084715459
 31
0.0
  0
LINE
  5
214
  8
0
  6
CONTINUOUS
 62
     7
 10
7.9421737374279751
 20
6.3925132084715459
 30
0.0
 11
8.0012289018843425
 21
6.3925132084715459
 31
0.0
  0
LINE
  5
215
  8
0
  6
CONTINUOUS
 62
     7
 10
8.0012289018843425
 20
6.1326181841343779
 30
0.0
 11
7.5681580380892486
 21
6.1326181841343779
 31
0.0
  0
LINE
  5
216
  8
0
  6
CONTINUOUS
 62
     7
 10
7.5681580380892486
 20
6.1326181841343779
 30
0.0
 11
7.5681580380892486
 21
6.1787249581716566
 31
0.0
  0
LINE
  5
217
  8
0
  6
CONTINUOUS
 62
     7
 10
8.0012289018843425
 20
6.3925132084715459
 30
0.0
 11
8.0012289018843425
 21
6.1326181841343779
 31
0.0
  0
LINE
  5
218
  8
0
  6
CONTINUOUS
 62
     7
 10
7.9421737374279751
 20
4.211377445138007
 30
0.0
 11
7.9421737374279751
 21
4.4102222947320042
 31
0.0
  0
LINE
  5
219
  8
0
  6
CONTINUOUS
 62
     7
 10
7.9421737374279751
 20
4.4102222947320042
 30
0.0
 11
7.579866009504431
 21
4.4133761782980709
 31
0.0
  0
LINE
  5
21A
  8
0
  6
CONTINUOUS
 62
     7
 10
8.0012289018843425
 20
4.4711973770093172
 30
0.0
 11
8.0012289018843425
 21
4.211377445138007
 31
0.0
  0
ARC
  5
21B
  8
0
  6
CONTINUOUS
 62
     7
 10
7.57996903946791
 20
4.425167883581806
 30
0.0
 40
0.0118110236220739
 50
180.0
 51
269.49999999998562
  0
LINE
  5
21C
  8
0
  6
CONTINUOUS
 62
     7
 10
8.0012289018843425
 20
4.211377445138007
 30
0.0
 11
7.9421737374279751
 21
4.211377445138007
 31
0.0
  0
LINE
  5
21D
  8
0
  6
CONTINUOUS
 62
     7
 10
7.5681580380892486
 20
4.4251656954378973
 30
0.0
 11
7.5681580380892486
 21
4.4711973770093172
 31
0.0
  0
LINE
  5
21E
  8
0
  6
CONTINUOUS
 62
     7
 10
7.5681580380892486
 20
4.4711973770093172
 30
0.0
 11
8.0012289018843425
 21
4.4711973770093172
 31
0.0
  0
LINE
  5
21F
  8
0
  6
CONTINUOUS
 62
     7
 10
7.9421737374279751
 20
6.459420595551701
 30
0.0
 11
7.9421737374279751
 21
6.5031244106815
 31
0.0
  0
LINE
  5
220
  8
0
  6
CONTINUOUS
 62
     7
 10
7.9538817088431557
 20
6.5149139278213246
 30
0.0
 11
8.8083155016844028
 21
6.5224231744072014
 31
0.0
  0
ARC
  5
221
  8
0
  6
CONTINUOUS
 62
     7
 10
7.9539847874994072
 20
6.5031331173707621
 30
0.0
 40
0.0118110236220499
 50
90.500000000025395
 51
180.0
  0
LINE
  5
222
  8
0
  6
CONTINUOUS
 62
     7
 10
8.8083155016844028
 20
6.459420595551701
 30
0.0
 11
7.9421737374279751
 21
6.459420595551701
 31
0.0
  0
LINE
  5
223
  8
0
  6
CONTINUOUS
 62
     7
 10
8.8083155016844028
 20
6.5224231744072014
 30
0.0
 11
8.8083155016844028
 21
6.459420595551701
 31
0.0
  0
LINE
  5
224
  8
0
  6
CONTINUOUS
 62
     7
 10
9.5563470103605841
 20
7.0775066820351542
 30
0.0
 11
9.5563470103605841
 21
7.0145041031796538
 31
0.0
  0
LINE
  5
225
  8
0
  6
CONTINUOUS
 62
     7
 10
9.3201370774112196
 20
7.0754791854569667
 30
0.0
 11
9.5563470103605841
 21
7.0775066820351542
 31
0.0
  0
LINE
  5
226
  8
0
  6
CONTINUOUS
 62
     7
 10
9.5563470103605841
 20
7.0145041031796538
 30
0.0
 11
9.3201370774112196
 21
7.0145041031796538
 31
0.0
  0
LINE
  5
227
  8
0
  6
CONTINUOUS
 62
     7
 10
9.3201370774112196
 20
7.0145041031796538
 30
0.0
 11
9.3201370774112196
 21
7.0754791854569667
 31
0.0
  0
LINE
  5
228
  8
0
  6
CONTINUOUS
 62
     7
 10
9.5563470103605841
 20
3.5263088791085422
 30
0.0
 11
9.3201370774112196
 21
3.5284114681525871
 31
0.0
  0
LINE
  5
229
  8
0
  6
CONTINUOUS
 62
     7
 10
9.3201370774112196
 20
3.5284114681525871
 30
0.0
 11
9.3201370774112196
 21
3.5893114579640408
 31
0.0
  0
LINE
  5
22A
  8
0
  6
CONTINUOUS
 62
     7
 10
9.3201370774112196
 20
3.5893114579640408
 30
0.0
 11
9.5563470103605841
 21
3.5893114579640408
 31
0.0
  0
LINE
  5
22B
  8
0
  6
CONTINUOUS
 62
     7
 10
9.5563470103605841
 20
3.5893114579640408
 30
0.0
 11
9.5563470103605841
 21
3.5263088791085422
 31
0.0
  0
LINE
  5
22C
  8
0
  6
CONTINUOUS
 62
     7
 10
7.9421737374279751
 20
6.3925132084715459
 30
0.0
 11
7.9421737374279751
 21
6.459420595551701
 31
0.0
  0
LINE
  5
22D
  8
0
  6
CONTINUOUS
 62
     7
 10
8.0012289018843425
 20
6.3925132084715459
 30
0.0
 11
8.0012289018843425
 21
6.459420595551701
 31
0.0
  0
LINE
  5
22E
  8
0
  6
CONTINUOUS
 62
     7
 10
7.9421737374279751
 20
4.144470058057852
 30
0.0
 11
7.9421737374279751
 21
4.211377445138007
 31
0.0
  0
LINE
  5
22F
  8
0
  6
CONTINUOUS
 62
     7
 10
8.0012289018843425
 20
4.144470058057852
 30
0.0
 11
8.0012289018843425
 21
4.211377445138007
 31
0.0
  0
LINE
  5
230
  8
0
  6
CONTINUOUS
 62
     7
 10
7.7177643764907291
 20
6.0597784922513807
 30
0.0
 11
7.658709138701874
 21
6.0597784922513807
 31
0.0
  0
LINE
  5
231
  8
0
  6
CONTINUOUS
 62
     7
 10
7.658709138701874
 20
6.1326181841343779
 30
0.0
 11
7.658709138701874
 21
6.1287133759097232
 31
0.0
  0
LINE
  5
232
  8
0
  6
CONTINUOUS
 62
     7
 10
7.7177643764907291
 20
6.0597784922513807
 30
0.0
 11
7.7177643764907291
 21
6.1326181841343779
 31
0.0
  0
LINE
  5
233
  8
0
  6
CONTINUOUS
 62
     7
 10
7.658709138701874
 20
4.4751772776998306
 30
0.0
 11
7.658709138701874
 21
4.4711973770093172
 31
0.0
  0
LINE
  5
234
  8
0
  6
CONTINUOUS
 62
     7
 10
7.7177643764907291
 20
4.4711973770093172
 30
0.0
 11
7.7177643764907291
 21
4.5440370688923144
 31
0.0
  0
LINE
  5
235
  8
0
  6
CONTINUOUS
 62
     7
 10
7.7177643764907291
 20
4.5440370688923144
 30
0.0
 11
7.658709138701874
 21
4.5440370688923144
 31
0.0
  0
LINE
  5
236
  8
0
  6
CONTINUOUS
 62
     7
 10
8.1783942485884733
 20
6.3387470029166737
 30
0.0
 11
8.1783942485884733
 21
6.4304349037302204
 31
0.0
  0
LINE
  5
237
  8
0
  6
CONTINUOUS
 62
     7
 10
8.1783942485884733
 20
4.1733806574134746
 30
0.0
 11
8.1783942485884733
 21
4.2650685582270214
 31
0.0
  0
LINE
  5
238
  8
0
  6
CONTINUOUS
 62
     7
 10
7.9185517303114166
 20
6.1227810711068811
 30
0.0
 11
7.9185517303114166
 21
5.996775913395882
 31
0.0
  0
LINE
  5
239
  8
0
  6
CONTINUOUS
 62
     7
 10
7.658709138701874
 20
6.0420566703087131
 30
0.0
 11
7.658709138701874
 21
5.997902300383763
 31
0.0
  0
LINE
  5
23A
  8
0
  6
CONTINUOUS
 62
     7
 10
7.9185517303114166
 20
4.607039647747813
 30
0.0
 11
7.9185517303114166
 21
4.481034490036814
 31
0.0
  0
LINE
  5
23B
  8
0
  6
CONTINUOUS
 62
     7
 10
7.658709138701874
 20
4.605913260759932
 30
0.0
 11
7.658709138701874
 21
4.5617588908349811
 31
0.0
  0
LINE
  5
23C
  8
0
  6
CONTINUOUS
 62
     7
 10
7.7177643764907291
 20
5.4259229879375894
 30
0.0
 11
7.658709138701874
 21
5.4259229879375894
 31
0.0
  0
LINE
  5
23D
  8
0
  6
CONTINUOUS
 62
     7
 10
7.7177643764907291
 20
5.4259229879375894
 30
0.0
 11
7.7177643764907291
 21
5.996775913395882
 31
0.0
  0
LINE
  5
23E
  8
0
  6
CONTINUOUS
 62
     7
 10
7.7177643764907291
 20
5.1778925732061056
 30
0.0
 11
7.658709138701874
 21
5.1778925732061056
 31
0.0
  0
LINE
  5
23F
  8
0
  6
CONTINUOUS
 62
     7
 10
7.7177643764907291
 20
4.607039647747813
 30
0.0
 11
7.7177643764907291
 21
5.1778925732061056
 31
0.0
  0
LINE
  5
240
  8
0
  6
CONTINUOUS
 62
     7
 10
9.3791816269902082
 20
4.0814674792023533
 30
0.0
 11
9.3791816269902082
 21
4.144470058057852
 31
0.0
  0
LINE
  5
241
  8
0
  6
CONTINUOUS
 62
     7
 10
8.8083155016844028
 20
4.0814674792023533
 30
0.0
 11
9.3791816269902082
 21
4.0814674792023533
 31
0.0
  0
LINE
  5
242
  8
0
  6
CONTINUOUS
 62
     7
 10
9.3791816269902082
 20
4.144470058057852
 30
0.0
 11
8.8083155016844028
 21
4.144470058057852
 31
0.0
  0
LINE
  5
243
  8
0
  6
CONTINUOUS
 62
     7
 10
9.3791816269902082
 20
6.459420595551701
 30
0.0
 11
9.3791816269902082
 21
6.5224231744072014
 31
0.0
  0
LINE
  5
244
  8
0
  6
CONTINUOUS
 62
     7
 10
9.3791816269902082
 20
6.5224231744072014
 30
0.0
 11
8.8083155016844028
 21
6.5224231744072014
 31
0.0
  0
LINE
  5
245
  8
0
  6
CONTINUOUS
 62
     7
 10
8.8083155016844028
 20
6.459420595551701
 30
0.0
 11
9.3791816269902082
 21
6.459420595551701
 31
0.0
  0
LINE
  5
246
  8
0
  6
CONTINUOUS
 62
     7
 10
9.3201370774112196
 20
3.5284114681525871
 30
0.0
 11
8.8083155016844028
 21
3.5328419236382538
 31
0.0
  0
LINE
  5
247
  8
0
  6
CONTINUOUS
 62
     7
 10
9.3201370774112196
 20
3.5893114579640408
 30
0.0
 11
9.316189516347114
 21
3.5893114579640408
 31
0.0
  0
LINE
  5
248
  8
0
  6
CONTINUOUS
 62
     7
 10
8.8083155016844028
 20
7.0709736375054408
 30
0.0
 11
9.3201370774112196
 21
7.0754791854569667
 31
0.0
  0
LINE
  5
249
  8
0
  6
CONTINUOUS
 62
     7
 10
9.316189516347114
 20
7.0145041031796538
 30
0.0
 11
9.3201370774112196
 21
7.0145041031796538
 31
0.0
  0
LINE
  5
24A
  8
0
  6
CONTINUOUS
 62
     7
 10
7.7177643764907291
 20
5.1778925732061056
 30
0.0
 11
7.7177643764907291
 21
5.206577895164151
 31
0.0
  0
LINE
  5
24B
  8
0
  6
CONTINUOUS
 62
     7
 10
7.7177643764907291
 20
5.397237665979544
 30
0.0
 11
7.7177643764907291
 21
5.4259229879375894
 31
0.0
  0
LINE
  5
24C
  8
0
  6
CONTINUOUS
 62
     7
 10
7.5681580380892486
 20
4.4711973770093172
 30
0.0
 11
7.5681580380892486
 21
4.4751772776998306
 31
0.0
  0
LINE
  5
24D
  8
0
  6
CONTINUOUS
 62
     7
 10
7.5681580380892486
 20
6.1287133759097232
 30
0.0
 11
7.5681580380892486
 21
6.1326181841343779
 31
0.0
  0
LINE
  5
24E
  8
0
  6
CONTINUOUS
 62
     7
 10
8.8083155016844028
 20
4.080115814816895
 30
0.0
 11
8.8083155016844028
 21
4.0814674792023533
 31
0.0
  0
LINE
  5
24F
  8
0
  6
CONTINUOUS
 62
     7
 10
8.8083155016844028
 20
6.5224231744072014
 30
0.0
 11
8.8083155016844028
 21
6.523774838792658
 31
0.0
  0
INSERT
  5
250
  8
0
  6
CONTINUOUS
 62
     7
  2
*X58
 10
0.0
 20
0.0
 30
0.0
1001
ACAD
1000
HATCH
1002
{
1070
    19
1000
ANSI31
1040
1.0
1040
0.0
1000
R14_HATCH_DATA
1000
250
1011
1.0
1021
0.0
1031
1.2604394655517582E+263
1021
0.0
1031
0.0
1011
0.0
1021
0.0
1031
1.2604394655517582E+263
1021
1.0
1031
0.0
1011
0.0
1021
0.0
1031
1.2604394655517582E+263
1021
0.0
1031
1.0
1040
0.0
1010
0.0
1020
0.0
1030
1.0
1000
ANSI31
1070
     0
1070
     0
1071
        1
1071
        0
1071
        4
1070
     1
1040
9.5563469922274997
1040
3.5263372297555762
1040
9.5563469922275068
1040
3.589329355739542
1070
     1
1040
9.5563469922275068
1040
3.589329355739542
1040
9.3201370776190871
1040
3.589329355739542
1070
     1
1040
9.3201370776190871
1040
3.589329355739542
1040
9.3201370776190924
1040
3.5283986024512122
1070
     1
1040
9.3201370776190924
1040
3.5283986024512122
1040
9.5563469922274997
1040
3.5263372297555762
1071
        0
1070
     0
1070
     1
1040
0.0
1040
1.0
1070
     0
1070
     1
1040
0.7853981633974483
1040
0.0
1040
0.0
1040
-0.0883883476483184
1040
0.0883883476483185
1070
     0
1071
        1
1040
0.0
1040
0.0
1040
0.0
1002
}
  0
INSERT
  5
251
  8
0
  6
CONTINUOUS
 62
     7
  2
*X59
 10
0.0
 20
0.0
 30
0.0
1001
ACAD
1000
HATCH
1002
{
1070
    19
1000
ANSI31
1040
1.0
1040
0.0
1000
R14_HATCH_DATA
1000
251
1011
1.0
1021
0.0
1031
1.2604394655517582E+263
1021
0.0
1031
0.0
1011
0.0
1021
0.0
1031
1.2604394655517582E+263
1021
1.0
1031
0.0
1011
0.0
1021
0.0
1031
1.2604394655517582E+263
1021
0.0
1031
1.0
1040
0.0
1010
0.0
1020
0.0
1030
1.0
1000
ANSI31
1070
     0
1070
     0
1071
        1
1071
        0
1071
        4
1070
     1
1040
9.5563469922275068
1040
7.0145262061332323
1040
9.5563469922274997
1040
7.0775183321174771
1070
     1
1040
9.5563469922274997
1040
7.0775183321174771
1040
9.3201370776190124
1040
7.0754569594218406
1070
     1
1040
9.3201370776190124
1040
7.0754569594218406
1040
9.3201370776190142
1040
7.0145262061332323
1070
     1
1040
9.3201370776190142
1040
7.0145262061332323
1040
9.5563469922275068
1040
7.0145262061332323
1071
        0
1070
     0
1070
     1
1040
0.0
1040
1.0
1070
     0
1070
     1
1040
0.7853981633974483
1040
0.0
1040
0.0
1040
-0.0883883476483184
1040
0.0883883476483185
1070
     0
1071
        1
1040
0.0
1040
0.0
1040
0.0
1002
}
  0
INSERT
  5
252
  8
0
  6
CONTINUOUS
 62
     7
  2
*X60
 10
0.0
 20
0.0
 30
0.0
1001
ACAD
1000
HATCH
1002
{
1070
    19
1000
ANSI31
1040
1.0
1040
0.0
1000
R14_HATCH_DATA
1000
252
1011
1.0
1021
0.0
1031
1.2604394655517582E+263
1021
0.0
1031
0.0
1011
0.0
1021
0.0
1031
1.2604394655517582E+263
1021
1.0
1031
0.0
1011
0.0
1021
0.0
1031
1.2604394655517582E+263
1021
0.0
1031
1.0
1040
0.0
1010
0.0
1020
0.0
1030
1.0
1000
ANSI31
1070
     0
1070
     0
1071
        1
1071
        0
1071
        5
1070
     2
1040
7.9539847875030993
1040
6.5031331173707532
1040
0.0118110236220481
1040
1.5795229730553111
1040
3.1415926535897931
1070
     1
1070
     1
1040
7.9421737638810486
1040
6.5031331173707532
1040
7.9421737638810477
1040
6.4594080958970466
1070
     1
1040
7.9421737638810477
1040
6.4594080958970466
1040
8.8083154961645054
1040
6.4594080958970466
1070
     1
1040
8.8083154961645054
1040
6.4594080958970466
1040
8.8083154961644272
1040
6.5224002218812922
1070
     1
1040
8.8083154961644272
1040
6.5224002218812922
1040
7.9538817181861852
1040
6.5149436912650982
1071
        0
1070
     0
1070
     1
1040
0.0
1040
1.0
1070
     0
1070
     1
1040
0.7853981633974483
1040
0.0
1040
0.0
1040
-0.0883883476483184
1040
0.0883883476483185
1070
     0
1071
        1
1040
0.0
1040
0.0
1040
0.0
1002
}
  0
INSERT
  5
253
  8
0
  6
CONTINUOUS
 62
     7
  2
*X61
 10
0.0
 20
0.0
 30
0.0
1001
ACAD
1000
HATCH
1002
{
1070
    19
1000
ANSI31
1040
1.0
1040
0.0
1000
R14_HATCH_DATA
1000
253
1011
1.0
1021
0.0
1031
1.2604394655517582E+263
1021
0.0
1031
0.0
1011
0.0
1021
0.0
1031
1.2604394655517582E+263
1021
1.0
1031
0.0
1011
0.0
1021
0.0
1031
1.2604394655517582E+263
1021
0.0
1031
1.0
1040
0.0
1010
0.0
1020
0.0
1030
1.0
1000
ANSI31
1070
     0
1070
     0
1071
        1
1071
        0
1071
        7
1070
     1
1040
7.5681580158495496
1040
6.1786876782912561
1040
7.5681580158495496
1040
6.132636442353661
1070
     1
1040
7.5681580158495496
1040
6.132636442353661
1040
8.0012288819912936
1040
6.132636442353661
1070
     1
1040
8.0012288819912936
1040
6.132636442353661
1040
8.0012288819912936
1040
6.392478962036976
1070
     1
1040
8.0012288819912936
1040
6.392478962036976
1040
7.9421737638810459
1040
6.392478962036976
1070
     1
1040
7.9421737638810459
1040
6.392478962036976
1040
7.9421737638810423
1040
6.1936600644008344
1070
     1
1040
7.9421737638810423
1040
6.1936600644008344
1040
7.5798659701546853
1040
6.190498252185602
1070
     2
1040
7.5799690394715977
1040
6.1786876782912561
1040
0.0118110236220481
1040
1.5795229730552349
1040
3.1415926535897931
1070
     1
1071
        0
1070
     0
1070
     1
1040
0.0
1040
1.0
1070
     0
1070
     1
1040
0.7853981633974483
1040
0.0
1040
0.0
1040
-0.0883883476483184
1040
0.0883883476483185
1070
     0
1071
        1
1040
0.0
1040
0.0
1040
0.0
1002
}
  0
INSERT
  5
254
  8
0
  6
CONTINUOUS
 62
     7
  2
*X62
 10
0.0
 20
0.0
 30
0.0
1001
ACAD
1000
HATCH
1002
{
1070
    19
1000
ANSI31
1040
1.0
1040
0.0
1000
R14_HATCH_DATA
1000
254
1011
1.0
1021
0.0
1031
1.2604394655517582E+263
1021
0.0
1031
0.0
1011
0.0
1021
0.0
1031
1.2604394655517582E+263
1021
1.0
1031
0.0
1011
0.0
1021
0.0
1031
1.2604394655517582E+263
1021
0.0
1031
1.0
1040
0.0
1010
0.0
1020
0.0
1030
1.0
1000
ANSI31
1070
     0
1070
     0
1071
        1
1071
        0
1071
        7
1070
     1
1040
8.0012288819912936
1040
4.4712191195191124
1040
7.5681580158495532
1040
4.4712191195191124
1070
     1
1040
7.5681580158495532
1040
4.4712191195191124
1040
7.5681580158495532
1040
4.4251678835817971
1070
     2
1040
7.5799690394716031
1040
4.4251678835817971
1040
0.0118110236220481
1040
3.1415926535897931
1040
4.7036623341243917
1070
     1
1070
     1
1040
7.579865970154688
1040
4.4133573096873109
1040
7.9421737638810681
1040
4.4101954974719391
1070
     1
1040
7.9421737638810681
1040
4.4101954974719391
1040
7.942173763881053
1040
4.2113765998343977
1070
     1
1040
7.942173763881053
1040
4.2113765998343977
1040
8.0012288819912936
1040
4.2113765998343977
1070
     1
1040
8.0012288819912936
1040
4.2113765998343977
1040
8.0012288819912936
1040
4.4712191195191124
1071
        0
1070
     0
1070
     1
1040
0.0
1040
1.0
1070
     0
1070
     1
1040
0.7853981633974483
1040
0.0
1040
0.0
1040
-0.0883883476483184
1040
0.0883883476483185
1070
     0
1071
        1
1040
0.0
1040
0.0
1040
0.0
1002
}
  0
INSERT
  5
255
  8
0
  6
CONTINUOUS
 62
     7
  2
*X63
 10
0.0
 20
0.0
 30
0.0
1001
ACAD
1000
HATCH
1002
{
1070
    19
1000
ANSI31
1040
1.0
1040
0.0
1000
R14_HATCH_DATA
1000
255
1011
1.0
1021
0.0
1031
1.2604394655517582E+263
1021
0.0
1031
0.0
1011
0.0
1021
0.0
1031
1.2604394655517582E+263
1021
1.0
1031
0.0
1011
0.0
1021
0.0
1031
1.2604394655517582E+263
1021
0.0
1031
1.0
1040
0.0
1010
0.0
1020
0.0
1030
1.0
1000
ANSI31
1070
     0
1070
     0
1071
        1
1071
        0
1071
        5
1070
     1
1040
8.8083154961645018
1040
4.1444474659758672
1040
7.942173763881053
1040
4.1444474659758672
1070
     1
1040
7.942173763881053
1040
4.1444474659758672
1040
7.942173763881053
1040
4.1007224445024413
1070
     2
1040
7.9539847875031029
1040
4.1007224445024413
1040
0.0118110236220481
1040
3.1415926535897931
1040
4.7036623341245418
1070
     1
1070
     1
1040
7.9538817181861914
1040
4.088911870607955
1040
8.8083154961645
1040
4.0814553399914821
1070
     1
1040
8.8083154961645
1040
4.0814553399914821
1040
8.8083154961645018
1040
4.1444474659758672
1071
        0
1070
     0
1070
     1
1040
0.0
1040
1.0
1070
     0
1070
     1
1040
0.7853981633974483
1040
0.0
1040
0.0
1040
-0.0883883476483184
1040
0.0883883476483185
1070
     0
1071
        1
1040
0.0
1040
0.0
1040
0.0
1002
}
  0
INSERT
  5
256
  8
0
  6
CONTINUOUS
 62
     7
  2
*X64
 10
0.0
 20
0.0
 30
0.0
1001
ACAD
1000
HATCH
1002
{
1070
    19
1000
ANSI31
1040
1.0
1040
0.0
1000
R14_HATCH_DATA
1000
256
1011
1.0
1021
0.0
1031
1.2604394655517582E+263
1021
0.0
1031
0.0
1011
0.0
1021
0.0
1031
1.2604394655517582E+263
1021
1.0
1031
0.0
1011
0.0
1021
0.0
1031
1.2604394655517582E+263
1021
0.0
1031
1.0
1040
0.0
1010
0.0
1020
0.0
1030
1.0
1000
ANSI31
1070
     0
1070
     0
1071
        1
1071
        0
1071
        4
1070
     1
1040
9.5563469922274962
1040
6.723187623456047
1040
9.5563469922274962
1040
6.5263372297554376
1070
     1
1040
9.5563469922274962
1040
6.5263372297554376
1040
9.5957170709676554
1040
6.5235250812740446
1070
     1
1040
9.5957170709676554
1040
6.5235250812740446
1040
9.5957170709676625
1040
6.7259997719375804
1070
     1
1040
9.5957170709676625
1040
6.7259997719375804
1040
9.5563469922274962
1040
6.723187623456047
1071
        0
1070
     0
1070
     1
1040
0.0
1040
1.0
1070
     0
1070
     1
1040
0.7853981633974483
1040
0.0
1040
0.0
1040
-0.0883883476483184
1040
0.0883883476483185
1070
     0
1071
        1
1040
0.0
1040
0.0
1040
0.0
1002
}
  0
INSERT
  5
257
  8
0
  6
CONTINUOUS
 62
     7
  2
*X65
 10
0.0
 20
0.0
 30
0.0
1001
ACAD
1000
HATCH
1002
{
1070
    19
1000
ANSI31
1040
1.0
1040
0.0
1000
R14_HATCH_DATA
1000
257
1011
1.0
1021
0.0
1031
1.2604394655517582E+263
1021
0.0
1031
0.0
1011
0.0
1021
0.0
1031
1.2604394655517582E+263
1021
1.0
1031
0.0
1011
0.0
1021
0.0
1031
1.2604394655517582E+263
1021
0.0
1031
1.0
1040
0.0
1010
0.0
1020
0.0
1030
1.0
1000
ANSI31
1070
     0
1070
     0
1071
        1
1071
        0
1071
       19
1070
     1
1040
9.5957170709676625
1040
6.2929289057958782
1040
9.5563469922274962
1040
6.2901167573143439
1070
     1
1040
9.5563469922274962
1040
6.2901167573143439
1040
9.5563469922273878
1040
4.5302742376293503
1070
     1
1040
9.5563469922273878
1040
4.5302742376293503
1040
9.7728824252983681
1040
4.5302742376293503
1070
     1
1040
9.7728824252983681
1040
4.5302742376293503
1040
9.7728824252983681
1040
3.6523214817239258
1070
     1
1040
9.7728824252983681
1040
3.6523214817239258
1040
9.4579217953769668
1040
3.6523214817239258
1070
     1
1040
9.4579217953769668
1040
3.6523214817239258
1040
9.4579217953769668
1040
3.6129514029837209
1070
     2
1040
9.4776068347470446
1040
3.6129514029837209
1040
0.0196850393700788
1040
3.1415926535897931
1040
4.7123889803847936
1070
     1
1070
     1
1040
9.4776068347470463
1040
3.5932663636136879
1040
9.5563469922273594
1040
3.5932663636136879
1070
     1
1040
9.5563469922273594
1040
3.5932663636136879
1040
9.5563469922273594
1040
3.526337229755296
1070
     1
1040
9.5563469922273594
1040
3.526337229755296
1040
9.831937543408463
1040
3.5311476807200362
1070
     1
1040
9.831937543408463
1040
3.5311476807200362
1040
9.831937543408463
1040
4.6090143951099014
1070
     1
1040
9.831937543408463
1040
4.6090143951099014
1040
9.6350871497077737
1040
4.6124504315131274
1070
     1
1040
9.6350871497077737
1040
4.6124504315131274
1040
9.6350871497076671
1040
4.7074395919600649
1070
     1
1040
9.6350871497076671
1040
4.7074395919600649
1040
9.6547721890778977
1040
4.7074395919600649
1070
     1
1040
9.6547721890778977
1040
4.7074395919600649
1040
9.6547721890778977
1040
4.786179749440616
1070
     1
1040
9.6547721890778977
1040
4.786179749440616
1040
9.6350871497077382
1040
4.786179749440616
1070
     1
1040
9.6350871497077382
1040
4.786179749440616
1040
9.6350871497076671
1040
5.0302742376294436
1070
     1
1040
9.6350871497076671
1040
5.0302742376294436
1040
9.5957170709676625
1040
5.0302742376294436
1070
     1
1040
9.5957170709676625
1040
5.0302742376294436
1040
9.5957170709676625
1040
6.2929289057958782
1071
        0
1070
     0
1070
     1
1040
0.0
1040
1.0
1070
     0
1070
     1
1040
0.7853981633974483
1040
0.0
1040
0.0
1040
-0.0883883476483184
1040
0.0883883476483185
1070
     0
1071
        1
1040
0.0
1040
0.0
1040
0.0
1002
}
  0
INSERT
  5
258
  8
0
  6
CONTINUOUS
 62
     7
  2
*X66
 10
0.0
 20
0.0
 30
0.0
1001
ACAD
1000
HATCH
1002
{
1070
    19
1000
ANSI31
1040
1.0
1040
0.0
1000
R14_HATCH_DATA
1000
258
1011
1.0
1021
0.0
1031
1.2604394655517582E+263
1021
0.0
1031
0.0
1011
0.0
1021
0.0
1031
1.2604394655517582E+263
1021
1.0
1031
0.0
1011
0.0
1021
0.0
1031
1.2604394655517582E+263
1021
0.0
1031
1.0
1040
0.0
1010
0.0
1020
0.0
1030
1.0
1000
ANSI31
1070
     0
1070
     0
1071
        1
1071
        0
1071
        8
1070
     1
1040
9.5563469922275051
1040
6.9594080958971398
1040
9.5957170709676607
1040
6.9565959474156074
1070
     1
1040
9.5957170709676607
1040
6.9565959474156074
1040
9.5957170709676571
1040
7.0768311248368603
1070
     1
1040
9.5957170709676571
1040
7.0768311248368603
1040
9.5563469922273594
1040
7.0775183321174771
1070
     1
1040
9.5563469922273594
1040
7.0775183321174771
1040
9.5563469922273612
1040
7.0105891982595061
1070
     1
1040
9.5563469922273612
1040
7.0105891982595061
1040
9.4776068347470481
1040
7.0105891982593649
1070
     2
1040
9.4776068347470535
1040
6.990904158889192
1040
0.0196850393700788
1040
1.5707963267950771
1040
3.1415926535897931
1070
     1
1070
     1
1040
9.4579217953769668
1040
6.990904158889192
1040
9.4579217953769668
1040
6.9594080958971398
1070
     1
1040
9.4579217953769668
1040
6.9594080958971398
1040
9.5563469922275051
1040
6.9594080958971398
1071
        0
1070
     0
1070
     1
1040
0.0
1040
1.0
1070
     0
1070
     1
1040
0.7853981633974483
1040
0.0
1040
0.0
1040
-0.0883883476483184
1040
0.0883883476483185
1070
     0
1071
        1
1040
0.0
1040
0.0
1040
0.0
1002
}
  0
INSERT
  5
259
  8
0
  6
CONTINUOUS
 62
     7
  2
*X67
 10
0.0
 20
0.0
 30
0.0
1001
ACAD
1000
HATCH
1002
{
1070
    19
1000
ANSI31
1040
1.0
1040
0.0
1000
R14_HATCH_DATA
1000
259
1011
1.0
1021
0.0
1031
1.2604394655517582E+263
1021
0.0
1031
0.0
1011
0.0
1021
0.0
1031
1.2604394655517582E+263
1021
1.0
1031
0.0
1011
0.0
1021
0.0
1031
1.2604394655517582E+263
1021
0.0
1031
1.0
1040
0.0
1010
0.0
1020
0.0
1030
1.0
1000
ANSI31
1070
     0
1070
     0
1071
        1
1071
        0
1071
        4
1070
     1
1040
9.7453233701802571
1040
6.7366859361669862
1040
9.831937543408463
1040
6.742872662826219
1070
     1
1040
9.831937543408463
1040
6.742872662826219
1040
9.831937543408463
1040
6.9397230565272467
1070
     1
1040
9.831937543408463
1040
6.9397230565272467
1040
9.7453233701802517
1040
6.9459097831864796
1070
     1
1040
9.7453233701802517
1040
6.9459097831864796
1040
9.7453233701802571
1040
6.7366859361669862
1071
        0
1070
     0
1070
     1
1040
0.0
1040
1.0
1070
     0
1070
     1
1040
0.7853981633974483
1040
0.0
1040
0.0
1040
-0.0883883476483184
1040
0.0883883476483185
1070
     0
1071
        1
1040
0.0
1040
0.0
1040
0.0
1002
}
  0
INSERT
  5
25A
  8
0
  6
CONTINUOUS
 62
     7
  2
*X68
 10
0.0
 20
0.0
 30
0.0
1001
ACAD
1000
HATCH
1002
{
1070
    19
1000
ANSI31
1040
1.0
1040
0.0
1000
R14_HATCH_DATA
1000
25A
1011
1.0
1021
0.0
1031
1.2604394655517582E+263
1021
0.0
1031
0.0
1011
0.0
1021
0.0
1031
1.2604394655517582E+263
1021
1.0
1031
0.0
1011
0.0
1021
0.0
1031
1.2604394655517582E+263
1021
0.0
1031
1.0
1040
0.0
1010
0.0
1020
0.0
1030
1.0
1000
ANSI31
1070
     0
1070
     0
1071
        1
1071
        0
1071
        4
1070
     1
1040
9.7453233701802571
1040
6.5128389170444994
1040
9.7453233701802606
1040
6.303615070025284
1070
     1
1040
9.7453233701802606
1040
6.303615070025284
1040
9.8319375434086123
1040
6.3098017966845168
1070
     1
1040
9.8319375434086123
1040
6.3098017966845168
1040
9.831937543408463
1040
6.5066521903852648
1070
     1
1040
9.831937543408463
1040
6.5066521903852648
1040
9.7453233701802571
1040
6.5128389170444994
1071
        0
1070
     0
1070
     1
1040
0.0
1040
1.0
1070
     0
1070
     1
1040
0.7853981633974483
1040
0.0
1040
0.0
1040
-0.0883883476483184
1040
0.0883883476483185
1070
     0
1071
        1
1040
0.0
1040
0.0
1040
0.0
1002
}
  0
INSERT
  5
25B
  8
0
  6
CONTINUOUS
 62
     7
  2
*X69
 10
0.0
 20
0.0
 30
0.0
1001
ACAD
1000
HATCH
1002
{
1070
    19
1000
ANSI31
1040
1.0
1040
0.0
1000
R14_HATCH_DATA
1000
25B
1011
1.0
1021
0.0
1031
1.2604394655517582E+263
1021
0.0
1031
0.0
1011
0.0
1021
0.0
1031
1.2604394655517582E+263
1021
1.0
1031
0.0
1011
0.0
1021
0.0
1031
1.2604394655517582E+263
1021
0.0
1031
1.0
1040
0.0
1010
0.0
1020
0.0
1030
1.0
1000
ANSI31
1070
     0
1070
     0
1071
        1
1071
        0
1071
       12
1070
     1
1040
7.570126519786557
1040
6.0893293557397303
1040
7.570126519786557
1040
4.5145262061334641
1070
     1
1040
7.570126519786557
1040
4.5145262061334641
1040
7.560284000101519
1040
4.5145262061334641
1070
     1
1040
7.560284000101519
1040
4.5145262061334641
1040
7.560284000101519
1040
4.4751561273931184
1070
     1
1040
7.560284000101519
1040
4.4751561273931184
1040
7.6587091969519117
1040
4.4751561273931184
1070
     1
1040
7.6587091969519117
1040
4.4751561273931184
1040
7.6587091969519117
1040
4.5617703006216832
1070
     1
1040
7.6587091969519117
1040
4.5617703006216832
1040
7.6488666772668727
1040
4.5617703006216832
1070
     1
1040
7.6488666772668727
1040
4.5617703006216832
1040
7.6488666772668727
1040
6.0420852612515112
1070
     1
1040
7.6488666772668727
1040
6.0420852612515112
1040
7.6587091969519117
1040
6.0420852612515112
1070
     1
1040
7.6587091969519117
1040
6.0420852612515112
1040
7.6587091969519117
1040
6.1286994344802146
1070
     1
1040
7.6587091969519117
1040
6.1286994344802146
1040
7.560284000101519
1040
6.1286994344802146
1070
     1
1040
7.560284000101519
1040
6.1286994344802146
1040
7.560284000101519
1040
6.0893293557395891
1070
     1
1040
7.560284000101519
1040
6.0893293557395891
1040
7.570126519786557
1040
6.0893293557397303
1071
        0
1070
     0
1070
     1
1040
0.0
1040
1.0
1070
     0
1070
     1
1040
0.7853981633974483
1040
0.0
1040
0.0
1040
-0.0883883476483184
1040
0.0883883476483185
1070
     0
1071
        1
1040
0.0
1040
0.0
1040
0.0
1002
}
  0
INSERT
  5
25C
  8
0
  6
CONTINUOUS
 62
     7
  2
*X70
 10
0.0
 20
0.0
 30
0.0
1001
ACAD
1000
HATCH
1002
{
1070
    19
1000
ANSI31
1040
1.0
1040
0.0
1000
R14_HATCH_DATA
1000
25C
1011
1.0
1021
0.0
1031
1.2604394655517582E+263
1021
0.0
1031
0.0
1011
0.0
1021
0.0
1031
1.2604394655517582E+263
1021
1.0
1031
0.0
1011
0.0
1021
0.0
1031
1.2604394655517582E+263
1021
0.0
1031
1.0
1040
0.0
1010
0.0
1020
0.0
1030
1.0
1000
ANSI31
1070
     0
1070
     0
1071
        1
1071
        0
1071
        4
1070
     1
1040
9.6075280945897212
1040
7.2805554524774578
1040
9.6075280945897212
1040
7.2018152949971874
1070
     1
1040
9.6075280945897212
1040
7.2018152949971874
1040
9.7453233701802713
1040
7.2018152949971874
1070
     2
1040
9.6665832126999565
1040
7.2018152949971874
1040
0.0787401574802713
1040
0.0
1040
1.5707963267948959
1070
     1
1070
     1
1040
9.6665832126999565
1040
7.2805554524774578
1040
9.6075280945897212
1040
7.2805554524774578
1071
        0
1070
     0
1070
     1
1040
0.0
1040
1.0
1070
     0
1070
     1
1040
0.7853981633974483
1040
0.0
1040
0.0
1040
-0.0883883476483184
1040
0.0883883476483185
1070
     0
1071
        1
1040
0.0
1040
0.0
1040
0.0
1002
}
  0
INSERT
  5
25D
  8
0
  6
CONTINUOUS
 62
     7
  2
*X71
 10
0.0
 20
0.0
 30
0.0
1001
ACAD
1000
HATCH
1002
{
1070
    19
1000
ANSI31
1040
1.0
1040
0.0
1000
R14_HATCH_DATA
1000
25D
1011
1.0
1021
0.0
1031
1.2604394655517582E+263
1021
0.0
1031
0.0
1011
0.0
1021
0.0
1031
1.2604394655517582E+263
1021
1.0
1031
0.0
1011
0.0
1021
0.0
1031
1.2604394655517582E+263
1021
0.0
1031
1.0
1040
0.0
1010
0.0
1020
0.0
1030
1.0
1000
ANSI31
1070
     0
1070
     0
1071
        1
1071
        0
1071
        9
1070
     1
1040
9.8122525040385522
1040
6.0055079368652402
1040
9.8122525040385398
1040
6.1781932477532413
1070
     1
1040
9.8122525040385398
1040
6.1781932477532413
1040
9.6075280945897212
1040
6.1781932477532413
1070
     1
1040
9.6075280945897212
1040
6.1781932477532413
1040
9.6075280945897212
1040
6.0285869485404309
1070
     1
1040
9.6075280945897212
1040
6.0285869485404309
1040
9.6468981733298786
1040
6.0285869485404309
1070
     1
1040
9.6468981733298786
1040
6.0285869485404309
1040
9.6468981733298786
1040
6.0325239564144377
1070
     1
1040
9.6468981733298786
1040
6.0325239564144377
1040
9.7177643150621602
1040
6.0325239564144377
1070
     1
1040
9.7177643150621602
1040
6.0325239564144377
1040
9.7177643150621602
1040
5.9616578146821801
1070
     1
1040
9.7177643150621602
1040
5.9616578146821801
1040
9.7374493544322576
1040
5.9616578146821801
1070
     1
1040
9.7374493544322576
1040
5.9616578146821801
1040
9.8122525040385522
1040
6.0055079368652402
1071
        0
1070
     0
1070
     1
1040
0.0
1040
1.0
1070
     0
1070
     1
1040
0.7853981633974483
1040
0.0
1040
0.0
1040
-0.0883883476483184
1040
0.0883883476483185
1070
     0
1071
        1
1040
0.0
1040
0.0
1040
0.0
1002
}
  0
INSERT
  5
25E
  8
0
  6
CONTINUOUS
 62
     7
  2
*X72
 10
0.0
 20
0.0
 30
0.0
1001
ACAD
1000
HATCH
1002
{
1070
    19
1000
ANSI31
1040
1.0
1040
0.0
1000
R14_HATCH_DATA
1000
25E
1011
1.0
1021
0.0
1031
1.2604394655517582E+263
1021
0.0
1031
0.0
1011
0.0
1021
0.0
1031
1.2604394655517582E+263
1021
1.0
1031
0.0
1011
0.0
1021
0.0
1031
1.2604394655517582E+263
1021
0.0
1031
1.0
1040
0.0
1010
0.0
1020
0.0
1030
1.0
1000
ANSI31
1070
     0
1070
     0
1071
        1
1071
        0
1071
        4
1070
     1
1040
9.6862682520700361
1040
6.8081145075959713
1040
9.7453233701802713
1040
6.8081145075959713
1070
     1
1040
9.7453233701802713
1040
6.8081145075959713
1040
9.7453233701802713
1040
7.0837050587767099
1070
     1
1040
9.7453233701802713
1040
7.0837050587767099
1040
9.6862682520700361
1040
7.0837050587767099
1070
     1
1040
9.6862682520700361
1040
7.0837050587767099
1040
9.6862682520700361
1040
6.8081145075959713
1071
        0
1070
     0
1070
     1
1040
0.0
1040
1.0
1070
     0
1070
     1
1040
0.7853981633974483
1040
0.0
1040
0.0
1040
-0.0883883476483184
1040
0.0883883476483185
1070
     0
1071
        1
1040
0.0
1040
0.0
1040
0.0
1002
}
  0
INSERT
  5
25F
  8
0
  6
CONTINUOUS
 62
     7
  2
*X73
 10
0.0
 20
0.0
 30
0.0
1001
ACAD
1000
HATCH
1002
{
1070
    19
1000
ANSI31
1040
1.0
1040
0.0
1000
R14_HATCH_DATA
1000
25F
1011
1.0
1021
0.0
1031
1.2604394655517582E+263
1021
0.0
1031
0.0
1011
0.0
1021
0.0
1031
1.2604394655517582E+263
1021
1.0
1031
0.0
1011
0.0
1021
0.0
1031
1.2604394655517582E+263
1021
0.0
1031
1.0
1040
0.0
1010
0.0
1020
0.0
1030
1.0
1000
ANSI31
1070
     0
1070
     0
1071
        1
1071
        0
1071
        4
1070
     1
1040
8.6114651024637361
1040
3.7474532069229598
1040
8.6114651024637361
1040
3.865521440924411
1070
     1
1040
8.6114651024637361
1040
3.865521440924411
1040
8.5819375434086176
1040
3.865521440924411
1070
     1
1040
8.5819375434086176
1040
3.865521440924411
1040
8.5819375434086176
1040
3.7474532069229598
1070
     1
1040
8.5819375434086176
1040
3.7474532069229598
1040
8.6114651024637361
1040
3.7474532069229598
1071
        0
1070
     0
1070
     1
1040
0.0
1040
1.0
1070
     0
1070
     1
1040
0.7853981633974483
1040
0.0
1040
0.0
1040
-0.0883883476483184
1040
0.0883883476483185
1070
     0
1071
        1
1040
0.0
1040
0.0
1040
0.0
1002
}
  0
INSERT
  5
260
  8
0
  6
CONTINUOUS
 62
     7
  2
*X74
 10
0.0
 20
0.0
 30
0.0
1001
ACAD
1000
HATCH
1002
{
1070
    19
1000
ANSI31
1040
1.0
1040
0.0
1000
R14_HATCH_DATA
1000
260
1011
1.0
1021
0.0
1031
1.2604394655517582E+263
1021
0.0
1031
0.0
1011
0.0
1021
0.0
1031
1.2604394655517582E+263
1021
1.0
1031
0.0
1011
0.0
1021
0.0
1031
1.2604394655517582E+263
1021
0.0
1031
1.0
1040
0.0
1010
0.0
1020
0.0
1030
1.0
1000
ANSI31
1070
     0
1070
     0
1071
        1
1071
        0
1071
        9
1070
     1
1040
8.9461107717550714
1040
4.0210543280122391
1040
8.9461107717550679
1040
4.0789069249705658
1070
     1
1040
8.9461107717550679
1040
4.0789069249705658
1040
8.8083154961647558
1040
4.0801094461224769
1070
     1
1040
8.8083154961647558
1040
4.0801094461224769
1040
8.5524099843536785
1040
4.0778761925539833
1070
     1
1040
8.5524099843536785
1040
4.0778761925539833
1040
8.5524099843536785
1040
4.0328652766795532
1070
     1
1040
8.5524099843536785
1040
4.0328652766795532
1040
8.5622525040385895
1040
4.0328652766795532
1070
     1
1040
8.5622525040385895
1040
4.0328652766795532
1040
8.5622525040385398
1040
3.8891494897921461
1070
     1
1040
8.5622525040385398
1040
3.8891494897921461
1040
8.6114651024637379
1040
3.8891494897921461
1070
     1
1040
8.6114651024637379
1040
3.8891494897921461
1040
8.6114651024637379
1040
4.0210543280122391
1070
     1
1040
8.6114651024637379
1040
4.0210543280122391
1040
8.9461107717550714
1040
4.0210543280122391
1071
        0
1070
     0
1070
     1
1040
0.0
1040
1.0
1070
     0
1070
     1
1040
0.7853981633974483
1040
0.0
1040
0.0
1040
-0.0883883476483184
1040
0.0883883476483185
1070
     0
1071
        1
1040
0.0
1040
0.0
1040
0.0
1002
}
  0
INSERT
  5
261
  8
0
  6
CONTINUOUS
 62
     7
  2
*X75
 10
0.0
 20
0.0
 30
0.0
1001
ACAD
1000
HATCH
1002
{
1070
    19
1000
ANSI31
1040
1.0
1040
0.0
1000
R14_HATCH_DATA
1000
261
1011
1.0
1021
0.0
1031
1.2604394655517582E+263
1021
0.0
1031
0.0
1011
0.0
1021
0.0
1031
1.2604394655517582E+263
1021
1.0
1031
0.0
1011
0.0
1021
0.0
1031
1.2604394655517582E+263
1021
0.0
1031
1.0
1040
0.0
1010
0.0
1020
0.0
1030
1.0
1000
ANSI31
1070
     0
1070
     0
1071
        1
1071
        0
1071
       11
1070
     1
1040
9.0405989607314652
1040
3.5540236035106552
1040
9.3161895119125688
1040
3.5636474376225742
1070
     1
1040
9.3161895119125688
1040
3.5636474376225742
1040
9.3161895119126186
1040
3.5958574776185501
1070
     1
1040
9.3161895119126186
1040
3.5958574776185501
1040
8.6114651024637379
1040
3.5958574776185501
1070
     1
1040
8.6114651024637379
1040
3.5958574776185501
1040
8.6114651024637379
1040
3.7238251580552251
1070
     1
1040
8.6114651024637379
1040
3.7238251580552251
1040
8.5622525040385398
1040
3.7238251580552251
1070
     1
1040
8.5622525040385398
1040
3.7238251580552251
1040
8.5622525040387192
1040
3.580109371167818
1070
     1
1040
8.5622525040387192
1040
3.580109371167818
1040
8.5524099843535506
1040
3.580109371167818
1070
     1
1040
8.5524099843535506
1040
3.580109371167818
1040
8.5524099843536874
1040
3.5350984552933888
1070
     1
1040
8.5524099843536874
1040
3.5350984552933888
1040
8.8083154961647079
1040
3.5328652017248938
1070
     1
1040
8.8083154961647079
1040
3.5328652017248938
1040
9.040598960731554
1040
3.5348923088099879
1070
     1
1040
9.040598960731554
1040
3.5348923088099879
1040
9.0405989607314652
1040
3.5540236035106552
1071
        0
1070
     0
1070
     1
1040
0.0
1040
1.0
1070
     0
1070
     1
1040
0.7853981633974483
1040
0.0
1040
0.0
1040
-0.0883883476483184
1040
0.0883883476483185
1070
     0
1071
        1
1040
0.0
1040
0.0
1040
0.0
1002
}
  0
INSERT
  5
262
  8
0
  6
CONTINUOUS
 62
     7
  2
*X76
 10
0.0
 20
0.0
 30
0.0
1001
ACAD
1000
HATCH
1002
{
1070
    19
1000
ANSI31
1040
1.0
1040
0.0
1000
R14_HATCH_DATA
1000
262
1011
1.0
1021
0.0
1031
1.2604394655517582E+263
1021
0.0
1031
0.0
1011
0.0
1021
0.0
1031
1.2604394655517582E+263
1021
1.0
1031
0.0
1011
0.0
1021
0.0
1031
1.2604394655517582E+263
1021
0.0
1031
1.0
1040
0.0
1010
0.0
1020
0.0
1030
1.0
1000
ANSI31
1070
     0
1070
     0
1071
        1
1071
        0
1071
        4
1070
     1
1040
8.6114651024637361
1040
6.7383341209485019
1040
8.6114651024637361
1040
6.8564023549499531
1070
     1
1040
8.6114651024637361
1040
6.8564023549499531
1040
8.5819375434086176
1040
6.8564023549499531
1070
     1
1040
8.5819375434086176
1040
6.8564023549499531
1040
8.5819375434086176
1040
6.7383341209485019
1070
     1
1040
8.5819375434086176
1040
6.7383341209485019
1040
8.6114651024637361
1040
6.7383341209485019
1071
        0
1070
     0
1070
     1
1040
0.0
1040
1.0
1070
     0
1070
     1
1040
0.7853981633974483
1040
0.0
1040
0.0
1040
-0.0883883476483184
1040
0.0883883476483185
1070
     0
1071
        1
1040
0.0
1040
0.0
1040
0.0
1002
}
  0
INSERT
  5
263
  8
0
  6
CONTINUOUS
 62
     7
  2
*X77
 10
0.0
 20
0.0
 30
0.0
1001
ACAD
1000
HATCH
1002
{
1070
    19
1000
ANSI31
1040
1.0
1040
0.0
1000
R14_HATCH_DATA
1000
263
1011
1.0
1021
0.0
1031
1.2604394655517582E+263
1021
0.0
1031
0.0
1011
0.0
1021
0.0
1031
1.2604394655517582E+263
1021
1.0
1031
0.0
1011
0.0
1021
0.0
1031
1.2604394655517582E+263
1021
0.0
1031
1.0
1040
0.0
1010
0.0
1020
0.0
1030
1.0
1000
ANSI31
1070
     0
1070
     0
1071
        1
1071
        0
1071
        9
1070
     1
1040
8.9461107717550696
1040
6.5249486369026268
1040
8.9461107717550661
1040
6.5828012338606738
1070
     1
1040
8.9461107717550661
1040
6.5828012338606738
1040
8.6114651024637379
1040
6.5828012338606738
1070
     1
1040
8.6114651024637379
1040
6.5828012338606738
1040
8.6114651024637379
1040
6.7147060720807676
1070
     1
1040
8.6114651024637379
1040
6.7147060720807676
1040
8.5622525040385398
1040
6.7147060720807676
1070
     1
1040
8.5622525040385398
1040
6.7147060720807676
1040
8.5622525040387227
1040
6.5709902851933597
1070
     1
1040
8.5622525040387227
1040
6.5709902851933597
1040
8.5524099843535488
1040
6.5709902851933597
1070
     1
1040
8.5524099843535488
1040
6.5709902851933597
1040
8.5524099843536785
1040
6.5259793693189314
1070
     1
1040
8.5524099843536785
1040
6.5259793693189314
1040
8.8083154961648624
1040
6.5237461157504359
1070
     1
1040
8.8083154961648624
1040
6.5237461157504359
1040
8.9461107717550696
1040
6.5249486369026268
1071
        0
1070
     0
1070
     1
1040
0.0
1040
1.0
1070
     0
1070
     1
1040
0.7853981633974483
1040
0.0
1040
0.0
1040
-0.0883883476483184
1040
0.0883883476483185
1070
     0
1071
        1
1040
0.0
1040
0.0
1040
0.0
1002
}
  0
INSERT
  5
264
  8
0
  6
CONTINUOUS
 62
     7
  2
*X78
 10
0.0
 20
0.0
 30
0.0
1001
ACAD
1000
HATCH
1002
{
1070
    19
1000
ANSI31
1040
1.0
1040
0.0
1000
R14_HATCH_DATA
1000
264
1011
1.0
1021
0.0
1031
1.2604394655517582E+263
1021
0.0
1031
0.0
1011
0.0
1021
0.0
1031
1.2604394655517582E+263
1021
1.0
1031
0.0
1011
0.0
1021
0.0
1031
1.2604394655517582E+263
1021
0.0
1031
1.0
1040
0.0
1010
0.0
1020
0.0
1030
1.0
1000
ANSI31
1070
     0
1070
     0
1071
        1
1071
        0
1071
       11
1070
     1
1040
9.3161895119125706
1040
7.0402081242501993
1040
9.0405989607314652
1040
7.0498319583622591
1070
     1
1040
9.0405989607314652
1040
7.0498319583622591
1040
9.0405989607315522
1040
7.0689632530627851
1070
     1
1040
9.0405989607315522
1040
7.0689632530627851
1040
8.8083154961647097
1040
7.0709903601480191
1070
     1
1040
8.8083154961647097
1040
7.0709903601480191
1040
8.5524099843536874
1040
7.0687571065798052
1070
     1
1040
8.5524099843536874
1040
7.0687571065798052
1040
8.5524099843536856
1040
7.0237461907053751
1070
     1
1040
8.5524099843536856
1040
7.0237461907053751
1040
8.5622525040385895
1040
7.0237461907053751
1070
     1
1040
8.5622525040385895
1040
7.0237461907053751
1040
8.5622525040385398
1040
6.8800304038176883
1070
     1
1040
8.5622525040385398
1040
6.8800304038176883
1040
8.6114651024637379
1040
6.8800304038176883
1070
     1
1040
8.6114651024637379
1040
6.8800304038176883
1040
8.6114651024637379
1040
7.0079980842543641
1070
     1
1040
8.6114651024637379
1040
7.0079980842543641
1040
9.3161895119126275
1040
7.0079980842543641
1070
     1
1040
9.3161895119126275
1040
7.0079980842543641
1040
9.3161895119125706
1040
7.0402081242501993
1071
        0
1070
     0
1070
     1
1040
0.0
1040
1.0
1070
     0
1070
     1
1040
0.7853981633974483
1040
0.0
1040
0.0
1040
-0.0883883476483184
1040
0.0883883476483185
1070
     0
1071
        1
1040
0.0
1040
0.0
1040
0.0
1002
}
  0
INSERT
  5
265
  8
0
  6
CONTINUOUS
 62
     7
  2
*X79
 10
0.0
 20
0.0
 30
0.0
1001
ACAD
1000
HATCH
1002
{
1070
    19
1000
ANSI37
1040
1.0
1040
0.0
1000
R14_HATCH_DATA
1000
265
1011
1.0
1021
0.0
1031
1.2604394655517582E+263
1021
0.0
1031
0.0
1011
0.0
1021
0.0
1031
1.2604394655517582E+263
1021
1.0
1031
0.0
1011
0.0
1021
0.0
1031
1.2604394655517582E+263
1021
0.0
1031
1.0
1040
0.0
1010
0.0
1020
0.0
1030
1.0
1000
ANSI37
1070
     0
1070
     0
1071
        1
1071
        0
1071
        4
1070
     1
1040
9.3949296693927131
1040
3.7881967548211342
1040
9.3949296693927131
1040
3.5912978596767551
1070
     1
1040
9.3949296693927131
1040
3.5912978596767551
1040
9.4579217953769668
1040
3.5912978596767551
1070
     1
1040
9.4579217953769668
1040
3.5912978596767551
1040
9.4579217953769668
1040
3.7881967548211342
1070
     1
1040
9.4579217953769668
1040
3.7881967548211342
1040
9.3949296693927131
1040
3.7881967548211342
1071
        0
1070
     0
1070
     1
1040
0.0
1040
1.0
1070
     0
1070
     2
1040
0.7853981633974483
1040
0.0
1040
0.0
1040
-0.0883883476483184
1040
0.0883883476483185
1070
     0
1040
2.3561944901923439
1040
0.0
1040
0.0
1040
-0.0883883476483185
1040
-0.0883883476483184
1070
     0
1071
        1
1040
0.0
1040
0.0
1040
0.0
1002
}
  0
INSERT
  5
266
  8
0
  6
CONTINUOUS
 62
     7
  2
*X80
 10
0.0
 20
0.0
 30
0.0
1001
ACAD
1000
HATCH
1002
{
1070
    19
1000
ANSI37
1040
1.0
1040
0.0
1000
R14_HATCH_DATA
1000
266
1011
1.0
1021
0.0
1031
1.2604394655517582E+263
1021
0.0
1031
0.0
1011
0.0
1021
0.0
1031
1.2604394655517582E+263
1021
1.0
1031
0.0
1011
0.0
1021
0.0
1031
1.2604394655517582E+263
1021
0.0
1031
1.0
1040
0.0
1010
0.0
1020
0.0
1030
1.0
1000
ANSI37
1070
     0
1070
     0
1071
        1
1071
        0
1071
        4
1070
     1
1040
9.4579217953769668
1040
3.839280854296097
1040
9.4579217953769668
1040
6.764574707577097
1070
     1
1040
9.4579217953769668
1040
6.764574707577097
1040
9.3949296693927131
1040
6.764574707577097
1070
     1
1040
9.3949296693927131
1040
6.764574707577097
1040
9.3949296693927131
1040
3.839280854296097
1070
     1
1040
9.3949296693927131
1040
3.839280854296097
1040
9.4579217953769668
1040
3.839280854296097
1071
        0
1070
     0
1070
     1
1040
0.0
1040
1.0
1070
     0
1070
     2
1040
0.7853981633974483
1040
0.0
1040
0.0
1040
-0.0883883476483184
1040
0.0883883476483185
1070
     0
1040
2.3561944901923439
1040
0.0
1040
0.0
1040
-0.0883883476483185
1040
-0.0883883476483184
1070
     0
1071
        1
1040
0.0
1040
0.0
1040
0.0
1002
}
  0
INSERT
  5
267
  8
0
  6
CONTINUOUS
 62
     7
  2
*X81
 10
0.0
 20
0.0
 30
0.0
1001
ACAD
1000
HATCH
1002
{
1070
    19
1000
ANSI37
1040
1.0
1040
0.0
1000
R14_HATCH_DATA
1000
267
1011
1.0
1021
0.0
1031
1.2604394655517582E+263
1021
0.0
1031
0.0
1011
0.0
1021
0.0
1031
1.2604394655517582E+263
1021
1.0
1031
0.0
1011
0.0
1021
0.0
1031
1.2604394655517582E+263
1021
0.0
1031
1.0
1040
0.0
1010
0.0
1020
0.0
1030
1.0
1000
ANSI37
1070
     0
1070
     0
1071
        1
1071
        0
1071
        4
1070
     1
1040
9.4579217953769668
1040
6.815658807052059
1040
9.4579217953769668
1040
7.012557702196438
1070
     1
1040
9.4579217953769668
1040
7.012557702196438
1040
9.3949296693927131
1040
7.012557702196438
1070
     1
1040
9.3949296693927131
1040
7.012557702196438
1040
9.3949296693927131
1040
6.815658807052059
1070
     1
1040
9.3949296693927131
1040
6.815658807052059
1040
9.4579217953769668
1040
6.815658807052059
1071
        0
1070
     0
1070
     1
1040
0.0
1040
1.0
1070
     0
1070
     2
1040
0.7853981633974483
1040
0.0
1040
0.0
1040
-0.0883883476483184
1040
0.0883883476483185
1070
     0
1040
2.3561944901923439
1040
0.0
1040
0.0
1040
-0.0883883476483185
1040
-0.0883883476483184
1070
     0
1071
        1
1040
0.0
1040
0.0
1040
0.0
1002
}
  0
INSERT
  5
268
  8
0
  6
CONTINUOUS
 62
     7
  2
*X82
 10
0.0
 20
0.0
 30
0.0
1001
ACAD
1000
HATCH
1002
{
1070
    19
1000
ANSI31
1040
1.0
1040
0.0
1000
R14_HATCH_DATA
1000
268
1011
1.0
1021
0.0
1031
1.2604394655517582E+263
1021
0.0
1031
0.0
1011
0.0
1021
0.0
1031
1.2604394655517582E+263
1021
1.0
1031
0.0
1011
0.0
1021
0.0
1031
1.2604394655517582E+263
1021
0.0
1031
1.0
1040
0.0
1010
0.0
1020
0.0
1030
1.0
1000
ANSI31
1070
     0
1070
     0
1071
        1
1071
        0
1071
       83
1070
     1
1040
9.1882367560068872
1040
3.823581324243702
1040
9.1902052599438946
1040
3.8255498281807752
1070
     1
1040
9.1902052599438946
1040
3.8255498281807752
1040
9.1902052599438946
1040
3.8373608518027948
1070
     1
1040
9.1902052599438946
1040
3.8373608518027948
1040
9.1882367560068872
1040
3.839329355739868
1070
     1
1040
9.1882367560068872
1040
3.839329355739868
1040
9.1902052599438946
1040
3.8412978596768008
1070
     1
1040
9.1902052599438946
1040
3.8412978596768008
1040
9.1902052599438946
1040
3.853108883298821
1070
     1
1040
9.1902052599438946
1040
3.853108883298821
1040
9.1882367560068872
1040
3.8550773872358941
1070
     1
1040
9.1882367560068872
1040
3.8550773872358941
1040
9.1902052599438946
1040
3.8570458911728269
1070
     1
1040
9.1902052599438946
1040
3.8570458911728269
1040
9.1902052599438946
1040
3.8688569147949869
1070
     1
1040
9.1902052599438946
1040
3.8688569147949869
1040
9.1882367560068872
1040
3.8708254187319211
1070
     1
1040
9.1882367560068872
1040
3.8708254187319211
1040
9.1902052599438946
1040
3.8727939226689938
1070
     1
1040
9.1902052599438946
1040
3.8727939226689938
1040
9.1902052599438946
1040
3.8806679384170071
1070
     1
1040
9.1902052599438946
1040
3.8806679384170071
1040
9.272882425298226
1040
3.8806679384170071
1070
     1
1040
9.272882425298226
1040
3.8806679384170071
1040
9.272882425298226
1040
3.727124631330331
1070
     1
1040
9.272882425298226
1040
3.727124631330331
1040
9.288630456794289
1040
3.727124631330331
1070
     1
1040
9.288630456794289
1040
3.727124631330331
1040
9.288630456794273
1040
3.6739750250311718
1070
     1
1040
9.288630456794273
1040
3.6739750250311718
1040
9.3161895119124001
1040
3.626730930542954
1070
     1
1040
9.3161895119124001
1040
3.626730930542954
1040
9.3949296693927131
1040
3.626730930542954
1070
     1
1040
9.3949296693927131
1040
3.626730930542954
1040
9.3949296693927131
1040
3.788148253377642
1070
     1
1040
9.3949296693927131
1040
3.788148253377642
1040
9.5327249449832667
1040
3.788148253377642
1070
     1
1040
9.5327249449832667
1040
3.788148253377642
1040
9.5327249449832667
1040
3.8196443163696951
1070
     1
1040
9.5327249449832667
1040
3.8196443163696951
1040
9.3949296693927131
1040
3.8196443163696951
1070
     1
1040
9.3949296693927131
1040
3.8196443163696951
1040
9.3949296693927131
1040
3.9810616392043841
1070
     1
1040
9.3949296693927131
1040
3.9810616392043841
1040
9.1587091969517687
1040
3.9810616392043841
1070
     1
1040
9.1587091969517687
1040
3.9810616392043841
1040
8.8634336064005872
1040
3.9062584895981192
1070
     1
1040
8.8634336064005872
1040
3.9062584895981192
1040
8.8634336064005872
1040
3.8846049462910131
1070
     1
1040
8.8634336064005872
1040
3.8846049462910131
1040
8.8752446300226371
1040
3.8846049462910131
1070
     2
1040
8.8791816378966502
1040
3.8846049462910131
1040
0.0039370078740157
1040
3.1415926535897931
1040
6.2831853071796004
1070
     1
1070
     1
1040
8.8831186457706668
1040
3.8846049462910131
1040
8.9776068347470446
1040
3.8846049462910131
1070
     1
1040
8.9776068347470446
1040
3.8846049462910131
1040
8.9863711789458645
1040
3.8649199069257358
1070
     1
1040
8.9863711789458645
1040
3.8649199069257358
1040
8.9953233701801167
1040
3.8649199069208411
1070
     1
1040
8.9953233701801167
1040
3.8649199069208411
1040
8.9953233701801167
1040
3.8806679384170071
1070
     1
1040
8.9953233701801167
1040
3.8806679384170071
1040
9.0780005355344464
1040
3.8806679384170071
1070
     1
1040
9.0780005355344464
1040
3.8806679384170071
1040
9.0780005355344464
1040
3.8629514029839069
1070
     1
1040
9.0780005355344464
1040
3.8629514029839069
1040
8.9736698268730297
1040
3.8629514029839069
1070
     1
1040
8.9736698268730297
1040
3.8629514029839069
1040
8.9736698268730297
1040
3.8708254187319211
1070
     2
1040
8.9618588032509816
1040
3.8708254187319211
1040
0.0118110236220473
1040
0.0
1040
1.5707963267948959
1070
     1
1070
     1
1040
8.9618588032509816
1040
3.8826364423539399
1040
8.9185517166368093
1040
3.8826364423539399
1070
     2
1040
8.9185517166368093
1040
3.8747624266059271
1040
0.0078740157480315
1040
1.5707963267948959
1040
3.1415926535897931
1070
     1
1070
     1
1040
8.9106777008887779
1040
3.8747624266059271
1040
8.9106777008887779
1040
3.8196443163696951
1070
     1
1040
8.9106777008887779
1040
3.8196443163696951
1040
8.9461107717549186
1040
3.8196443163696951
1070
     1
1040
8.9461107717549186
1040
3.8196443163696951
1040
8.9461107717549186
1040
3.788148253377642
1070
     1
1040
8.9461107717549186
1040
3.788148253377642
1040
8.9106777008887779
1040
3.788148253377642
1070
     1
1040
8.9106777008887779
1040
3.788148253377642
1040
8.9106777008887779
1040
3.733030143141411
1070
     2
1040
8.9185517166368093
1040
3.733030143141411
1040
0.0078740157480315
1040
3.1415926535897931
1040
4.712388980384703
1070
     1
1070
     1
1040
8.9185517166368093
1040
3.7251561273933982
1040
8.9618588032509816
1040
3.7251561273933982
1070
     2
1040
8.9618588032509816
1040
3.736967151015417
1040
0.0118110236220473
1040
4.712388980384703
1040
6.2831853071796004
1070
     1
1070
     1
1040
8.9736698268730297
1040
3.736967151015417
1040
8.9736698268730297
1040
3.7448411667634298
1070
     1
1040
8.9736698268730297
1040
3.7448411667634298
1040
9.0780005355344464
1040
3.7448411667634298
1070
     1
1040
9.0780005355344464
1040
3.7448411667634298
1040
9.0780005355344464
1040
3.727124631330331
1070
     1
1040
9.0780005355344464
1040
3.727124631330331
1040
8.9953233701801167
1040
3.727124631330331
1070
     1
1040
8.9953233701801167
1040
3.727124631330331
1040
8.9953233701801167
1040
3.7428726628263571
1070
     1
1040
8.9953233701801167
1040
3.7428726628263571
1040
8.9863711789458645
1040
3.7428726628263571
1070
     1
1040
8.9863711789458645
1040
3.7428726628263571
1040
8.9776068347481637
1040
3.7231876234519881
1070
     1
1040
8.9776068347481637
1040
3.7231876234519881
1040
8.8831186457706668
1040
3.7231876234563241
1070
     2
1040
8.8791816378966502
1040
3.7231876234563241
1040
0.0039370078740157
1040
0.0
1040
3.1415926535897931
1070
     1
1070
     1
1040
8.8752446300226371
1040
3.7231876234563241
1040
8.8634336064005872
1040
3.7231876234563241
1070
     1
1040
8.8634336064005872
1040
3.7231876234563241
1040
8.8634336064005872
1040
3.701534080149218
1070
     1
1040
8.8634336064005872
1040
3.701534080149218
1040
9.0661895119124001
1040
3.6385419541649728
1070
     1
1040
9.0661895119124001
1040
3.6385419541649728
1040
9.0661895119124001
1040
3.626730930542954
1070
     1
1040
9.0661895119124001
1040
3.626730930542954
1040
9.0957170709675186
1040
3.626730930542954
1070
     1
1040
9.0957170709675186
1040
3.626730930542954
1040
9.1823312441958649
1040
3.6739750250311718
1070
     1
1040
9.1823312441958649
1040
3.6739750250311718
1040
9.1823312441958649
1040
3.7023549359676009
1070
     2
1040
9.1587091969517687
1040
3.7231876234563241
1040
0.031496062992126
1040
5.5604510593656196
1040
6.2831853071796004
1070
     1
1070
     1
1040
9.1902052599438946
1040
3.7231876234563241
1040
9.1902052599438946
1040
3.727124631330331
1070
     1
1040
9.1902052599438946
1040
3.727124631330331
1040
9.1882367560068872
1040
3.7290931352674042
1070
     1
1040
9.1882367560068872
1040
3.7290931352674042
1040
9.1902052599438946
1040
3.731061639204337
1070
     1
1040
9.1902052599438946
1040
3.731061639204337
1040
9.1902052599438946
1040
3.7428726628263571
1070
     1
1040
9.1902052599438946
1040
3.7428726628263571
1040
9.1882367560068872
1040
3.7448411667634298
1070
     1
1040
9.1882367560068872
1040
3.7448411667634298
1040
9.1902052599438946
1040
3.7468096707005039
1070
     1
1040
9.1902052599438946
1040
3.7468096707005039
1040
9.1902052599438946
1040
3.7586206943225231
1070
     1
1040
9.1902052599438946
1040
3.7586206943225231
1040
9.1882367560068872
1040
3.7605891982594568
1070
     1
1040
9.1882367560068872
1040
3.7605891982594568
1040
9.1902052599438946
1040
3.76255770219653
1070
     1
1040
9.1902052599438946
1040
3.76255770219653
1040
9.1902052599438946
1040
3.7743687258185501
1070
     1
1040
9.1902052599438946
1040
3.7743687258185501
1040
9.1882367560068872
1040
3.7763372297554829
1070
     1
1040
9.1882367560068872
1040
3.7763372297554829
1040
9.1902052599438946
1040
3.7783057336925561
1070
     1
1040
9.1902052599438946
1040
3.7783057336925561
1040
9.1902052599438946
1040
3.7901167573145762
1070
     1
1040
9.1902052599438946
1040
3.7901167573145762
1040
9.1882367560068872
1040
3.7920852612516489
1070
     1
1040
9.1882367560068872
1040
3.7920852612516489
1040
9.1902052599438946
1040
3.7940537651885831
1070
     1
1040
9.1902052599438946
1040
3.7940537651885831
1040
9.1902052599438946
1040
3.8058647888106019
1070
     1
1040
9.1902052599438946
1040
3.8058647888106019
1040
9.1882367560068872
1040
3.807833292747675
1070
     1
1040
9.1882367560068872
1040
3.807833292747675
1040
9.1902052599438946
1040
3.8098017966847482
1070
     1
1040
9.1902052599438946
1040
3.8098017966847482
1040
9.1902052599438946
1040
3.8216128203067679
1070
     1
1040
9.1902052599438946
1040
3.8216128203067679
1040
9.1882367560068872
1040
3.823581324243702
1071
        0
1070
     0
1070
     1
1040
0.0
1040
1.0
1070
     0
1070
     1
1040
0.7853981633974483
1040
0.0
1040
0.0
1040
-0.0883883476483184
1040
0.0883883476483185
1070
     0
1071
        1
1040
0.0
1040
0.0
1040
0.0
1002
}
  0
INSERT
  5
269
  8
0
  6
CONTINUOUS
 62
     7
  2
*X83
 10
0.0
 20
0.0
 30
0.0
1001
ACAD
1000
HATCH
1002
{
1070
    19
1000
ANSI31
1040
1.0
1040
0.0
1000
R14_HATCH_DATA
1000
269
1011
1.0
1021
0.0
1031
1.2604394655517582E+263
1021
0.0
1031
0.0
1011
0.0
1021
0.0
1031
1.2604394655517582E+263
1021
1.0
1031
0.0
1011
0.0
1021
0.0
1031
1.2604394655517582E+263
1021
0.0
1031
1.0
1040
0.0
1010
0.0
1020
0.0
1030
1.0
1000
ANSI31
1070
     0
1070
     0
1071
        1
1071
        0
1071
       83
1070
     1
1040
9.1902052599438964
1040
6.7783057336924184
1040
9.1882367560068872
1040
6.7802742376294907
1070
     1
1040
9.1882367560068872
1040
6.7802742376294907
1040
9.1902052599438964
1040
6.7822427415664253
1070
     1
1040
9.1902052599438964
1040
6.7822427415664253
1040
9.1902052599438964
1040
6.7940537651884441
1070
     1
1040
9.1902052599438964
1040
6.7940537651884441
1040
9.1882367560068872
1040
6.7960222691255181
1070
     1
1040
9.1882367560068872
1040
6.7960222691255181
1040
9.1902052599438964
1040
6.7979907730625913
1070
     1
1040
9.1902052599438964
1040
6.7979907730625913
1040
9.1902052599438964
1040
6.8098017966846101
1070
     1
1040
9.1902052599438964
1040
6.8098017966846101
1040
9.1882367560068872
1040
6.8117703006215438
1070
     1
1040
9.1882367560068872
1040
6.8117703006215438
1040
9.1902052599438964
1040
6.8137388045586169
1070
     1
1040
9.1902052599438964
1040
6.8137388045586169
1040
9.1902052599438964
1040
6.8255498281806366
1070
     1
1040
9.1902052599438964
1040
6.8255498281806366
1040
9.1882367560068872
1040
6.8275183321177098
1070
     1
1040
9.1882367560068872
1040
6.8275183321177098
1040
9.1902052599438964
1040
6.8294868360546443
1070
     1
1040
9.1902052599438964
1040
6.8294868360546443
1040
9.1902052599438964
1040
6.841297859676664
1070
     1
1040
9.1902052599438964
1040
6.841297859676664
1040
9.1882367560068872
1040
6.8432663636137372
1070
     1
1040
9.1882367560068872
1040
6.8432663636137372
1040
9.1902052599438964
1040
6.84523486755067
1070
     1
1040
9.1902052599438964
1040
6.84523486755067
1040
9.1902052599438964
1040
6.8570458911726888
1070
     1
1040
9.1902052599438964
1040
6.8570458911726888
1040
9.1882367560068872
1040
6.859014395109762
1070
     1
1040
9.1882367560068872
1040
6.859014395109762
1040
9.1902052599438964
1040
6.860982899046836
1070
     1
1040
9.1902052599438964
1040
6.860982899046836
1040
9.1902052599438964
1040
6.8727939226688557
1070
     1
1040
9.1902052599438964
1040
6.8727939226688557
1040
9.1882367560068872
1040
6.8747624266057894
1070
     1
1040
9.1882367560068872
1040
6.8747624266057894
1040
9.1902052599438964
1040
6.8767309305428617
1070
     1
1040
9.1902052599438964
1040
6.8767309305428617
1040
9.1902052599438964
1040
6.8806679384168694
1070
     2
1040
9.1587091969517704
1040
6.8806679384168694
1040
0.031496062992126
1040
0.0
1040
0.722734247814028
1070
     1
1070
     1
1040
9.1823312441958649
1040
6.9015006259055918
1040
9.1823312441958649
1040
6.9298805368420213
1070
     1
1040
9.1823312441958649
1040
6.9298805368420213
1040
9.0957170709675186
1040
6.9771246313302404
1070
     1
1040
9.0957170709675186
1040
6.9771246313302404
1040
9.0661895119124001
1040
6.9771246313302404
1070
     1
1040
9.0661895119124001
1040
6.9771246313302404
1040
9.0661895119124001
1040
6.9653136077082198
1070
     1
1040
9.0661895119124001
1040
6.9653136077082198
1040
8.8634336064005872
1040
6.9023214817239751
1070
     1
1040
8.8634336064005872
1040
6.9023214817239751
1040
8.8634336064005872
1040
6.8804282524339611
1070
     1
1040
8.8634336064005872
1040
6.8804282524339611
1040
8.8752446300226371
1040
6.8804282524339611
1070
     4
1070
     3
1070
     1
1070
     0
1071
       35
1071
       31
1040
0.0
1040
0.0
1040
0.0
1040
0.0
1040
0.0000105980653337
1040
0.0000105980653337
1040
0.0000105980653337
1040
0.0000447179084272
1040
0.0000447179084272
1040
0.0000447179084272
1040
0.0000787303683288
1040
0.0000787303683288
1040
0.0000787303683288
1040
0.0001126558801675
1040
0.0001126558801675
1040
0.0001126558801675
1040
0.0001465578002365
1040
0.0001465578002365
1040
0.0001465578002365
1040
0.0001805117426822
1040
0.0001805117426822
1040
0.0001805117426822
1040
0.0002145674037986
1040
0.0002145674037986
1040
0.0002145674037986
1040
0.0002487246250481
1040
0.0002487246250481
1040
0.0002487246250481
1040
0.0002829236487573
1040
0.0002829236487573
1040
0.0002829236487573
1040
0.000317120118529
1040
0.000317120118529
1040
0.000317120118529
1040
0.000317120118529
1040
8.8752446300226371
1040
6.8804282524339611
1040
1.0
1040
8.8752446300226389
1040
6.8802891702116868
1040
1.0
1040
8.8752519765457425
1040
6.8801498954348492
1040
1.0
1040
8.8752666086187464
1040
6.8800115850340262
1040
1.0
1040
8.8753131149611217
1040
6.8795719815101188
1040
1.0
1040
8.8754359310487825
1040
6.8791343389733859
1040
1.0
1040
8.8756250232024758
1040
6.8787347663822391
1040
1.0
1040
8.8758135291344384
1040
6.8783364325423451
1040
1.0
1040
8.8760730743177891
1040
6.877965015537896
1040
1.0
1040
8.8763824658332346
1040
6.8776511983545641
1040
1.0
1040
8.8766910704292048
1040
6.8773381793471042
1040
1.0
1040
8.8770577345624915
1040
6.877073905322777
1040
1.0
1040
8.8774523801353098
1040
6.8768803269987329
1040
1.0
1040
8.8778467395935348
1040
6.8766868890173702
1040
1.0
1040
8.8782798789013064
1040
6.876558751292408
1040
1.0
1040
8.8787160227920783
1040
6.876506634678111
1040
1.0
1040
8.8791528104679163
1040
6.8764544411352562
1040
1.0
1040
8.8796046635413362
1040
6.8764770670885804
1040
1.0
1040
8.8800340577490768
1040
6.876572608985283
1040
1.0
1040
8.8804647135614303
1040
6.876668431594064
1040
1.0
1040
8.8808847134020912
1040
6.8768402537172069
1040
1.0
1040
8.8812591372998764
1040
6.8770736056955784
1040
1.0
1040
8.8816346670787798
1040
6.8773076468915901
1040
1.0
1040
8.8819747890377396
1040
6.8776100691487647
1040
1.0
1040
8.882251322700343
1040
6.8779555065956721
1040
1.0
1040
8.8825282009531108
1040
6.8783013744941224
1040
1.0
1040
8.8827490267568212
1040
6.878699940726249
1040
1.0
1040
8.8828956232825185
1040
6.8791180263977392
1040
1.0
1040
8.8830422138235683
1040
6.8795360950013773
1040
1.0
1040
8.8831186457706615
1040
6.8799852285700691
1040
1.0
1040
8.8831186457706686
1040
6.8804282524339611
1040
1.0
1070
     1
1040
8.8831186457706686
1040
6.8804282524339611
1040
8.9776068347488565
1040
6.8804282524327034
1070
     4
1070
     3
1070
     1
1070
     0
1071
        8
1071
        4
1040
0.0
1040
0.0
1040
0.0
1040
0.0
1040
0.0005491210440577
1040
0.0005491210440577
1040
0.0005491210440577
1040
0.0005491210440577
1040
8.9776068347488565
1040
6.8804282524327034
1040
1.0
1040
8.9805306363611521
1040
6.8738417260380347
1040
1.0
1040
8.9834528453553784
1040
6.8672544914636049
1040
1.0
1040
8.9863711789475555
1040
6.8606655404954289
1040
1.0
1070
     1
1040
8.9863711789458645
1040
6.86066554049403
1040
8.9953233701801167
1040
6.86066554049403
1070
     1
1040
8.9953233701801167
1040
6.86066554049403
1040
8.9953233701801167
1040
6.8767309305428617
1070
     1
1040
8.9953233701801167
1040
6.8767309305428617
1040
9.0780005355344464
1040
6.8767309305428617
1070
     1
1040
9.0780005355344464
1040
6.8767309305428617
1040
9.0780005355344464
1040
6.858686399819482
1070
     1
1040
9.0780005355344464
1040
6.858686399819482
1040
8.9736698268730297
1040
6.858686399819482
1070
     1
1040
8.9736698268730297
1040
6.858686399819482
1040
8.9736698268730297
1040
6.866599182001897
1070
     4
1070
     3
1070
     1
1070
     0
1071
       20
1071
       16
1040
0.0
1040
0.0
1040
0.0
1040
0.0
1040
0.0000675819377872
1040
0.0000675819377872
1040
0.0000675819377872
1040
0.0001692967225786
1040
0.0001692967225786
1040
0.0001692967225786
1040
0.0002707026139204
1040
0.0002707026139204
1040
0.0002707026139204
1040
0.000371982035975
1040
0.000371982035975
1040
0.000371982035975
1040
0.0004732693746615
1040
0.0004732693746615
1040
0.0004732693746615
1040
0.0004732693746615
1040
8.9736698268730297
1040
6.866599182001897
1040
1.0
1040
8.9736698268730226
1040
6.8674860840725618
1040
1.0
1040
8.9735695571708352
1040
6.868378479572911
1040
1.0
1040
8.9733725898111238
1040
6.8692432333773619
1040
1.0
1040
8.9730784713943041
1040
6.8705345134161977
1040
1.0
1040
8.9725585978037472
1040
6.8717930362682553
1040
1.0
1040
8.9718550328427913
1040
6.872915046128953
1040
1.0
1040
8.9711535920151455
1040
6.8740336685290524
1040
1.0
1040
8.9702503316995017
1040
6.8750471761827781
1040
1.0
1040
8.9692190385358952
1040
6.8758716576679957
1040
1.0
1040
8.9681890548901215
1040
6.8766950922412269
1040
1.0
1040
8.9670030751810668
1040
6.877352520848528
1040
1.0
1040
8.9657587929622053
1040
6.8777891815483576
1040
1.0
1040
8.964514456778895
1040
6.8782258611861096
1040
1.0
1040
8.9631775381155734
1040
6.8784537378214656
1040
1.0
1040
8.9618588032509834
1040
6.8784537378214656
1040
1.0
1070
     1
1040
8.9618588032509834
1040
6.8784537378214656
1040
8.9185517166368093
1040
6.8784537378214656
1070
     4
1070
     3
1070
     1
1070
     0
1071
       20
1071
       16
1040
0.0
1040
0.0
1040
0.0
1040
0.0
1040
0.0000435239455833
1040
0.0000435239455833
1040
0.0000435239455833
1040
0.0001113086001339
1040
0.0001113086001339
1040
0.0001113086001339
1040
0.0001793235456797
1040
0.0001793235456797
1040
0.0001793235456797
1040
0.0002474753055266
1040
0.0002474753055266
1040
0.0002474753055266
1040
0.0003156181697975
1040
0.0003156181697975
1040
0.0003156181697975
1040
0.0003156181697975
1040
8.9185517166368093
1040
6.8784537378214656
1040
1.0
1040
8.917980536248578
1040
6.8784537378214656
1040
1.0
1040
8.9174059862268962
1040
6.878390644441148
1040
1.0
1040
8.9168484120931062
1040
6.8782667165539131
1040
1.0
1040
8.9159873003519134
1040
6.8780753236030812
1040
1.0
1040
8.9151474481534372
1040
6.8777320251629774
1040
1.0
1040
8.9143986725639301
1040
6.8772656778578467
1040
1.0
1040
8.9136473865220598
1040
6.8767977670098617
1040
1.0
1040
8.9129669092450605
1040
6.876192997666176
1040
1.0
1040
8.9124136642413756
1040
6.8755021349850276
1040
1.0
1040
8.9118593024412256
1040
6.8748098777083637
1040
1.0
1040
8.9114172658271027
1040
6.8740119893529421
1040
1.0
1040
8.9111238991061477
1040
6.8731750466370771
1040
1.0
1040
8.9108305543030983
1040
6.872338166450648
1040
1.0
1040
8.9106777008887779
1040
6.8714391251842279
1040
1.0
1040
8.9106777008887779
1040
6.8705523221507718
1040
1.0
1070
     1
1040
8.9106777008887779
1040
6.8705523221507718
1040
8.9106777008887779
1040
6.8157073084955506
1070
     1
1040
8.9106777008887779
1040
6.8157073084955506
1040
8.9461107717549186
1040
6.8157073084955506
1070
     1
1040
8.9461107717549186
1040
6.8157073084955506
1040
8.9461107717549186
1040
6.7842112455034984
1070
     1
1040
8.9461107717549186
1040
6.7842112455034984
1040
8.9106777008887779
1040
6.7842112455034984
1070
     1
1040
8.9106777008887779
1040
6.7842112455034984
1040
8.9106777008887779
1040
6.7293662318484158
1070
     4
1070
     3
1070
     1
1070
     0
1071
       20
1071
       16
1040
0.0
1040
0.0
1040
0.0
1040
0.0
1040
0.0000450027765023
1040
0.0000450027765023
1040
0.0000450027765023
1040
0.0001128182219723
1040
0.0001128182219723
1040
0.0001128182219723
1040
0.0001804283184412
1040
0.0001804283184412
1040
0.0001804283184412
1040
0.0002479508000698
1040
0.0002479508000698
1040
0.0002479508000698
1040
0.0003154787768175
1040
0.0003154787768175
1040
0.0003154787768175
1040
0.0003154787768175
1040
8.9106777008887779
1040
6.7293662318484158
1040
1.0
1040
8.9106777008887779
1040
6.7287756442302706
1040
1.0
1040
8.910744455152356
1040
6.7281814033741343
1040
1.0
1040
8.9108755588073354
1040
6.7276055513389608
1040
1.0
1040
8.9110715655917705
1040
6.7267446225895684
1040
1.0
1040
8.9114181679398659
1040
6.7259055354108259
1040
1.0
1040
8.9118872440185868
1040
6.725157481533576
1040
1.0
1040
8.9123549104722972
1040
6.7244116756401029
1040
1.0
1040
8.912957143920833
1040
6.7237359599000142
1040
1.0
1040
8.9136447326827781
1040
6.7231862690441
1040
1.0
1040
8.9143314159813247
1040
6.722637302058355
1040
1.0
1040
8.9151220911794518
1040
6.7221990013569357
1040
1.0
1040
8.9159516374548016
1040
6.7219078799371914
1040
1.0
1040
8.9167812212296571
1040
6.7216167453573012
1040
1.0
1040
8.9176725303180522
1040
6.7214648161775816
1040
1.0
1040
8.9185517166368093
1040
6.7214648161775816
1040
1.0
1070
     1
1040
8.9185517166368093
1040
6.7214648161775816
1040
8.9618588032509834
1040
6.7214648161775816
1070
     4
1070
     3
1070
     1
1070
     0
1071
       20
1071
       16
1040
0.0
1040
0.0
1040
0.0
1040
0.0
1040
0.0000652454713363
1040
0.0000652454713363
1040
0.0000652454713363
1040
0.0001669140089878
1040
0.0001669140089878
1040
0.0001669140089878
1040
0.0002689483492459
1040
0.0002689483492459
1040
0.0002689483492459
1040
0.0003712266636229
1040
0.0003712266636229
1040
0.0003712266636229
1040
0.0004734888459562
1040
0.0004734888459562
1040
0.0004734888459562
1040
0.0004734888459562
1040
8.9618588032509834
1040
6.7214648161775816
1040
1.0
1040
8.9627150430322988
1040
6.7214648161775816
1040
1.0
1040
8.9635763281167993
1040
6.7215593373299916
1040
1.0
1040
8.9644121961271797
1040
6.7217450016300244
1040
1.0
1040
8.9657037872167873
1040
6.7220318918479229
1040
1.0
1040
8.9669635261489589
1040
6.7225466089536763
1040
1.0
1040
8.9680866909492458
1040
6.7232459045788273
1040
1.0
1040
8.9692138395124061
1040
6.723947680541662
1040
1.0
1040
8.9702347716141393
1040
6.724854828118386
1040
1.0
1040
8.9710648077304729
1040
6.7258911646616157
1040
1.0
1040
8.9718968283705163
1040
6.7269299789698911
1040
1.0
1040
8.9725601956707788
1040
6.728127415990472
1040
1.0
1040
8.9730003922038524
1040
6.729383449638445
1040
1.0
1040
8.9734405485049198
1040
6.7306393684905448
1040
1.0
1040
8.973669826873035
1040
6.7319885565584787
1040
1.0
1040
8.9736698268730297
1040
6.7333193719972906
1040
1.0
1070
     1
1040
8.9736698268730297
1040
6.7333193719972906
1040
8.9736698268730297
1040
6.741232154179567
1070
     1
1040
8.9736698268730297
1040
6.741232154179567
1040
9.0780005355344464
1040
6.741232154179567
1070
     1
1040
9.0780005355344464
1040
6.741232154179567
1040
9.0780005355344464
1040
6.7231876234561856
1070
     1
1040
9.0780005355344464
1040
6.7231876234561856
1040
8.9953233701801167
1040
6.7231876234561856
1070
     1
1040
8.9953233701801167
1040
6.7231876234561856
1040
8.9953233701801167
1040
6.7392530135050182
1070
     1
1040
8.9953233701801167
1040
6.7392530135050182
1040
8.9863711789475555
1040
6.7392530135036202
1070
     4
1070
     3
1070
     1
1070
     0
1071
        8
1071
        4
1040
0.0
1040
0.0
1040
0.0
1040
0.0
1040
0.0005491210440577
1040
0.0005491210440577
1040
0.0005491210440577
1040
0.0005491210440577
1040
8.9863711789475555
1040
6.7392530135036202
1040
1.0
1040
8.9834528453553784
1040
6.7326640625354441
1040
1.0
1040
8.9805306363611521
1040
6.7260768279610144
1040
1.0
1040
8.9776068347488565
1040
6.7194903015663456
1040
1.0
1070
     1
1040
8.9776068347470446
1040
6.7194903015650871
1040
8.8831186457706686
1040
6.7194903015650871
1070
     4
1070
     3
1070
     1
1070
     0
1071
       35
1071
       31
1040
0.0
1040
0.0
1040
0.0
1040
0.0
1040
0.0000105980653372
1040
0.0000105980653372
1040
0.0000105980653372
1040
0.0000447179084271
1040
0.0000447179084271
1040
0.0000447179084271
1040
0.0000787303683287
1040
0.0000787303683287
1040
0.0000787303683287
1040
0.0001126558801675
1040
0.0001126558801675
1040
0.0001126558801675
1040
0.0001465578002366
1040
0.0001465578002366
1040
0.0001465578002366
1040
0.0001805117426823
1040
0.0001805117426823
1040
0.0001805117426823
1040
0.0002145674037987
1040
0.0002145674037987
1040
0.0002145674037987
1040
0.0002487246250454
1040
0.0002487246250454
1040
0.0002487246250454
1040
0.0002829236487575
1040
0.0002829236487575
1040
0.0002829236487575
1040
0.0003171201185292
1040
0.0003171201185292
1040
0.0003171201185292
1040
0.0003171201185292
1040
8.8831186457706686
1040
6.7194903015650871
1040
1.0
1040
8.883118645770665
1040
6.7196293837873622
1040
1.0
1040
8.883111299247572
1040
6.7197686585643401
1040
1.0
1040
8.8830966671745575
1040
6.7199069689651632
1040
1.0
1040
8.8830501608321732
1040
6.7203465724890687
1040
1.0
1040
8.8829273447445036
1040
6.7207842150258017
1040
1.0
1040
8.8827382525908281
1040
6.721183787616809
1040
1.0
1040
8.8825497466588654
1040
6.7215821214567031
1040
1.0
1040
8.8822902014755147
1040
6.7219535384611522
1040
1.0
1040
8.8819808099600692
1040
6.722267355644485
1040
1.0
1040
8.8816722053640991
1040
6.7225803746519439
1040
1.0
1040
8.8813055412308124
1040
6.7228446486762712
1040
1.0
1040
8.8809108956579941
1040
6.7230382270003153
1040
1.0
1040
8.8805165361997691
1040
6.7232316649816779
1040
1.0
1040
8.8800833968919974
1040
6.723359802706641
1040
1.0
1040
8.8796472530012256
1040
6.7234119193209381
1040
1.0
1040
8.8792104653253894
1040
6.7234641128637929
1040
1.0
1040
8.8787586122519677
1040
6.7234414869104686
1040
1.0
1040
8.878329218044227
1040
6.7233459450137651
1040
1.0
1040
8.8778985622318753
1040
6.7232501224049841
1040
1.0
1040
8.8774785623912145
1040
6.7230783002818413
1040
1.0
1040
8.8771041384934275
1040
6.7228449483034707
1040
1.0
1040
8.8767286087145507
1040
6.722610907107458
1040
1.0
1040
8.8763884867555554
1040
6.7223084848504229
1040
1.0
1040
8.8761119530929609
1040
6.7219630474035172
1040
1.0
1040
8.8758350748401593
1040
6.7216171795050661
1040
1.0
1040
8.8756142490364951
1040
6.7212186132728
1040
1.0
1040
8.8754676525107854
1040
6.720800527601309
1040
1.0
1040
8.8753210619697356
1040
6.7203824589976717
1040
1.0
1040
8.8752446300226424
1040
6.7199333254289799
1040
1.0
1040
8.8752446300226371
1040
6.7194903015650871
1040
1.0
1070
     1
1040
8.8752446300226371
1040
6.7194903015650871
1040
8.8634336064005872
1040
6.7194903015650871
1070
     1
1040
8.8634336064005872
1040
6.7194903015650871
1040
8.8634336064005872
1040
6.6975970722750731
1070
     1
1040
8.8634336064005872
1040
6.6975970722750731
1040
9.1587091969517704
1040
6.6227939226688086
1070
     1
1040
9.1587091969517704
1040
6.6227939226688086
1040
9.3949296693927131
1040
6.6227939226688086
1070
     1
1040
9.3949296693927131
1040
6.6227939226688086
1040
9.3949296693927131
1040
6.7842112455034984
1070
     1
1040
9.3949296693927131
1040
6.7842112455034984
1040
9.5327249449832667
1040
6.7842112455034984
1070
     1
1040
9.5327249449832667
1040
6.7842112455034984
1040
9.5327249449832667
1040
6.8157073084955506
1070
     1
1040
9.5327249449832667
1040
6.8157073084955506
1040
9.3949296693927131
1040
6.8157073084955506
1070
     1
1040
9.3949296693927131
1040
6.8157073084955506
1040
9.3949296693927131
1040
6.9771246313302404
1070
     1
1040
9.3949296693927131
1040
6.9771246313302404
1040
9.3161895119124001
1040
6.9771246313302404
1070
     1
1040
9.3161895119124001
1040
6.9771246313302404
1040
9.288630456794273
1040
6.9298805368420213
1070
     1
1040
9.288630456794273
1040
6.9298805368420213
1040
9.2886304567942908
1040
6.8767309305428617
1070
     1
1040
9.2886304567942908
1040
6.8767309305428617
1040
9.272882425298226
1040
6.8767309305428617
1070
     1
1040
9.272882425298226
1040
6.8767309305428617
1040
9.272882425298226
1040
6.7231876234561856
1070
     1
1040
9.272882425298226
1040
6.7231876234561856
1040
9.1902052599438964
1040
6.7231876234561856
1070
     1
1040
9.1902052599438964
1040
6.7231876234561856
1040
9.1902052599438964
1040
6.7310616392042002
1070
     1
1040
9.1902052599438964
1040
6.7310616392042002
1040
9.1882367560068872
1040
6.7330301431412733
1070
     1
1040
9.1882367560068872
1040
6.7330301431412733
1040
9.1902052599438964
1040
6.7349986470782062
1070
     1
1040
9.1902052599438964
1040
6.7349986470782062
1040
9.1902052599438964
1040
6.7468096707003662
1070
     1
1040
9.1902052599438964
1040
6.7468096707003662
1040
9.1882367560068872
1040
6.748778174637299
1070
     1
1040
9.1882367560068872
1040
6.748778174637299
1040
9.1902052599438964
1040
6.750746678574373
1070
     1
1040
9.1902052599438964
1040
6.750746678574373
1040
9.1902052599438964
1040
6.7625577021963919
1070
     1
1040
9.1902052599438964
1040
6.7625577021963919
1040
9.1882367560068872
1040
6.7645262061333247
1070
     1
1040
9.1882367560068872
1040
6.7645262061333247
1040
9.1902052599438964
1040
6.7664947100703978
1070
     1
1040
9.1902052599438964
1040
6.7664947100703978
1040
9.1902052599438964
1040
6.7783057336924184
1071
        0
1070
     0
1070
     1
1040
0.0
1040
1.0
1070
     0
1070
     1
1040
0.7853981633974483
1040
0.0
1040
0.0
1040
-0.0883883476483184
1040
0.0883883476483185
1070
     0
1071
        1
1040
0.0
1040
0.0
1040
0.0
1002
}
  0
INSERT
  5
26F
  8
0
  6
CONTINUOUS
 62
     7
  2
SW_NOTE_4
 10
7.687161668697982
 20
7.13370203665988
 30
0.0
  0
POLYLINE
  8
0
  5
1030
  62
7
  66
     1
 10
0.000000
 20
0.000000
 30
0.000000
  70
     8
  0
VERTEX
  8
0
  5
1031
 10
9.39493
 20
5.98930
 30
0.000000
  70
    32
  0
VERTEX
  8
0
  5
1032
 10
7.93716
 20
7.13370
 30
0.000000
  70
    32
  0
VERTEX
  8
0
  5
1033
 10
7.68716
 20
7.13370
 30
0.000000
  70
    32
  0
SEQEND
  8
0
  5
1034
  0
INSERT
  5
277
  8
0
  6
CONTINUOUS
 62
     7
  2
SW_NOTE_5
 10
7.2986891636063307
 20
3.805110692464361
 30
0.0
  0
POLYLINE
  8
0
  5
1035
  62
7
  66
     1
 10
0.000000
 20
0.000000
 30
0.000000
  70
     8
  0
VERTEX
  8
0
  5
1036
 10
7.95388
 20
4.08891
 30
0.000000
  70
    32
  0
VERTEX
  8
0
  5
1037
 10
7.54869
 20
3.80511
 30
0.000000
  70
    32
  0
VERTEX
  8
0
  5
1038
 10
7.29869
 20
3.80511
 30
0.000000
  70
    32
  0
SEQEND
  8
0
  5
1039
  0
INSERT
  5
27E
  8
0
  6
CONTINUOUS
 62
     7
  2
SW_NOTE_6
 10
8.1727523000625428
 20
3.1076259674134441
 30
0.0
  0
POLYLINE
  8
0
  5
103A
  62
7
  66
     1
 10
0.000000
 20
0.000000
 30
0.000000
  70
     8
  0
VERTEX
  8
0
  5
103B
 10
8.93137
 20
3.68043
 30
0.000000
  70
    32
  0
VERTEX
  8
0
  5
103C
 10
8.42275
 20
3.10763
 30
0.000000
  70
    32
  0
VERTEX
  8
0
  5
103D
 10
8.17275
 20
3.10763
 30
0.000000
  70
    32
  0
SEQEND
  8
0
  5
103E
  0
LINE
  5
A95
  8
0
  6
CONTINUOUS
 62
     7
 10
2.5059842211430801
 20
6.3182844228620061
 30
0.0
 11
3.7973227795430371
 21
6.3182844228620061
 31
0.0
  0
LINE
  5
A96
  8
0
  6
CONTINUOUS
 62
     7
 10
3.7973227795430371
 20
6.3182844228620061
 30
0.0
 11
3.7973227795430371
 21
2.8970246446619958
 31
0.0
  0
LINE
  5
A97
  8
0
  6
CONTINUOUS
 62
     7
 10
3.7973227795430371
 20
2.8970246446619958
 30
0.0
 11
2.5059842211430801
 21
2.8970246446619958
 31
0.0
  0
LINE
  5
A98
  8
0
  6
CONTINUOUS
 62
     7
 10
2.5059842211430801
 20
2.8970246446619958
 30
0.0
 11
2.5059842211430801
 21
6.3182844228620061
 31
0.0
  0
CIRCLE
  5
A99
  8
0
  6
CONTINUOUS
 62
     7
 10
3.651653490942862
 20
6.0958434821620813
 30
0.0
 40
0.0255905507
  0
CIRCLE
  5
A9A
  8
0
  6
CONTINUOUS
 62
     7
 10
3.451653494702895
 20
6.0958434821620813
 30
0.0
 40
0.0255905507
  0
CIRCLE
  5
A9B
  8
0
  6
CONTINUOUS
 62
     7
 10
3.2516534984629279
 20
6.0958434821620813
 30
0.0
 40
0.0255905507
  0
CIRCLE
  5
A9C
  8
0
  6
CONTINUOUS
 62
     7
 10
3.0516535022229609
 20
6.0958434821620813
 30
0.0
 40
0.0255905507
  0
CIRCLE
  5
A9D
  8
0
  6
CONTINUOUS
 62
     7
 10
2.8516535059829939
 20
6.0958434821620813
 30
0.0
 40
0.0255905507
  0
CIRCLE
  5
A9E
  8
0
  6
CONTINUOUS
 62
     7
 10
2.6516535097430269
 20
6.0958434821620813
 30
0.0
 40
0.0255905507
  0
CIRCLE
  5
A9F
  8
0
  6
CONTINUOUS
 62
     7
 10
3.651653490942862
 20
3.119465585361922
 30
0.0
 40
0.0255905507
  0
CIRCLE
  5
AA0
  8
0
  6
CONTINUOUS
 62
     7
 10
3.451653494702895
 20
3.119465585361922
 30
0.0
 40
0.0255905507
  0
CIRCLE
  5
AA1
  8
0
  6
CONTINUOUS
 62
     7
 10
3.2516534984629279
 20
3.119465585361922
 30
0.0
 40
0.0255905507
  0
CIRCLE
  5
AA2
  8
0
  6
CONTINUOUS
 62
     7
 10
3.0516535022229609
 20
3.119465585361922
 30
0.0
 40
0.0255905507
  0
CIRCLE
  5
AA3
  8
0
  6
CONTINUOUS
 62
     7
 10
2.8516535059829939
 20
3.119465585361922
 30
0.0
 40
0.0255905507
  0
CIRCLE
  5
AA4
  8
0
  6
CONTINUOUS
 62
     7
 10
2.6516535097430269
 20
3.119465585361922
 30
0.0
 40
0.0255905507
  0
CIRCLE
  5
AAD
  8
0
  6
CONTINUOUS
 62
     7
 10
3.651653490942862
 20
3.3076545582018748
 30
0.0
 40
0.0255905507
  0
CIRCLE
  5
AAE
  8
0
  6
CONTINUOUS
 62
     7
 10
3.651653490942862
 20
3.7076545506820362
 30
0.0
 40
0.0255905507
  0
CIRCLE
  5
AAF
  8
0
  6
CONTINUOUS
 62
     7
 10
3.651653490942862
 20
3.8076545488020201
 30
0.0
 40
0.0255905507
  0
CIRCLE
  5
AB0
  8
0
  6
CONTINUOUS
 62
     7
 10
3.651653490942862
 20
3.9076545469220032
 30
0.0
 40
0.0255905507
  0
CIRCLE
  5
AB1
  8
0
  6
CONTINUOUS
 62
     7
 10
3.651653490942862
 20
4.0076545450419871
 30
0.0
 40
0.0255905507
  0
CIRCLE
  5
AB2
  8
0
  6
CONTINUOUS
 62
     7
 10
3.651653490942862
 20
4.1076545431619698
 30
0.0
 40
0.0255905507
  0
CIRCLE
  5
AB3
  8
0
  6
CONTINUOUS
 62
     7
 10
3.651653490942862
 20
4.2076545412819542
 30
0.0
 40
0.0255905507
  0
CIRCLE
  5
AB4
  8
0
  6
CONTINUOUS
 62
     7
 10
3.651653490942862
 20
4.3076545394019368
 30
0.0
 40
0.0255905507
  0
CIRCLE
  5
AB5
  8
0
  6
CONTINUOUS
 62
     7
 10
3.651653490942862
 20
4.4076545375219212
 30
0.0
 40
0.0255905507
  0
CIRCLE
  5
AB6
  8
0
  6
CONTINUOUS
 62
     7
 10
3.651653490942862
 20
4.5076545356419038
 30
0.0
 40
0.0255905507
  0
CIRCLE
  5
AB7
  8
0
  6
CONTINUOUS
 62
     7
 10
3.651653490942862
 20
4.6076545337618882
 30
0.0
 40
0.0255905507
  0
CIRCLE
  5
AB8
  8
0
  6
CONTINUOUS
 62
     7
 10
3.651653490942862
 20
4.7076545318818708
 30
0.0
 40
0.0255905507
  0
CIRCLE
  5
AB9
  8
0
  6
CONTINUOUS
 62
     7
 10
3.651653490942862
 20
4.8076545300018552
 30
0.0
 40
0.0255905507
  0
CIRCLE
  5
ABA
  8
0
  6
CONTINUOUS
 62
     7
 10
3.651653490942862
 20
4.907654528122066
 30
0.0
 40
0.0255905507
  0
CIRCLE
  5
ABB
  8
0
  6
CONTINUOUS
 62
     7
 10
3.651653490942862
 20
5.0076545262420487
 30
0.0
 40
0.0255905507
  0
CIRCLE
  5
ABC
  8
0
  6
CONTINUOUS
 62
     7
 10
3.651653490942862
 20
5.107654524362033
 30
0.0
 40
0.0255905507
  0
CIRCLE
  5
ABD
  8
0
  6
CONTINUOUS
 62
     7
 10
3.651653490942862
 20
5.2076545224820157
 30
0.0
 40
0.0255905507
  0
CIRCLE
  5
ABE
  8
0
  6
CONTINUOUS
 62
     7
 10
3.651653490942862
 20
5.307654520602
 30
0.0
 40
0.0255905507
  0
CIRCLE
  5
ABF
  8
0
  6
CONTINUOUS
 62
     7
 10
3.651653490942862
 20
5.4076545187219827
 30
0.0
 40
0.0255905507
  0
CIRCLE
  5
AC0
  8
0
  6
CONTINUOUS
 62
     7
 10
3.651653490942862
 20
5.5076545168419671
 30
0.0
 40
0.0255905507
  0
CIRCLE
  5
AC1
  8
0
  6
CONTINUOUS
 62
     7
 10
3.651653490942862
 20
5.9076545093219011
 30
0.0
 40
0.0255905507
  0
CIRCLE
  5
AC2
  8
0
  6
CONTINUOUS
 62
     7
 10
3.451653494702895
 20
3.3076545582018748
 30
0.0
 40
0.0255905507
  0
CIRCLE
  5
AC3
  8
0
  6
CONTINUOUS
 62
     7
 10
3.451653494702895
 20
3.4076545563220861
 30
0.0
 40
0.0255905507
  0
CIRCLE
  5
AC4
  8
0
  6
CONTINUOUS
 62
     7
 10
3.451653494702895
 20
3.5076545544420692
 30
0.0
 40
0.0255905507
  0
CIRCLE
  5
AC5
  8
0
  6
CONTINUOUS
 62
     7
 10
3.451653494702895
 20
3.6076545525620531
 30
0.0
 40
0.0255905507
  0
CIRCLE
  5
AC6
  8
0
  6
CONTINUOUS
 62
     7
 10
3.451653494702895
 20
3.7076545506820362
 30
0.0
 40
0.0255905507
  0
CIRCLE
  5
AC7
  8
0
  6
CONTINUOUS
 62
     7
 10
3.451653494702895
 20
3.8076545488020201
 30
0.0
 40
0.0255905507
  0
CIRCLE
  5
AC8
  8
0
  6
CONTINUOUS
 62
     7
 10
3.451653494702895
 20
3.9076545469220032
 30
0.0
 40
0.0255905507
  0
CIRCLE
  5
AC9
  8
0
  6
CONTINUOUS
 62
     7
 10
3.451653494702895
 20
4.0076545450419871
 30
0.0
 40
0.0255905507
  0
CIRCLE
  5
ACA
  8
0
  6
CONTINUOUS
 62
     7
 10
3.451653494702895
 20
4.1076545431619698
 30
0.0
 40
0.0255905507
  0
CIRCLE
  5
ACB
  8
0
  6
CONTINUOUS
 62
     7
 10
3.451653494702895
 20
4.2076545412819542
 30
0.0
 40
0.0255905507
  0
CIRCLE
  5
ACC
  8
0
  6
CONTINUOUS
 62
     7
 10
3.451653494702895
 20
4.3076545394019368
 30
0.0
 40
0.0255905507
  0
CIRCLE
  5
ACD
  8
0
  6
CONTINUOUS
 62
     7
 10
3.451653494702895
 20
4.4076545375219212
 30
0.0
 40
0.0255905507
  0
CIRCLE
  5
ACE
  8
0
  6
CONTINUOUS
 62
     7
 10
3.451653494702895
 20
4.5076545356419038
 30
0.0
 40
0.0255905507
  0
CIRCLE
  5
ACF
  8
0
  6
CONTINUOUS
 62
     7
 10
3.451653494702895
 20
4.6076545337618882
 30
0.0
 40
0.0255905507
  0
CIRCLE
  5
AD0
  8
0
  6
CONTINUOUS
 62
     7
 10
3.451653494702895
 20
4.7076545318818708
 30
0.0
 40
0.0255905507
  0
CIRCLE
  5
AD1
  8
0
  6
CONTINUOUS
 62
     7
 10
3.451653494702895
 20
4.8076545300018552
 30
0.0
 40
0.0255905507
  0
CIRCLE
  5
AD2
  8
0
  6
CONTINUOUS
 62
     7
 10
3.451653494702895
 20
4.907654528122066
 30
0.0
 40
0.0255905507
  0
CIRCLE
  5
AD3
  8
0
  6
CONTINUOUS
 62
     7
 10
3.451653494702895
 20
5.0076545262420487
 30
0.0
 40
0.0255905507
  0
CIRCLE
  5
AD4
  8
0
  6
CONTINUOUS
 62
     7
 10
3.451653494702895
 20
5.107654524362033
 30
0.0
 40
0.0255905507
  0
CIRCLE
  5
AD5
  8
0
  6
CONTINUOUS
 62
     7
 10
3.451653494702895
 20
5.2076545224820157
 30
0.0
 40
0.0255905507
  0
CIRCLE
  5
AD6
  8
0
  6
CONTINUOUS
 62
     7
 10
3.451653494702895
 20
5.307654520602
 30
0.0
 40
0.0255905507
  0
CIRCLE
  5
AD7
  8
0
  6
CONTINUOUS
 62
     7
 10
3.451653494702895
 20
5.4076545187219827
 30
0.0
 40
0.0255905507
  0
CIRCLE
  5
AD8
  8
0
  6
CONTINUOUS
 62
     7
 10
3.451653494702895
 20
5.5076545168419671
 30
0.0
 40
0.0255905507
  0
CIRCLE
  5
AD9
  8
0
  6
CONTINUOUS
 62
     7
 10
3.451653494702895
 20
5.6076545149619497
 30
0.0
 40
0.0255905507
  0
CIRCLE
  5
ADA
  8
0
  6
CONTINUOUS
 62
     7
 10
3.451653494702895
 20
5.7076545130819341
 30
0.0
 40
0.0255905507
  0
CIRCLE
  5
ADB
  8
0
  6
CONTINUOUS
 62
     7
 10
3.451653494702895
 20
5.8076545112019167
 30
0.0
 40
0.0255905507
  0
CIRCLE
  5
ADC
  8
0
  6
CONTINUOUS
 62
     7
 10
3.451653494702895
 20
5.9076545093219011
 30
0.0
 40
0.0255905507
  0
CIRCLE
  5
ADD
  8
0
  6
CONTINUOUS
 62
     7
 10
3.2516534984629279
 20
3.3076545582018748
 30
0.0
 40
0.0255905507
  0
CIRCLE
  5
ADE
  8
0
  6
CONTINUOUS
 62
     7
 10
3.2516534984629279
 20
3.4076545563220861
 30
0.0
 40
0.0255905507
  0
CIRCLE
  5
ADF
  8
0
  6
CONTINUOUS
 62
     7
 10
3.2516534984629279
 20
3.5076545544420692
 30
0.0
 40
0.0255905507
  0
CIRCLE
  5
AE0
  8
0
  6
CONTINUOUS
 62
     7
 10
3.2516534984629279
 20
3.6076545525620531
 30
0.0
 40
0.0255905507
  0
CIRCLE
  5
AE1
  8
0
  6
CONTINUOUS
 62
     7
 10
3.2516534984629279
 20
3.7076545506820362
 30
0.0
 40
0.0255905507
  0
CIRCLE
  5
AE2
  8
0
  6
CONTINUOUS
 62
     7
 10
3.2516534984629279
 20
3.8076545488020201
 30
0.0
 40
0.0255905507
  0
CIRCLE
  5
AE3
  8
0
  6
CONTINUOUS
 62
     7
 10
3.2516534984629279
 20
3.9076545469220032
 30
0.0
 40
0.0255905507
  0
CIRCLE
  5
AE4
  8
0
  6
CONTINUOUS
 62
     7
 10
3.2516534984629279
 20
4.0076545450419871
 30
0.0
 40
0.0255905507
  0
CIRCLE
  5
AE5
  8
0
  6
CONTINUOUS
 62
     7
 10
3.2516534984629279
 20
4.1076545431619698
 30
0.0
 40
0.0255905507
  0
CIRCLE
  5
AE6
  8
0
  6
CONTINUOUS
 62
     7
 10
3.2516534984629279
 20
4.2076545412819542
 30
0.0
 40
0.0255905507
  0
CIRCLE
  5
AE7
  8
0
  6
CONTINUOUS
 62
     7
 10
3.2516534984629279
 20
4.3076545394019368
 30
0.0
 40
0.0255905507
  0
CIRCLE
  5
AE8
  8
0
  6
CONTINUOUS
 62
     7
 10
3.2516534984629279
 20
4.4076545375219212
 30
0.0
 40
0.0255905507
  0
CIRCLE
  5
AE9
  8
0
  6
CONTINUOUS
 62
     7
 10
3.2516534984629279
 20
4.5076545356419038
 30
0.0
 40
0.0255905507
  0
CIRCLE
  5
AEA
  8
0
  6
CONTINUOUS
 62
     7
 10
3.2516534984629279
 20
4.6076545337618882
 30
0.0
 40
0.0255905507
  0
CIRCLE
  5
AEB
  8
0
  6
CONTINUOUS
 62
     7
 10
3.2516534984629279
 20
4.7076545318818708
 30
0.0
 40
0.0255905507
  0
CIRCLE
  5
AEC
  8
0
  6
CONTINUOUS
 62
     7
 10
3.2516534984629279
 20
4.8076545300018552
 30
0.0
 40
0.0255905507
  0
CIRCLE
  5
AED
  8
0
  6
CONTINUOUS
 62
     7
 10
3.2516534984629279
 20
4.907654528122066
 30
0.0
 40
0.0255905507
  0
CIRCLE
  5
AEE
  8
0
  6
CONTINUOUS
 62
     7
 10
3.2516534984629279
 20
5.0076545262420487
 30
0.0
 40
0.0255905507
  0
CIRCLE
  5
AEF
  8
0
  6
CONTINUOUS
 62
     7
 10
3.2516534984629279
 20
5.107654524362033
 30
0.0
 40
0.0255905507
  0
CIRCLE
  5
AF0
  8
0
  6
CONTINUOUS
 62
     7
 10
3.2516534984629279
 20
5.2076545224820157
 30
0.0
 40
0.0255905507
  0
CIRCLE
  5
AF1
  8
0
  6
CONTINUOUS
 62
     7
 10
3.2516534984629279
 20
5.307654520602
 30
0.0
 40
0.0255905507
  0
CIRCLE
  5
AF2
  8
0
  6
CONTINUOUS
 62
     7
 10
3.2516534984629279
 20
5.4076545187219827
 30
0.0
 40
0.0255905507
  0
CIRCLE
  5
AF3
  8
0
  6
CONTINUOUS
 62
     7
 10
3.2516534984629279
 20
5.5076545168419671
 30
0.0
 40
0.0255905507
  0
CIRCLE
  5
AF4
  8
0
  6
CONTINUOUS
 62
     7
 10
3.2516534984629279
 20
5.6076545149619497
 30
0.0
 40
0.0255905507
  0
CIRCLE
  5
AF5
  8
0
  6
CONTINUOUS
 62
     7
 10
3.2516534984629279
 20
5.7076545130819341
 30
0.0
 40
0.0255905507
  0
CIRCLE
  5
AF6
  8
0
  6
CONTINUOUS
 62
     7
 10
3.2516534984629279
 20
5.8076545112019167
 30
0.0
 40
0.0255905507
  0
CIRCLE
  5
AF7
  8
0
  6
CONTINUOUS
 62
     7
 10
3.2516534984629279
 20
5.9076545093219011
 30
0.0
 40
0.0255905507
  0
CIRCLE
  5
AF8
  8
0
  6
CONTINUOUS
 62
     7
 10
3.0516535022229609
 20
3.3076545582018748
 30
0.0
 40
0.0255905507
  0
CIRCLE
  5
AF9
  8
0
  6
CONTINUOUS
 62
     7
 10
3.0516535022229609
 20
3.4076545563220861
 30
0.0
 40
0.0255905507
  0
CIRCLE
  5
AFA
  8
0
  6
CONTINUOUS
 62
     7
 10
3.0516535022229609
 20
3.5076545544420692
 30
0.0
 40
0.0255905507
  0
CIRCLE
  5
AFB
  8
0
  6
CONTINUOUS
 62
     7
 10
3.0516535022229609
 20
3.6076545525620531
 30
0.0
 40
0.0255905507
  0
CIRCLE
  5
AFC
  8
0
  6
CONTINUOUS
 62
     7
 10
3.0516535022229609
 20
3.7076545506820362
 30
0.0
 40
0.0255905507
  0
CIRCLE
  5
AFD
  8
0
  6
CONTINUOUS
 62
     7
 10
3.0516535022229609
 20
3.8076545488020201
 30
0.0
 40
0.0255905507
  0
CIRCLE
  5
AFE
  8
0
  6
CONTINUOUS
 62
     7
 10
3.0516535022229609
 20
3.9076545469220032
 30
0.0
 40
0.0255905507
  0
CIRCLE
  5
AFF
  8
0
  6
CONTINUOUS
 62
     7
 10
3.0516535022229609
 20
4.0076545450419871
 30
0.0
 40
0.0255905507
  0
CIRCLE
  5
B00
  8
0
  6
CONTINUOUS
 62
     7
 10
3.0516535022229609
 20
4.1076545431619698
 30
0.0
 40
0.0255905507
  0
CIRCLE
  5
B01
  8
0
  6
CONTINUOUS
 62
     7
 10
3.0516535022229609
 20
4.2076545412819542
 30
0.0
 40
0.0255905507
  0
CIRCLE
  5
B02
  8
0
  6
CONTINUOUS
 62
     7
 10
3.0516535022229609
 20
4.3076545394019368
 30
0.0
 40
0.0255905507
  0
CIRCLE
  5
B03
  8
0
  6
CONTINUOUS
 62
     7
 10
3.0516535022229609
 20
4.4076545375219212
 30
0.0
 40
0.0255905507
  0
CIRCLE
  5
B04
  8
0
  6
CONTINUOUS
 62
     7
 10
3.0516535022229609
 20
4.5076545356419038
 30
0.0
 40
0.0255905507
  0
CIRCLE
  5
B05
  8
0
  6
CONTINUOUS
 62
     7
 10
3.0516535022229609
 20
4.6076545337618882
 30
0.0
 40
0.0255905507
  0
CIRCLE
  5
B06
  8
0
  6
CONTINUOUS
 62
     7
 10
3.0516535022229609
 20
4.7076545318818708
 30
0.0
 40
0.0255905507
  0
CIRCLE
  5
B07
  8
0
  6
CONTINUOUS
 62
     7
 10
3.0516535022229609
 20
4.8076545300018552
 30
0.0
 40
0.0255905507
  0
CIRCLE
  5
B08
  8
0
  6
CONTINUOUS
 62
     7
 10
3.0516535022229609
 20
4.907654528122066
 30
0.0
 40
0.0255905507
  0
CIRCLE
  5
B09
  8
0
  6
CONTINUOUS
 62
     7
 10
3.0516535022229609
 20
5.0076545262420487
 30
0.0
 40
0.0255905507
  0
CIRCLE
  5
B0A
  8
0
  6
CONTINUOUS
 62
     7
 10
3.0516535022229609
 20
5.107654524362033
 30
0.0
 40
0.0255905507
  0
CIRCLE
  5
B0B
  8
0
  6
CONTINUOUS
 62
     7
 10
3.0516535022229609
 20
5.2076545224820157
 30
0.0
 40
0.0255905507
  0
CIRCLE
  5
B0C
  8
0
  6
CONTINUOUS
 62
     7
 10
3.0516535022229609
 20
5.307654520602
 30
0.0
 40
0.0255905507
  0
CIRCLE
  5
B0D
  8
0
  6
CONTINUOUS
 62
     7
 10
3.0516535022229609
 20
5.4076545187219827
 30
0.0
 40
0.0255905507
  0
CIRCLE
  5
B0E
  8
0
  6
CONTINUOUS
 62
     7
 10
3.0516535022229609
 20
5.5076545168419671
 30
0.0
 40
0.0255905507
  0
CIRCLE
  5
B0F
  8
0
  6
CONTINUOUS
 62
     7
 10
3.0516535022229609
 20
5.6076545149619497
 30
0.0
 40
0.0255905507
  0
CIRCLE
  5
B10
  8
0
  6
CONTINUOUS
 62
     7
 10
3.0516535022229609
 20
5.7076545130819341
 30
0.0
 40
0.0255905507
  0
CIRCLE
  5
B11
  8
0
  6
CONTINUOUS
 62
     7
 10
3.0516535022229609
 20
5.8076545112019167
 30
0.0
 40
0.0255905507
  0
CIRCLE
  5
B12
  8
0
  6
CONTINUOUS
 62
     7
 10
3.0516535022229609
 20
5.9076545093219011
 30
0.0
 40
0.0255905507
  0
CIRCLE
  5
B13
  8
0
  6
CONTINUOUS
 62
     7
 10
2.8516535059829939
 20
3.3076545582018748
 30
0.0
 40
0.0255905507
  0
CIRCLE
  5
B14
  8
0
  6
CONTINUOUS
 62
     7
 10
2.8516535059829939
 20
3.4076545563220861
 30
0.0
 40
0.0255905507
  0
CIRCLE
  5
B15
  8
0
  6
CONTINUOUS
 62
     7
 10
2.8516535059829939
 20
3.5076545544420692
 30
0.0
 40
0.0255905507
  0
CIRCLE
  5
B16
  8
0
  6
CONTINUOUS
 62
     7
 10
2.8516535059829939
 20
3.6076545525620531
 30
0.0
 40
0.0255905507
  0
CIRCLE
  5
B17
  8
0
  6
CONTINUOUS
 62
     7
 10
2.8516535059829939
 20
3.7076545506820362
 30
0.0
 40
0.0255905507
  0
CIRCLE
  5
B18
  8
0
  6
CONTINUOUS
 62
     7
 10
2.8516535059829939
 20
3.8076545488020201
 30
0.0
 40
0.0255905507
  0
CIRCLE
  5
B19
  8
0
  6
CONTINUOUS
 62
     7
 10
2.8516535059829939
 20
3.9076545469220032
 30
0.0
 40
0.0255905507
  0
CIRCLE
  5
B1A
  8
0
  6
CONTINUOUS
 62
     7
 10
2.8516535059829939
 20
4.0076545450419871
 30
0.0
 40
0.0255905507
  0
CIRCLE
  5
B1B
  8
0
  6
CONTINUOUS
 62
     7
 10
2.8516535059829939
 20
4.1076545431619698
 30
0.0
 40
0.0255905507
  0
CIRCLE
  5
B1C
  8
0
  6
CONTINUOUS
 62
     7
 10
2.8516535059829939
 20
4.2076545412819542
 30
0.0
 40
0.0255905507
  0
CIRCLE
  5
B1D
  8
0
  6
CONTINUOUS
 62
     7
 10
2.8516535059829939
 20
4.3076545394019368
 30
0.0
 40
0.0255905507
  0
CIRCLE
  5
B1E
  8
0
  6
CONTINUOUS
 62
     7
 10
2.8516535059829939
 20
4.4076545375219212
 30
0.0
 40
0.0255905507
  0
CIRCLE
  5
B1F
  8
0
  6
CONTINUOUS
 62
     7
 10
2.8516535059829939
 20
4.5076545356419038
 30
0.0
 40
0.0255905507
  0
CIRCLE
  5
B20
  8
0
  6
CONTINUOUS
 62
     7
 10
2.8516535059829939
 20
4.6076545337618882
 30
0.0
 40
0.0255905507
  0
CIRCLE
  5
B21
  8
0
  6
CONTINUOUS
 62
     7
 10
2.8516535059829939
 20
4.7076545318818708
 30
0.0
 40
0.0255905507
  0
CIRCLE
  5
B22
  8
0
  6
CONTINUOUS
 62
     7
 10
2.8516535059829939
 20
4.8076545300018552
 30
0.0
 40
0.0255905507
  0
CIRCLE
  5
B23
  8
0
  6
CONTINUOUS
 62
     7
 10
2.8516535059829939
 20
4.907654528122066
 30
0.0
 40
0.0255905507
  0
CIRCLE
  5
B24
  8
0
  6
CONTINUOUS
 62
     7
 10
2.8516535059829939
 20
5.0076545262420487
 30
0.0
 40
0.0255905507
  0
CIRCLE
  5
B25
  8
0
  6
CONTINUOUS
 62
     7
 10
2.8516535059829939
 20
5.107654524362033
 30
0.0
 40
0.0255905507
  0
CIRCLE
  5
B26
  8
0
  6
CONTINUOUS
 62
     7
 10
2.8516535059829939
 20
5.2076545224820157
 30
0.0
 40
0.0255905507
  0
CIRCLE
  5
B27
  8
0
  6
CONTINUOUS
 62
     7
 10
2.8516535059829939
 20
5.307654520602
 30
0.0
 40
0.0255905507
  0
CIRCLE
  5
B28
  8
0
  6
CONTINUOUS
 62
     7
 10
2.8516535059829939
 20
5.4076545187219827
 30
0.0
 40
0.0255905507
  0
CIRCLE
  5
B29
  8
0
  6
CONTINUOUS
 62
     7
 10
2.8516535059829939
 20
5.5076545168419671
 30
0.0
 40
0.0255905507
  0
CIRCLE
  5
B2A
  8
0
  6
CONTINUOUS
 62
     7
 10
2.8516535059829939
 20
5.6076545149619497
 30
0.0
 40
0.0255905507
  0
CIRCLE
  5
B2B
  8
0
  6
CONTINUOUS
 62
     7
 10
2.8516535059829939
 20
5.7076545130819341
 30
0.0
 40
0.0255905507
  0
CIRCLE
  5
B2C
  8
0
  6
CONTINUOUS
 62
     7
 10
2.8516535059829939
 20
5.8076545112019167
 30
0.0
 40
0.0255905507
  0
CIRCLE
  5
B2D
  8
0
  6
CONTINUOUS
 62
     7
 10
2.8516535059829939
 20
5.9076545093219011
 30
0.0
 40
0.0255905507
  0
CIRCLE
  5
B2E
  8
0
  6
CONTINUOUS
 62
     7
 10
2.6516535097430269
 20
3.3076545582018748
 30
0.0
 40
0.0255905507
  0
CIRCLE
  5
B2F
  8
0
  6
CONTINUOUS
 62
     7
 10
2.6516535097430269
 20
3.7076545506820362
 30
0.0
 40
0.0255905507
  0
CIRCLE
  5
B30
  8
0
  6
CONTINUOUS
 62
     7
 10
2.6516535097430269
 20
3.8076545488020201
 30
0.0
 40
0.0255905507
  0
CIRCLE
  5
B31
  8
0
  6
CONTINUOUS
 62
     7
 10
2.6516535097430269
 20
3.9076545469220032
 30
0.0
 40
0.0255905507
  0
CIRCLE
  5
B32
  8
0
  6
CONTINUOUS
 62
     7
 10
2.6516535097430269
 20
4.0076545450419871
 30
0.0
 40
0.0255905507
  0
CIRCLE
  5
B33
  8
0
  6
CONTINUOUS
 62
     7
 10
2.6516535097430269
 20
4.1076545431619698
 30
0.0
 40
0.0255905507
  0
CIRCLE
  5
B34
  8
0
  6
CONTINUOUS
 62
     7
 10
2.6516535097430269
 20
4.2076545412819542
 30
0.0
 40
0.0255905507
  0
CIRCLE
  5
B35
  8
0
  6
CONTINUOUS
 62
     7
 10
2.6516535097430269
 20
4.3076545394019368
 30
0.0
 40
0.0255905507
  0
CIRCLE
  5
B36
  8
0
  6
CONTINUOUS
 62
     7
 10
2.6516535097430269
 20
4.4076545375219212
 30
0.0
 40
0.0255905507
  0
CIRCLE
  5
B37
  8
0
  6
CONTINUOUS
 62
     7
 10
2.6516535097430269
 20
4.5076545356419038
 30
0.0
 40
0.0255905507
  0
CIRCLE
  5
B38
  8
0
  6
CONTINUOUS
 62
     7
 10
2.6516535097430269
 20
4.6076545337618882
 30
0.0
 40
0.0255905507
  0
CIRCLE
  5
B39
  8
0
  6
CONTINUOUS
 62
     7
 10
2.6516535097430269
 20
4.7076545318818708
 30
0.0
 40
0.0255905507
  0
CIRCLE
  5
B3A
  8
0
  6
CONTINUOUS
 62
     7
 10
2.6516535097430269
 20
4.8076545300018552
 30
0.0
 40
0.0255905507
  0
CIRCLE
  5
B3B
  8
0
  6
CONTINUOUS
 62
     7
 10
2.6516535097430269
 20
4.907654528122066
 30
0.0
 40
0.0255905507
  0
CIRCLE
  5
B3C
  8
0
  6
CONTINUOUS
 62
     7
 10
2.6516535097430269
 20
5.0076545262420487
 30
0.0
 40
0.0255905507
  0
CIRCLE
  5
B3D
  8
0
  6
CONTINUOUS
 62
     7
 10
2.6516535097430269
 20
5.107654524362033
 30
0.0
 40
0.0255905507
  0
CIRCLE
  5
B3E
  8
0
  6
CONTINUOUS
 62
     7
 10
2.6516535097430269
 20
5.2076545224820157
 30
0.0
 40
0.0255905507
  0
CIRCLE
  5
B3F
  8
0
  6
CONTINUOUS
 62
     7
 10
2.6516535097430269
 20
5.307654520602
 30
0.0
 40
0.0255905507
  0
CIRCLE
  5
B40
  8
0
  6
CONTINUOUS
 62
     7
 10
2.6516535097430269
 20
5.4076545187219827
 30
0.0
 40
0.0255905507
  0
CIRCLE
  5
B41
  8
0
  6
CONTINUOUS
 62
     7
 10
2.6516535097430269
 20
5.5076545168419671
 30
0.0
 40
0.0255905507
  0
CIRCLE
  5
B42
  8
0
  6
CONTINUOUS
 62
     7
 10
2.6516535097430269
 20
5.9076545093219011
 30
0.0
 40
0.0255905507
  0
CIRCLE
  5
B43
  8
0
  6
CONTINUOUS
 62
     7
 10
3.5516534928228789
 20
3.3076545582018748
 30
0.0
 40
0.0255905507
  0
CIRCLE
  5
B44
  8
0
  6
CONTINUOUS
 62
     7
 10
3.5516534928228789
 20
3.7076545506820362
 30
0.0
 40
0.0255905507
  0
CIRCLE
  5
B45
  8
0
  6
CONTINUOUS
 62
     7
 10
3.5516534928228789
 20
3.8076545488020201
 30
0.0
 40
0.0255905507
  0
CIRCLE
  5
B46
  8
0
  6
CONTINUOUS
 62
     7
 10
3.5516534928228789
 20
3.9076545469220032
 30
0.0
 40
0.0255905507
  0
CIRCLE
  5
B47
  8
0
  6
CONTINUOUS
 62
     7
 10
3.5516534928228789
 20
4.0076545450419871
 30
0.0
 40
0.0255905507
  0
CIRCLE
  5
B48
  8
0
  6
CONTINUOUS
 62
     7
 10
3.5516534928228789
 20
4.1076545431619698
 30
0.0
 40
0.0255905507
  0
CIRCLE
  5
B49
  8
0
  6
CONTINUOUS
 62
     7
 10
3.5516534928228789
 20
4.2076545412819542
 30
0.0
 40
0.0255905507
  0
CIRCLE
  5
B4A
  8
0
  6
CONTINUOUS
 62
     7
 10
3.5516534928228789
 20
4.3076545394019368
 30
0.0
 40
0.0255905507
  0
CIRCLE
  5
B4B
  8
0
  6
CONTINUOUS
 62
     7
 10
3.5516534928228789
 20
4.4076545375219212
 30
0.0
 40
0.0255905507
  0
CIRCLE
  5
B4C
  8
0
  6
CONTINUOUS
 62
     7
 10
3.5516534928228789
 20
4.5076545356419038
 30
0.0
 40
0.0255905507
  0
CIRCLE
  5
B4D
  8
0
  6
CONTINUOUS
 62
     7
 10
3.5516534928228789
 20
4.6076545337618882
 30
0.0
 40
0.0255905507
  0
CIRCLE
  5
B4E
  8
0
  6
CONTINUOUS
 62
     7
 10
3.5516534928228789
 20
4.7076545318818708
 30
0.0
 40
0.0255905507
  0
CIRCLE
  5
B4F
  8
0
  6
CONTINUOUS
 62
     7
 10
3.5516534928228789
 20
4.8076545300018552
 30
0.0
 40
0.0255905507
  0
CIRCLE
  5
B50
  8
0
  6
CONTINUOUS
 62
     7
 10
3.5516534928228789
 20
4.907654528122066
 30
0.0
 40
0.0255905507
  0
CIRCLE
  5
B51
  8
0
  6
CONTINUOUS
 62
     7
 10
3.5516534928228789
 20
5.0076545262420487
 30
0.0
 40
0.0255905507
  0
CIRCLE
  5
B52
  8
0
  6
CONTINUOUS
 62
     7
 10
3.5516534928228789
 20
5.107654524362033
 30
0.0
 40
0.0255905507
  0
CIRCLE
  5
B53
  8
0
  6
CONTINUOUS
 62
     7
 10
3.5516534928228789
 20
5.2076545224820157
 30
0.0
 40
0.0255905507
  0
CIRCLE
  5
B54
  8
0
  6
CONTINUOUS
 62
     7
 10
3.5516534928228789
 20
5.307654520602
 30
0.0
 40
0.0255905507
  0
CIRCLE
  5
B55
  8
0
  6
CONTINUOUS
 62
     7
 10
3.5516534928228789
 20
5.4076545187219827
 30
0.0
 40
0.0255905507
  0
CIRCLE
  5
B56
  8
0
  6
CONTINUOUS
 62
     7
 10
3.5516534928228789
 20
5.5076545168419671
 30
0.0
 40
0.0255905507
  0
CIRCLE
  5
B57
  8
0
  6
CONTINUOUS
 62
     7
 10
3.5516534928228789
 20
5.9076545093219011
 30
0.0
 40
0.0255905507
  0
CIRCLE
  5
B58
  8
0
  6
CONTINUOUS
 62
     7
 10
3.3516534965829119
 20
3.3076545582018748
 30
0.0
 40
0.0255905507
  0
CIRCLE
  5
B59
  8
0
  6
CONTINUOUS
 62
     7
 10
3.3516534965829119
 20
3.4076545563220861
 30
0.0
 40
0.0255905507
  0
CIRCLE
  5
B5A
  8
0
  6
CONTINUOUS
 62
     7
 10
3.3516534965829119
 20
3.5076545544420692
 30
0.0
 40
0.0255905507
  0
CIRCLE
  5
B5B
  8
0
  6
CONTINUOUS
 62
     7
 10
3.3516534965829119
 20
3.6076545525620531
 30
0.0
 40
0.0255905507
  0
CIRCLE
  5
B5C
  8
0
  6
CONTINUOUS
 62
     7
 10
3.3516534965829119
 20
3.7076545506820362
 30
0.0
 40
0.0255905507
  0
CIRCLE
  5
B5D
  8
0
  6
CONTINUOUS
 62
     7
 10
3.3516534965829119
 20
3.8076545488020201
 30
0.0
 40
0.0255905507
  0
CIRCLE
  5
B5E
  8
0
  6
CONTINUOUS
 62
     7
 10
3.3516534965829119
 20
3.9076545469220032
 30
0.0
 40
0.0255905507
  0
CIRCLE
  5
B5F
  8
0
  6
CONTINUOUS
 62
     7
 10
3.3516534965829119
 20
4.0076545450419871
 30
0.0
 40
0.0255905507
  0
CIRCLE
  5
B60
  8
0
  6
CONTINUOUS
 62
     7
 10
3.3516534965829119
 20
4.1076545431619698
 30
0.0
 40
0.0255905507
  0
CIRCLE
  5
B61
  8
0
  6
CONTINUOUS
 62
     7
 10
3.3516534965829119
 20
4.2076545412819542
 30
0.0
 40
0.0255905507
  0
CIRCLE
  5
B62
  8
0
  6
CONTINUOUS
 62
     7
 10
3.3516534965829119
 20
4.3076545394019368
 30
0.0
 40
0.0255905507
  0
CIRCLE
  5
B63
  8
0
  6
CONTINUOUS
 62
     7
 10
3.3516534965829119
 20
4.4076545375219212
 30
0.0
 40
0.0255905507
  0
CIRCLE
  5
B64
  8
0
  6
CONTINUOUS
 62
     7
 10
3.3516534965829119
 20
4.5076545356419038
 30
0.0
 40
0.0255905507
  0
CIRCLE
  5
B65
  8
0
  6
CONTINUOUS
 62
     7
 10
3.3516534965829119
 20
4.6076545337618882
 30
0.0
 40
0.0255905507
  0
CIRCLE
  5
B66
  8
0
  6
CONTINUOUS
 62
     7
 10
3.3516534965829119
 20
4.7076545318818708
 30
0.0
 40
0.0255905507
  0
CIRCLE
  5
B67
  8
0
  6
CONTINUOUS
 62
     7
 10
3.3516534965829119
 20
4.8076545300018552
 30
0.0
 40
0.0255905507
  0
CIRCLE
  5
B68
  8
0
  6
CONTINUOUS
 62
     7
 10
3.3516534965829119
 20
4.907654528122066
 30
0.0
 40
0.0255905507
  0
CIRCLE
  5
B69
  8
0
  6
CONTINUOUS
 62
     7
 10
3.3516534965829119
 20
5.0076545262420487
 30
0.0
 40
0.0255905507
  0
CIRCLE
  5
B6A
  8
0
  6
CONTINUOUS
 62
     7
 10
3.3516534965829119
 20
5.107654524362033
 30
0.0
 40
0.0255905507
  0
CIRCLE
  5
B6B
  8
0
  6
CONTINUOUS
 62
     7
 10
3.3516534965829119
 20
5.2076545224820157
 30
0.0
 40
0.0255905507
  0
CIRCLE
  5
B6C
  8
0
  6
CONTINUOUS
 62
     7
 10
3.3516534965829119
 20
5.307654520602
 30
0.0
 40
0.0255905507
  0
CIRCLE
  5
B6D
  8
0
  6
CONTINUOUS
 62
     7
 10
3.3516534965829119
 20
5.4076545187219827
 30
0.0
 40
0.0255905507
  0
CIRCLE
  5
B6E
  8
0
  6
CONTINUOUS
 62
     7
 10
3.3516534965829119
 20
5.5076545168419671
 30
0.0
 40
0.0255905507
  0
CIRCLE
  5
B6F
  8
0
  6
CONTINUOUS
 62
     7
 10
3.3516534965829119
 20
5.6076545149619497
 30
0.0
 40
0.0255905507
  0
CIRCLE
  5
B70
  8
0
  6
CONTINUOUS
 62
     7
 10
3.3516534965829119
 20
5.7076545130819341
 30
0.0
 40
0.0255905507
  0
CIRCLE
  5
B71
  8
0
  6
CONTINUOUS
 62
     7
 10
3.3516534965829119
 20
5.8076545112019167
 30
0.0
 40
0.0255905507
  0
CIRCLE
  5
B72
  8
0
  6
CONTINUOUS
 62
     7
 10
3.3516534965829119
 20
5.9076545093219011
 30
0.0
 40
0.0255905507
  0
CIRCLE
  5
B73
  8
0
  6
CONTINUOUS
 62
     7
 10
3.1516535003429449
 20
3.3076545582018748
 30
0.0
 40
0.0255905507
  0
CIRCLE
  5
B74
  8
0
  6
CONTINUOUS
 62
     7
 10
3.1516535003429449
 20
3.4076545563220861
 30
0.0
 40
0.0255905507
  0
CIRCLE
  5
B75
  8
0
  6
CONTINUOUS
 62
     7
 10
3.1516535003429449
 20
3.5076545544420692
 30
0.0
 40
0.0255905507
  0
CIRCLE
  5
B76
  8
0
  6
CONTINUOUS
 62
     7
 10
3.1516535003429449
 20
3.6076545525620531
 30
0.0
 40
0.0255905507
  0
CIRCLE
  5
B77
  8
0
  6
CONTINUOUS
 62
     7
 10
3.1516535003429449
 20
3.7076545506820362
 30
0.0
 40
0.0255905507
  0
CIRCLE
  5
B78
  8
0
  6
CONTINUOUS
 62
     7
 10
3.1516535003429449
 20
3.8076545488020201
 30
0.0
 40
0.0255905507
  0
CIRCLE
  5
B79
  8
0
  6
CONTINUOUS
 62
     7
 10
3.1516535003429449
 20
3.9076545469220032
 30
0.0
 40
0.0255905507
  0
CIRCLE
  5
B7A
  8
0
  6
CONTINUOUS
 62
     7
 10
3.1516535003429449
 20
4.0076545450419871
 30
0.0
 40
0.0255905507
  0
CIRCLE
  5
B7B
  8
0
  6
CONTINUOUS
 62
     7
 10
3.1516535003429449
 20
4.1076545431619698
 30
0.0
 40
0.0255905507
  0
CIRCLE
  5
B7C
  8
0
  6
CONTINUOUS
 62
     7
 10
3.1516535003429449
 20
4.2076545412819542
 30
0.0
 40
0.0255905507
  0
CIRCLE
  5
B7D
  8
0
  6
CONTINUOUS
 62
     7
 10
3.1516535003429449
 20
4.3076545394019368
 30
0.0
 40
0.0255905507
  0
CIRCLE
  5
B7E
  8
0
  6
CONTINUOUS
 62
     7
 10
3.1516535003429449
 20
4.4076545375219212
 30
0.0
 40
0.0255905507
  0
CIRCLE
  5
B7F
  8
0
  6
CONTINUOUS
 62
     7
 10
3.1516535003429449
 20
4.5076545356419038
 30
0.0
 40
0.0255905507
  0
CIRCLE
  5
B80
  8
0
  6
CONTINUOUS
 62
     7
 10
3.1516535003429449
 20
4.6076545337618882
 30
0.0
 40
0.0255905507
  0
CIRCLE
  5
B81
  8
0
  6
CONTINUOUS
 62
     7
 10
3.1516535003429449
 20
4.7076545318818708
 30
0.0
 40
0.0255905507
  0
CIRCLE
  5
B82
  8
0
  6
CONTINUOUS
 62
     7
 10
3.1516535003429449
 20
4.8076545300018552
 30
0.0
 40
0.0255905507
  0
CIRCLE
  5
B83
  8
0
  6
CONTINUOUS
 62
     7
 10
3.1516535003429449
 20
4.907654528122066
 30
0.0
 40
0.0255905507
  0
CIRCLE
  5
B84
  8
0
  6
CONTINUOUS
 62
     7
 10
3.1516535003429449
 20
5.0076545262420487
 30
0.0
 40
0.0255905507
  0
CIRCLE
  5
B85
  8
0
  6
CONTINUOUS
 62
     7
 10
3.1516535003429449
 20
5.107654524362033
 30
0.0
 40
0.0255905507
  0
CIRCLE
  5
B86
  8
0
  6
CONTINUOUS
 62
     7
 10
3.1516535003429449
 20
5.2076545224820157
 30
0.0
 40
0.0255905507
  0
CIRCLE
  5
B87
  8
0
  6
CONTINUOUS
 62
     7
 10
3.1516535003429449
 20
5.307654520602
 30
0.0
 40
0.0255905507
  0
CIRCLE
  5
B88
  8
0
  6
CONTINUOUS
 62
     7
 10
3.1516535003429449
 20
5.4076545187219827
 30
0.0
 40
0.0255905507
  0
CIRCLE
  5
B89
  8
0
  6
CONTINUOUS
 62
     7
 10
3.1516535003429449
 20
5.5076545168419671
 30
0.0
 40
0.0255905507
  0
CIRCLE
  5
B8A
  8
0
  6
CONTINUOUS
 62
     7
 10
3.1516535003429449
 20
5.6076545149619497
 30
0.0
 40
0.0255905507
  0
CIRCLE
  5
B8B
  8
0
  6
CONTINUOUS
 62
     7
 10
3.1516535003429449
 20
5.7076545130819341
 30
0.0
 40
0.0255905507
  0
CIRCLE
  5
B8C
  8
0
  6
CONTINUOUS
 62
     7
 10
3.1516535003429449
 20
5.8076545112019167
 30
0.0
 40
0.0255905507
  0
CIRCLE
  5
B8D
  8
0
  6
CONTINUOUS
 62
     7
 10
3.1516535003429449
 20
5.9076545093219011
 30
0.0
 40
0.0255905507
  0
CIRCLE
  5
B8E
  8
0
  6
CONTINUOUS
 62
     7
 10
2.9516535041029779
 20
3.3076545582018748
 30
0.0
 40
0.0255905507
  0
CIRCLE
  5
B8F
  8
0
  6
CONTINUOUS
 62
     7
 10
2.9516535041029779
 20
3.4076545563220861
 30
0.0
 40
0.0255905507
  0
CIRCLE
  5
B90
  8
0
  6
CONTINUOUS
 62
     7
 10
2.9516535041029779
 20
3.5076545544420692
 30
0.0
 40
0.0255905507
  0
CIRCLE
  5
B91
  8
0
  6
CONTINUOUS
 62
     7
 10
2.9516535041029779
 20
3.6076545525620531
 30
0.0
 40
0.0255905507
  0
CIRCLE
  5
B92
  8
0
  6
CONTINUOUS
 62
     7
 10
2.9516535041029779
 20
3.7076545506820362
 30
0.0
 40
0.0255905507
  0
CIRCLE
  5
B93
  8
0
  6
CONTINUOUS
 62
     7
 10
2.9516535041029779
 20
3.8076545488020201
 30
0.0
 40
0.0255905507
  0
CIRCLE
  5
B94
  8
0
  6
CONTINUOUS
 62
     7
 10
2.9516535041029779
 20
3.9076545469220032
 30
0.0
 40
0.0255905507
  0
CIRCLE
  5
B95
  8
0
  6
CONTINUOUS
 62
     7
 10
2.9516535041029779
 20
4.0076545450419871
 30
0.0
 40
0.0255905507
  0
CIRCLE
  5
B96
  8
0
  6
CONTINUOUS
 62
     7
 10
2.9516535041029779
 20
4.1076545431619698
 30
0.0
 40
0.0255905507
  0
CIRCLE
  5
B97
  8
0
  6
CONTINUOUS
 62
     7
 10
2.9516535041029779
 20
4.2076545412819542
 30
0.0
 40
0.0255905507
  0
CIRCLE
  5
B98
  8
0
  6
CONTINUOUS
 62
     7
 10
2.9516535041029779
 20
4.3076545394019368
 30
0.0
 40
0.0255905507
  0
CIRCLE
  5
B99
  8
0
  6
CONTINUOUS
 62
     7
 10
2.9516535041029779
 20
4.4076545375219212
 30
0.0
 40
0.0255905507
  0
CIRCLE
  5
B9A
  8
0
  6
CONTINUOUS
 62
     7
 10
2.9516535041029779
 20
4.5076545356419038
 30
0.0
 40
0.0255905507
  0
CIRCLE
  5
B9B
  8
0
  6
CONTINUOUS
 62
     7
 10
2.9516535041029779
 20
4.6076545337618882
 30
0.0
 40
0.0255905507
  0
CIRCLE
  5
B9C
  8
0
  6
CONTINUOUS
 62
     7
 10
2.9516535041029779
 20
4.7076545318818708
 30
0.0
 40
0.0255905507
  0
CIRCLE
  5
B9D
  8
0
  6
CONTINUOUS
 62
     7
 10
2.9516535041029779
 20
4.8076545300018552
 30
0.0
 40
0.0255905507
  0
CIRCLE
  5
B9E
  8
0
  6
CONTINUOUS
 62
     7
 10
2.9516535041029779
 20
4.907654528122066
 30
0.0
 40
0.0255905507
  0
CIRCLE
  5
B9F
  8
0
  6
CONTINUOUS
 62
     7
 10
2.9516535041029779
 20
5.0076545262420487
 30
0.0
 40
0.0255905507
  0
CIRCLE
  5
BA0
  8
0
  6
CONTINUOUS
 62
     7
 10
2.9516535041029779
 20
5.107654524362033
 30
0.0
 40
0.0255905507
  0
CIRCLE
  5
BA1
  8
0
  6
CONTINUOUS
 62
     7
 10
2.9516535041029779
 20
5.2076545224820157
 30
0.0
 40
0.0255905507
  0
CIRCLE
  5
BA2
  8
0
  6
CONTINUOUS
 62
     7
 10
2.9516535041029779
 20
5.307654520602
 30
0.0
 40
0.0255905507
  0
CIRCLE
  5
BA3
  8
0
  6
CONTINUOUS
 62
     7
 10
2.9516535041029779
 20
5.4076545187219827
 30
0.0
 40
0.0255905507
  0
CIRCLE
  5
BA4
  8
0
  6
CONTINUOUS
 62
     7
 10
2.9516535041029779
 20
5.5076545168419671
 30
0.0
 40
0.0255905507
  0
CIRCLE
  5
BA5
  8
0
  6
CONTINUOUS
 62
     7
 10
2.9516535041029779
 20
5.6076545149619497
 30
0.0
 40
0.0255905507
  0
CIRCLE
  5
BA6
  8
0
  6
CONTINUOUS
 62
     7
 10
2.9516535041029779
 20
5.7076545130819341
 30
0.0
 40
0.0255905507
  0
CIRCLE
  5
BA7
  8
0
  6
CONTINUOUS
 62
     7
 10
2.9516535041029779
 20
5.8076545112019167
 30
0.0
 40
0.0255905507
  0
CIRCLE
  5
BA8
  8
0
  6
CONTINUOUS
 62
     7
 10
2.9516535041029779
 20
5.9076545093219011
 30
0.0
 40
0.0255905507
  0
CIRCLE
  5
BA9
  8
0
  6
CONTINUOUS
 62
     7
 10
2.7516535078630109
 20
3.3076545582018748
 30
0.0
 40
0.0255905507
  0
CIRCLE
  5
BAA
  8
0
  6
CONTINUOUS
 62
     7
 10
2.7516535078630109
 20
3.7076545506820362
 30
0.0
 40
0.0255905507
  0
CIRCLE
  5
BAB
  8
0
  6
CONTINUOUS
 62
     7
 10
2.7516535078630109
 20
3.8076545488020201
 30
0.0
 40
0.0255905507
  0
CIRCLE
  5
BAC
  8
0
  6
CONTINUOUS
 62
     7
 10
2.7516535078630109
 20
3.9076545469220032
 30
0.0
 40
0.0255905507
  0
CIRCLE
  5
BAD
  8
0
  6
CONTINUOUS
 62
     7
 10
2.7516535078630109
 20
4.0076545450419871
 30
0.0
 40
0.0255905507
  0
CIRCLE
  5
BAE
  8
0
  6
CONTINUOUS
 62
     7
 10
2.7516535078630109
 20
4.1076545431619698
 30
0.0
 40
0.0255905507
  0
CIRCLE
  5
BAF
  8
0
  6
CONTINUOUS
 62
     7
 10
2.7516535078630109
 20
4.2076545412819542
 30
0.0
 40
0.0255905507
  0
CIRCLE
  5
BB0
  8
0
  6
CONTINUOUS
 62
     7
 10
2.7516535078630109
 20
4.3076545394019368
 30
0.0
 40
0.0255905507
  0
CIRCLE
  5
BB1
  8
0
  6
CONTINUOUS
 62
     7
 10
2.7516535078630109
 20
4.4076545375219212
 30
0.0
 40
0.0255905507
  0
CIRCLE
  5
BB2
  8
0
  6
CONTINUOUS
 62
     7
 10
2.7516535078630109
 20
4.5076545356419038
 30
0.0
 40
0.0255905507
  0
CIRCLE
  5
BB3
  8
0
  6
CONTINUOUS
 62
     7
 10
2.7516535078630109
 20
4.6076545337618882
 30
0.0
 40
0.0255905507
  0
CIRCLE
  5
BB4
  8
0
  6
CONTINUOUS
 62
     7
 10
2.7516535078630109
 20
4.7076545318818708
 30
0.0
 40
0.0255905507
  0
CIRCLE
  5
BB5
  8
0
  6
CONTINUOUS
 62
     7
 10
2.7516535078630109
 20
4.8076545300018552
 30
0.0
 40
0.0255905507
  0
CIRCLE
  5
BB6
  8
0
  6
CONTINUOUS
 62
     7
 10
2.7516535078630109
 20
4.907654528122066
 30
0.0
 40
0.0255905507
  0
CIRCLE
  5
BB7
  8
0
  6
CONTINUOUS
 62
     7
 10
2.7516535078630109
 20
5.0076545262420487
 30
0.0
 40
0.0255905507
  0
CIRCLE
  5
BB8
  8
0
  6
CONTINUOUS
 62
     7
 10
2.7516535078630109
 20
5.107654524362033
 30
0.0
 40
0.0255905507
  0
CIRCLE
  5
BB9
  8
0
  6
CONTINUOUS
 62
     7
 10
2.7516535078630109
 20
5.2076545224820157
 30
0.0
 40
0.0255905507
  0
CIRCLE
  5
BBA
  8
0
  6
CONTINUOUS
 62
     7
 10
2.7516535078630109
 20
5.307654520602
 30
0.0
 40
0.0255905507
  0
CIRCLE
  5
BBB
  8
0
  6
CONTINUOUS
 62
     7
 10
2.7516535078630109
 20
5.4076545187219827
 30
0.0
 40
0.0255905507
  0
CIRCLE
  5
BBC
  8
0
  6
CONTINUOUS
 62
     7
 10
2.7516535078630109
 20
5.5076545168419671
 30
0.0
 40
0.0255905507
  0
CIRCLE
  5
BBD
  8
0
  6
CONTINUOUS
 62
     7
 10
2.7516535078630109
 20
5.9076545093219011
 30
0.0
 40
0.0255905507
  0
CIRCLE
  5
BBE
  8
0
  6
CONTINUOUS
 62
     7
 10
3.600472389543028
 20
3.4875758146620219
 30
0.0
 40
0.059055117
  0
CIRCLE
  5
BBF
  8
0
  6
CONTINUOUS
 62
     7
 10
2.7028346111428609
 20
3.4875758146620219
 30
0.0
 40
0.059055117
  0
CIRCLE
  5
BC0
  8
0
  6
CONTINUOUS
 62
     7
 10
3.600472389543028
 20
5.72773325286198
 30
0.0
 40
0.059055117
  0
CIRCLE
  5
BC1
  8
0
  6
CONTINUOUS
 62
     7
 10
2.7028346111428609
 20
5.72773325286198
 30
0.0
 40
0.059055117
  0
ENDSEC
  0
EOF
