  0
SECTION
  2
HEADER
  9
$ACADVER
  1
AC1009
  9
$INSBASE
 10
0.0
 20
0.0
 30
0.0
  9
$EXTMIN
 10
0.3181125961900761
 20
0.3769082154028638
 30
-0.0000000349181948
  9
$EXTMAX
 10
10.64369522899994
 20
8.2515537753802164
 30
0.0000000814935746
  9
$LIMMIN
 10
0.0
 20
0.0
  9
$LIMMAX
 10
11.0
 20
8.5
  9
$ORTHOMODE
 70
     0
  9
$REGENMODE
 70
     1
  9
$FILLMODE
 70
     1
  9
$QTEXTMODE
 70
     0
  9
$MIRRTEXT
 70
     1
  9
$DRAGMODE
 70
     2
  9
$LTSCALE
 40
1.0
  9
$OSMODE
 70
   229
  9
$ATTMODE
 70
     1
  9
$TEXTSIZE
 40
0.2
  9
$TRACEWID
 40
0.05
  9
$TEXTSTYLE
  7
STANDARD
  9
$CLAYER
  8
0
  9
$CELTYPE
  6
BYLAYER
  9
$CECOLOR
 62
   256
  9
$DIMSCALE
 40
1.0
  9
$DIMASZ
 40
0.18
  9
$DIMEXO
 40
0.0625
  9
$DIMDLI
 40
0.38
  9
$DIMRND
 40
0.0
  9
$DIMDLE
 40
0.0
  9
$DIMEXE
 40
0.18
  9
$DIMTP
 40
0.0
  9
$DIMTM
 40
0.0
  9
$DIMTXT
 40
0.18
  9
$DIMCEN
 40
0.09
  9
$DIMTSZ
 40
0.0
  9
$DIMTOL
 70
     0
  9
$DIMLIM
 70
     0
  9
$DIMTIH
 70
     1
  9
$DIMTOH
 70
     1
  9
$DIMSE1
 70
     0
  9
$DIMSE2
 70
     0
  9
$DIMTAD
 70
     0
  9
$DIMZIN
 70
     0
  9
$DIMBLK
  1

  9
$DIMASO
 70
     1
  9
$DIMSHO
 70
     1
  9
$DIMPOST
  1

  9
$DIMAPOST
  1

  9
$DIMALT
 70
     0
  9
$DIMALTD
 70
     2
  9
$DIMALTF
 40
25.399999999999999
  9
$DIMLFAC
 40
1.0
  9
$DIMTOFL
 70
     0
  9
$DIMTVP
 40
0.0
  9
$DIMTIX
 70
     0
  9
$DIMSOXD
 70
     0
  9
$DIMSAH
 70
     0
  9
$DIMBLK1
  1

  9
$DIMBLK2
  1

  9
$DIMSTYLE
  2
STANDARD
  9
$DIMCLRD
 70
     0
  9
$DIMCLRE
 70
     0
  9
$DIMCLRT
 70
     0
  9
$DIMTFAC
 40
1.0
  9
$DIMGAP
 40
0.09
  9
$LUNITS
 70
     2
  9
$LUPREC
 70
     2
  9
$SKETCHINC
 40
0.1
  9
$FILLETRAD
 40
0.5
  9
$AUNITS
 70
     0
  9
$AUPREC
 70
     2
  9
$MENU
  1
.
  9
$ELEVATION
 40
0.0
  9
$PELEVATION
 40
0.0
  9
$THICKNESS
 40
0.0
  9
$LIMCHECK
 70
     0
  9
$BLIPMODE
 70
     0
  9
$CHAMFERA
 40
0.5
  9
$CHAMFERB
 40
0.5
  9
$SKPOLY
 70
     0
  9
$TDCREATE
 40
2456161.5771383438
  9
$TDUPDATE
 40
2456161.4158407398
  9
$TDINDWG
 40
0.0019354051
  9
$TDUSRTIMER
 40
0.0019354051
  9
$USRTIMER
 70
     1
  9
$ANGBASE
 50
0.0
  9
$ANGDIR
 70
     0
  9
$PDMODE
 70
     0
  9
$PDSIZE
 40
-1.0
  9
$PLINEWID
 40
0.0
  9
$COORDS
 70
     2
  9
$SPLFRAME
 70
     0
  9
$SPLINETYPE
 70
     6
  9
$SPLINESEGS
 70
     8
  9
$ATTDIA
 70
     0
  9
$ATTREQ
 70
     1
  9
$HANDLING
 70
  4097
  9
$HANDSEED
  5
9A8
  9
$SURFTAB1
 70
     6
  9
$SURFTAB2
 70
     6
  9
$SURFTYPE
 70
     6
  9
$SURFU
 70
     6
  9
$SURFV
 70
     6
  9
$UCSNAME
  2

  9
$UCSORG
 10
0.0
 20
0.0
 30
0.0
  9
$UCSXDIR
 10
1.0
 20
0.0
 30
0.0
  9
$UCSYDIR
 10
0.0
 20
1.0
 30
0.0
  9
$PUCSNAME
  2

  9
$PUCSORG
 10
0.0
 20
0.0
 30
0.0
  9
$PUCSXDIR
 10
1.0
 20
0.0
 30
0.0
  9
$PUCSYDIR
 10
0.0
 20
1.0
 30
0.0
  9
$USERI1
 70
     0
  9
$USERI2
 70
     0
  9
$USERI3
 70
     0
  9
$USERI4
 70
     0
  9
$USERI5
 70
     0
  9
$USERR1
 40
0.0
  9
$USERR2
 40
0.0
  9
$USERR3
 40
0.0
  9
$USERR4
 40
0.0
  9
$USERR5
 40
0.0
  9
$WORLDVIEW
 70
     1
  9
$SHADEDGE
 70
     3
  9
$SHADEDIF
 70
    70
  9
$TILEMODE
 70
     1
  9
$MAXACTVP
 70
    64
  9
$PLIMCHECK
 70
     0
  9
$PEXTMIN
 10
1.0000000000000000E+020
 20
1.0000000000000000E+020
 30
1.0000000000000000E+020
  9
$PEXTMAX
 10
-1.0000000000000000E+020
 20
-1.0000000000000000E+020
 30
-1.0000000000000000E+020
  9
$PLIMMIN
 10
0.0
 20
0.0
  9
$PLIMMAX
 10
12.0
 20
9.0
  9
$UNITMODE
 70
     0
  9
$VISRETAIN
 70
     1
  9
$PLINEGEN
 70
     0
  9
$PSLTSCALE
 70
     1
  0
ENDSEC
  0
SECTION
  2
TABLES
  0
TABLE
  2
VPORT
 70
     2
  0
VPORT
  2
*ACTIVE
 70
     0
 10
0.0
 20
0.0
 11
1.0
 21
1.0
 12
5.4809039125950081
 22
4.3142309953915401
 13
0.0
 23
0.0
 14
0.5
 24
0.5
 15
0.5
 25
0.5
 16
0.0
 26
0.0
 36
1.0
 17
0.0
 27
0.0
 37
0.0
 40
7.9539205152791368
 41
1.8369747899159661
 42
50.0
 43
0.0
 44
0.0
 50
0.0
 51
0.0
 71
     0
 72
  2000
 73
     1
 74
     3
 75
     0
 76
     0
 77
     0
 78
     0
  0
ENDTAB
  0
TABLE
  2
LTYPE
 70
     7
  0
LTYPE
  2
CONTINUOUS
 70
     0
  3
Solid line
 72
    65
 73
     0
 40
0.0
  0
ENDTAB
  0
TABLE
  2
LAYER
 70
     4
  0
LAYER
  2
0
 70
     0
 62
     7
  6
CONTINUOUS
  0
ENDTAB
  0
TABLE
  2
STYLE
 70
     2
  0
STYLE
  2
STANDARD
 70
     0
 40
0.0
 41
1.0
 50
0.0
 71
     0
 42
0.2
  3
txt
  4

  0
STYLE
  2
SLDTEXTSTYLE0
 70
     0
 40
0.0
 41
0.75
 50
0.0
 71
     0
 42
0.2
  3
TXT
  4

  0
ENDTAB
  0
TABLE
  2
VIEW
 70
     0
  0
ENDTAB
  0
TABLE
  2
UCS
 70
     0
  0
ENDTAB
  0
TABLE
  2
APPID
 70
     4
  0
APPID
  2
ACAD
 70
     0
  0
APPID
  2
ADE
 70
     0
  0
APPID
  2
ACAD_PSEXT
 70
     0
  0
APPID
  2
ACAD_DSTYLE_DIMRADIAL_EXTE
 70
     0
  0
ENDTAB
  0
TABLE
  2
DIMSTYLE
 70
     3
  0
DIMSTYLE
  2
STANDARD
 70
     0
  3

  4

  5

  6

  7

 40
1.0
 41
0.18
 42
0.0625
 43
0.38
 44
0.18
 45
0.0
 46
0.0
 47
0.0
 48
0.0
140
0.18
141
0.09
142
0.0
143
25.399999999999999
144
1.0
145
0.0
146
1.0
147
0.09
 71
     0
 72
     0
 73
     1
 74
     1
 75
     0
 76
     0
 77
     0
 78
     0
170
     0
171
     2
172
     0
173
     0
174
     0
175
     0
176
     0
177
     0
178
     0
  0
DIMSTYLE
  2
SLDDIMSTYLE0
 70
     0
  3

  4

  5

  6

  7

 40
1.0
 41
0.13
 42
0.0625
 43
0.38
 44
0.0
 45
0.000000001
 46
0.0
 47
0.0
 48
0.0
140
0.18
141
0.09
142
0.0
143
25.399999999999999
144
1.0
145
0.0
146
0.13
147
0.0
 71
     0
 72
     0
 73
     1
 74
     1
 75
     0
 76
     0
 77
     0
 78
     0
170
     0
171
     2
172
     0
173
     1
174
     0
175
     0
176
     0
177
     0
178
     0
  0
ENDTAB
  0
ENDSEC
  0
SECTION
  2
BLOCKS
  0
BLOCK
  8
0
  2
$MODEL_SPACE
 70
     0
 10
0.0
 20
0.0
 30
0.0
  3
$MODEL_SPACE
  1

  0
ENDBLK
  5
21
  8
0
  0
BLOCK
 67
     1
  8
0
  2
$PAPER_SPACE
 70
     0
 10
0.0
 20
0.0
 30
0.0
  3
$PAPER_SPACE
  1

  0
ENDBLK
  5
1D
 67
     1
  8
0
  0
BLOCK
  8
0
  2
SW_NOTE_0
 70
     0
 10
0.0
 20
0.0
 30
0.0
  3
SW_NOTE_0
  1

  0
TEXT
  5
57
  8
0
 62
     0
 10
0.0
 20
0.0361334674714955
 30
0.0
 40
0.125
  1
NOTES:
 41
0.75
  7
SLDTEXTSTYLE0
  0
TEXT
  5
58
  8
0
 62
     0
 10
0.0937500000000001
 20
-0.1282366070447106
 30
0.0
 40
0.125
  1
DIMENSIONS IN MM.
 41
0.75
  7
SLDTEXTSTYLE0
  0
TEXT
  5
59
  8
0
 62
     0
 10
0.0937500000000001
 20
-0.4569767560771231
 30
0.0
 40
0.125
  1
DESIGNED TO FIT CIRCUIT BOARD
 41
0.75
  7
SLDTEXTSTYLE0
  0
TEXT
  5
5A
  8
0
 62
     0
 10
0.1875000000000001
 20
-0.6213468305933294
 30
0.0
 40
0.125
  1
"A" LOCATION OF THE DIN RAIL
 41
0.75
  7
SLDTEXTSTYLE0
  0
TEXT
  5
5B
  8
0
 62
     0
 10
0.2343750000000001
 20
-0.7857169051095359
 30
0.0
 40
0.125
  1
MOUNT MULT-BOARD BOX.
 41
0.75
  7
SLDTEXTSTYLE0
  0
TEXT
  5
5C
  8
0
 62
     0
 10
0.0937500000000001
 20
-1.1144570541419481
 30
0.0
 40
0.125
  1
PRE PLATED HOLES FOR EASY
 41
0.75
  7
SLDTEXTSTYLE0
  0
TEXT
  5
5D
  8
0
 62
     0
 10
0.2343750000000001
 20
-1.2788271286581541
 30
0.0
 40
0.125
  1
SOLDERING.
 41
0.75
  7
SLDTEXTSTYLE0
  0
TEXT
  5
5E
  8
0
 62
     0
 10
0.0937500000000001
 20
-1.607567277690567
 30
0.0
 40
0.125
  1
TERMINALS CAN BE USED IN
 41
0.75
  7
SLDTEXTSTYLE0
  0
TEXT
  5
5F
  8
0
 62
     0
 10
0.1875000000000001
 20
-1.771937352206773
 30
0.0
 40
0.125
  1
MULTIPLES OF (3)
 41
0.75
  7
SLDTEXTSTYLE0
  0
ENDBLK
  5
56
  8
0
  0
BLOCK
  8
0
  2
SW_NOTE_1
 70
     0
 10
0.0
 20
0.0
 30
0.0
  3
SW_NOTE_1
  1

  0
TEXT
  5
64
  8
0
 62
     0
 10
0.0175781250000001
 20
0.036133467471496
 30
0.0
 40
0.125
  1
PART
 41
0.75
  7
SLDTEXTSTYLE0
  0
TEXT
  5
65
  8
0
 62
     0
 10
0.015017361856821
 20
-0.1282366070447103
 30
0.0
 40
0.125
  1
NAME
 41
0.75
  7
SLDTEXTSTYLE0
  0
ENDBLK
  5
63
  8
0
  0
BLOCK
  8
0
  2
SW_NOTE_2
 70
     0
 10
0.0
 20
0.0
 30
0.0
  3
SW_NOTE_2
  1

  0
TEXT
  5
6A
  8
0
 62
     0
 10
0.0175781250000005
 20
0.036133467471496
 30
0.0
 40
0.125
  1
PART
 41
0.75
  7
SLDTEXTSTYLE0
  0
TEXT
  5
6B
  8
0
 62
     0
 10
0.1006944331479828
 20
-0.1282366070447103
 30
0.0
 40
0.125
  1
No.
 41
0.75
  7
SLDTEXTSTYLE0
  0
ENDBLK
  5
69
  8
0
  0
BLOCK
  8
0
  2
SW_NOTE_3
 70
     0
 10
0.0
 20
0.0
 30
0.0
  3
SW_NOTE_3
  1

  0
TEXT
  5
70
  8
0
 62
     0
 10
0.0156250000000005
 20
0.036133467471496
 30
0.0
 40
0.125
  1
REV.
 41
0.75
  7
SLDTEXTSTYLE0
  0
TEXT
  5
71
  8
0
 62
     0
 10
-0.0015190974699233
 20
-0.1282366070447103
 30
0.0
 40
0.125
  1
DATE
 41
0.75
  7
SLDTEXTSTYLE0
  0
ENDBLK
  5
6F
  8
0
  0
BLOCK
  8
0
  2
SW_NOTE_4
 70
     0
 10
0.0
 20
0.0
 30
0.0
  3
SW_NOTE_4
  1

  0
TEXT
  5
246
  8
0
 62
     0
 10
-1.161206637667058
 20
-0.0276752063326959
 30
0.0
 40
0.125
  1
CIRCUIT BOARD
 41
0.75
  7
SLDTEXTSTYLE0
  0
TEXT
  5
247
  8
0
 62
     0
 10
-1.0438455939331841
 20
-0.1920452808489022
 30
0.0
 40
0.125
  1
"A" LOCATION
 41
0.75
  7
SLDTEXTSTYLE0
  0
ENDBLK
  5
245
  8
0
  0
BLOCK
  8
0
  2
SW_NOTE_5
 70
     0
 10
0.0
 20
0.0
 30
0.0
  3
SW_NOTE_5
  1

  0
TEXT
  5
24E
  8
0
 62
     0
 10
-1.3373780613606401
 20
-0.02767520633268
 30
0.0
 40
0.125
  1
DIN RAIL MOUNT
 41
0.75
  7
SLDTEXTSTYLE0
  0
TEXT
  5
24F
  8
0
 62
     0
 10
-1.3373780613606401
 20
-0.1920452808488863
 30
0.0
 40
0.125
  1
BOX #DMB-4771
 41
0.75
  7
SLDTEXTSTYLE0
  0
ENDBLK
  5
24D
  8
0
  0
BLOCK
  8
0
  2
SW_NOTE_6
 70
     0
 10
0.0
 20
0.0
 30
0.0
  3
SW_NOTE_6
  1

  0
TEXT
  5
255
  8
0
 62
     0
 10
-1.552647922667294
 20
-0.0276752063326784
 30
0.0
 40
0.125
  1
OPTIONAL TERMINAL
 41
0.75
  7
SLDTEXTSTYLE0
  0
TEXT
  5
256
  8
0
 62
     0
 10
-2.0792971344719922
 20
-0.1920452808488846
 30
0.0
 40
0.125
  1
CONNECTOR #DMB-4770-T3
 41
0.75
  7
SLDTEXTSTYLE0
  0
ENDBLK
  5
254
  8
0
  0
BLOCK
  8
0
  2
*X37
 70
     1
 10
0.0
 20
0.0
 30
0.0
  3
*X37
  1

  0
LINE
  5
8C8
  8
0
 62
     0
 10
9.5084925767752964
 20
3.4980849366896432
 30
0.0
 11
9.5705299022775758
 21
3.56012226219192
 31
0.0
  0
LINE
  5
8C9
  8
0
 62
     0
 10
9.3816919605551252
 20
3.5480610157661099
 30
0.0
 11
9.3937532069809375
 21
3.5601222621919208
 31
0.0
  0
ENDBLK
  5
8CB
  8
0
  0
BLOCK
  8
0
  2
*X38
 70
     1
 10
0.0
 20
0.0
 30
0.0
  3
*X38
  1

  0
LINE
  5
8CD
  8
0
 62
     0
 10
9.4601928467384813
 20
6.9853191125855663
 30
0.0
 11
9.5223511138615358
 21
7.0474773797086199
 31
0.0
  0
ENDBLK
  5
8CF
  8
0
  0
BLOCK
  8
0
  2
*X39
 70
     1
 10
0.0
 20
0.0
 30
0.0
  3
*X39
  1

  0
LINE
  5
8D1
  8
0
 62
     0
 10
8.7282980412055675
 20
6.4302010023492873
 30
0.0
 11
8.7905983708543438
 21
6.4925013319980627
 31
0.0
  0
LINE
  5
8D2
  8
0
 62
     0
 10
8.5515213459089292
 20
6.4302010023492873
 30
0.0
 11
8.6122653871865147
 21
6.4909450436268719
 31
0.0
  0
LINE
  5
8D3
  8
0
 62
     0
 10
8.3747446506122944
 20
6.4302010023492873
 30
0.0
 11
8.4339324035186873
 21
6.4893887552556802
 31
0.0
  0
LINE
  5
8D4
  8
0
 62
     0
 10
8.0479729970690475
 20
6.1034293488060412
 30
0.0
 11
8.0627837649273122
 21
6.1182401166643068
 31
0.0
  0
LINE
  5
8D5
  8
0
 62
     0
 10
8.0037286468170663
 20
6.2359616938506957
 30
0.0
 11
8.0627837649273122
 21
6.2950168119609442
 31
0.0
  0
LINE
  5
8D6
  8
0
 62
     0
 10
8.1979679553156561
 20
6.4302010023492873
 30
0.0
 11
8.2555994198508547
 21
6.4878324668844849
 31
0.0
  0
LINE
  5
8D7
  8
0
 62
     0
 10
7.8711963017724118
 20
6.103429348806042
 30
0.0
 11
7.9315903827263279
 21
6.163823429759959
 31
0.0
  0
LINE
  5
8D8
  8
0
 62
     0
 10
8.0037286468170699
 20
6.4127383891473357
 30
0.0
 11
8.0772664361830273
 21
6.4862761785132941
 31
0.0
  0
LINE
  5
8D9
  8
0
 62
     0
 10
7.6944196064757762
 20
6.103429348806042
 30
0.0
 11
7.7532573990584419
 21
6.1622671413887087
 31
0.0
  0
ENDBLK
  5
8DB
  8
0
  0
BLOCK
  8
0
  2
*X40
 70
     1
 10
0.0
 20
0.0
 30
0.0
  3
*X40
  1

  0
LINE
  5
8DD
  8
0
 62
     0
 10
8.8256053148168156
 20
4.0526345418076204
 30
0.0
 11
8.8698703791005293
 21
4.0968996060913341
 31
0.0
  0
LINE
  5
8DE
  8
0
 62
     0
 10
8.6503579798431982
 20
4.0541639021306377
 30
0.0
 11
8.7114344501406649
 21
4.1152403724281061
 31
0.0
  0
LINE
  5
8DF
  8
0
 62
     0
 10
8.4751106448695772
 20
4.0556932624536559
 30
0.0
 11
8.5346577548440301
 21
4.115240372428107
 31
0.0
  0
LINE
  5
8E0
  8
0
 62
     0
 10
8.2998633098959598
 20
4.0572226227766741
 30
0.0
 11
8.3578810595473918
 21
4.115240372428107
 31
0.0
  0
LINE
  5
8E1
  8
0
 62
     0
 10
8.1246159749223406
 20
4.0587519830996914
 30
0.0
 11
8.1811043642507553
 21
4.1152403724281061
 31
0.0
  0
LINE
  5
8E2
  8
0
 62
     0
 10
8.0037286468170823
 20
4.1146413502910706
 30
0.0
 11
8.0627837649273228
 21
4.173696468401312
 31
0.0
  0
LINE
  5
8E3
  8
0
 62
     0
 10
8.0037286468170805
 20
4.2914180455877062
 30
0.0
 11
8.0627837649273228
 21
4.3504731636979468
 31
0.0
  0
LINE
  5
8E4
  8
0
 62
     0
 10
7.9172767640085144
 20
4.3817428580757749
 30
0.0
 11
7.97754593190409
 21
4.4420120259713523
 31
0.0
  0
LINE
  5
8E5
  8
0
 62
     0
 10
7.7420294290347211
 20
4.383272218398619
 30
0.0
 11
7.8007692366074526
 21
4.4420120259713531
 31
0.0
  0
ENDBLK
  5
8E7
  8
0
  0
BLOCK
  8
0
  2
*X41
 70
     1
 10
0.0
 20
0.0
 30
0.0
  3
*X41
  1

  0
LINE
  5
8E9
  8
0
 62
     0
 10
9.865411462809309
 20
3.501450432130381
 30
0.0
 11
9.8934924263446469
 21
3.5295313956657188
 31
0.0
  0
LINE
  5
8EA
  8
0
 62
     0
 10
9.8344373082344063
 20
3.6472529728521148
 30
0.0
 11
9.8934924263446842
 21
3.7063080909623931
 31
0.0
  0
LINE
  5
8EB
  8
0
 62
     0
 10
9.6854943017853046
 20
3.4983099664030122
 30
0.0
 11
9.8122672274953882
 21
3.6250828921130989
 31
0.0
  0
LINE
  5
8EC
  8
0
 62
     0
 10
9.8344373082344063
 20
3.8240296681487531
 30
0.0
 11
9.8934924263447197
 21
3.8830847862590652
 31
0.0
  0
LINE
  5
8ED
  8
0
 62
     0
 10
9.5764354140885164
 20
3.5660277740028619
 30
0.0
 11
9.6354905321987552
 21
3.6250828921131011
 31
0.0
  0
LINE
  5
8EE
  8
0
 62
     0
 10
9.8344373082344045
 20
4.0008063634453874
 30
0.0
 11
9.893492426344757
 21
4.0598614815557399
 31
0.0
  0
LINE
  5
8EF
  8
0
 62
     0
 10
9.8344373082344045
 20
4.1775830587420231
 30
0.0
 11
9.8934924263447925
 21
4.236638176852412
 31
0.0
  0
LINE
  5
8F0
  8
0
 62
     0
 10
9.8344373082344028
 20
4.3543597540386587
 30
0.0
 11
9.8934924263448298
 21
4.4134148721490858
 31
0.0
  0
LINE
  5
8F1
  8
0
 62
     0
 10
9.8043680029806968
 20
4.5010671440815901
 30
0.0
 11
9.8832863089035712
 21
4.5799854500044637
 31
0.0
  0
LINE
  5
8F2
  8
0
 62
     0
 10
9.6275913076840602
 20
4.5010671440815901
 30
0.0
 11
9.7095423261075524
 21
4.5830181625050823
 31
0.0
  0
LINE
  5
8F3
  8
0
 62
     0
 10
9.6179018751635361
 20
4.6681544068577017
 30
0.0
 11
9.6966420326438456
 21
4.746894564338012
 31
0.0
  0
LINE
  5
8F4
  8
0
 62
     0
 10
9.6179018751635343
 20
4.8449311021543382
 30
0.0
 11
9.6966420326438438
 21
4.9236712596346477
 31
0.0
  0
LINE
  5
8F5
  8
0
 62
     0
 10
9.6179018751635343
 20
5.0217077974509738
 30
0.0
 11
9.6966420326438438
 21
5.1004479549312833
 31
0.0
  0
LINE
  5
8F6
  8
0
 62
     0
 10
9.6179018751635343
 20
5.1984844927476122
 30
0.0
 11
9.6966420326438438
 21
5.2772246502279208
 31
0.0
  0
LINE
  5
8F7
  8
0
 62
     0
 10
9.6179018751635326
 20
5.375261188044246
 30
0.0
 11
9.6966420326438421
 21
5.4540013455245564
 31
0.0
  0
LINE
  5
8F8
  8
0
 62
     0
 10
9.6179018751635326
 20
5.5520378833408834
 30
0.0
 11
9.6966420326438421
 21
5.630778040821192
 31
0.0
  0
LINE
  5
8F9
  8
0
 62
     0
 10
9.6179018751635308
 20
5.7288145786375191
 30
0.0
 11
9.6966420326438385
 21
5.8075547361178268
 31
0.0
  0
LINE
  5
8FA
  8
0
 62
     0
 10
9.6179018751635308
 20
5.9055912739341547
 30
0.0
 11
9.6966420326438385
 21
5.9843314314144642
 31
0.0
  0
LINE
  5
8FB
  8
0
 62
     0
 10
9.6179018751635308
 20
6.0823679692307921
 30
0.0
 11
9.6966420326438403
 21
6.1611081267110999
 31
0.0
  0
LINE
  5
8FC
  8
0
 62
     0
 10
9.617901875163529
 20
6.2591446645274269
 30
0.0
 11
9.6966420326438385
 21
6.3378848220077373
 31
0.0
  0
LINE
  5
8FD
  8
0
 62
     0
 10
9.617901875163529
 20
6.4359213598240643
 30
0.0
 11
9.6966420326438367
 21
6.5146615173043729
 31
0.0
  0
LINE
  5
8FE
  8
0
 62
     0
 10
9.617901875163529
 20
6.6126980551207
 30
0.0
 11
9.6966420326438367
 21
6.6914382126010077
 31
0.0
  0
LINE
  5
8FF
  8
0
 62
     0
 10
9.7997988141547125
 20
6.9713716894085209
 30
0.0
 11
9.8722978647996111
 21
7.0438707400534204
 31
0.0
  0
LINE
  5
900
  8
0
 62
     0
 10
9.6179018751635255
 20
6.7894747504173356
 30
0.0
 11
9.6966420326438332
 21
6.8682149078976442
 31
0.0
  0
LINE
  5
901
  8
0
 62
     0
 10
9.5720089121138479
 20
6.9203584826642937
 30
0.0
 11
9.6985538820034733
 21
7.0469034525539183
 31
0.0
  0
ENDBLK
  5
903
  8
0
  0
BLOCK
  8
0
  2
*X42
 70
     1
 10
0.0
 20
0.0
 30
0.0
  3
*X42
  1

  0
LINE
  5
905
  8
0
 62
     0
 10
9.3524146243036572
 20
3.5187836795146419
 30
0.0
 11
9.3779336390831265
 21
3.5443026942941098
 31
0.0
  0
LINE
  5
906
  8
0
 62
     0
 10
9.1756379290070225
 20
3.5187836795146419
 30
0.0
 11
9.2071339919992141
 21
3.5502797425068362
 31
0.0
  0
LINE
  5
907
  8
0
 62
     0
 10
8.9860960673238157
 20
3.5060185131280708
 30
0.0
 11
9.0303572967025794
 21
3.5502797425068362
 31
0.0
  0
LINE
  5
908
  8
0
 62
     0
 10
8.8088377098476798
 20
3.5055368509485718
 30
0.0
 11
8.8535806014059411
 21
3.550279742506834
 31
0.0
  0
LINE
  5
909
  8
0
 62
     0
 10
8.6335903748741298
 20
3.5070662112716602
 30
0.0
 11
8.6768039061093045
 21
3.550279742506834
 31
0.0
  0
LINE
  5
90A
  8
0
 62
     0
 10
8.6336499066595884
 20
3.6839024383537562
 30
0.0
 11
8.6494413566390804
 21
3.6996938883332482
 31
0.0
  0
ENDBLK
  5
90C
  8
0
  0
BLOCK
  8
0
  2
*X43
 70
     1
 10
0.0
 20
0.0
 30
0.0
  3
*X43
  1

  0
LINE
  5
90E
  8
0
 62
     0
 10
8.6582048602961095
 20
3.7084573919902759
 30
0.0
 11
8.6730199853997476
 21
3.7232725170939149
 31
0.0
  0
ENDBLK
  5
910
  8
0
  0
BLOCK
  8
0
  2
*X44
 70
     1
 10
0.0
 20
0.0
 30
0.0
  3
*X44
  1

  0
LINE
  5
912
  8
0
 62
     0
 10
8.9527831163245182
 20
4.0030356480186873
 30
0.0
 11
9.0019957147495617
 21
4.0522482464437282
 31
0.0
  0
LINE
  5
913
  8
0
 62
     0
 10
8.7760064210278088
 20
4.0030356480186127
 30
0.0
 11
8.8248259224350321
 21
4.0518551494258359
 31
0.0
  0
LINE
  5
914
  8
0
 62
     0
 10
8.6336499066595902
 20
3.8606791336503941
 30
0.0
 11
8.6730199853997476
 21
3.9000492123905519
 31
0.0
  0
LINE
  5
915
  8
0
 62
     0
 10
8.6139648672895088
 20
4.0177707895769501
 30
0.0
 11
8.6464929387672012
 21
4.0502988610546398
 31
0.0
  0
ENDBLK
  5
917
  8
0
  0
BLOCK
  8
0
  2
*X45
 70
     1
 10
0.0
 20
0.0
 30
0.0
  3
*X45
  1

  0
LINE
  5
919
  8
0
 62
     0
 10
7.6298980531218961
 20
4.4479175377824323
 30
0.0
 11
7.71651222635046
 21
4.5345317110109971
 31
0.0
  0
LINE
  5
91A
  8
0
 62
     0
 10
7.6316814027225837
 20
4.6264775826797573
 30
0.0
 11
7.7104215602029003
 21
4.7052177401600721
 31
0.0
  0
LINE
  5
91B
  8
0
 62
     0
 10
7.6316814027225837
 20
4.8032542779763929
 30
0.0
 11
7.7104215602029003
 21
4.8819944354567086
 31
0.0
  0
LINE
  5
91C
  8
0
 62
     0
 10
7.6316814027225837
 20
4.9800309732730312
 30
0.0
 11
7.7104215602028994
 21
5.0587711307533452
 31
0.0
  0
LINE
  5
91D
  8
0
 62
     0
 10
7.6316814027225819
 20
5.1568076685696651
 30
0.0
 11
7.7104215602028967
 21
5.2355478260499799
 31
0.0
  0
LINE
  5
91E
  8
0
 62
     0
 10
7.631681402722581
 20
5.3335843638663016
 30
0.0
 11
7.7104215602028967
 21
5.4123245213466173
 31
0.0
  0
LINE
  5
91F
  8
0
 62
     0
 10
7.631681402722581
 20
5.5103610591629391
 30
0.0
 11
7.7104215602028967
 21
5.5891012166432539
 31
0.0
  0
LINE
  5
920
  8
0
 62
     0
 10
7.6316814027225819
 20
5.6871377544595747
 30
0.0
 11
7.7104215602028967
 21
5.7658779119398913
 31
0.0
  0
LINE
  5
921
  8
0
 62
     0
 10
7.6316814027225801
 20
5.8639144497562103
 30
0.0
 11
7.710421560202894
 21
5.9426546072365252
 31
0.0
  0
LINE
  5
922
  8
0
 62
     0
 10
7.6316814027225792
 20
6.040691145052846
 30
0.0
 11
7.6885140946648329
 21
6.0975238369951006
 31
0.0
  0
ENDBLK
  5
924
  8
0
  0
BLOCK
  8
0
  2
*X46
 70
     1
 10
0.0
 20
0.0
 30
0.0
  3
*X46
  1

  0
LINE
  5
926
  8
0
 62
     0
 10
9.2932586711269796
 20
6.9951616322706966
 30
0.0
 11
9.3247547341190327
 21
7.0266576952627524
 31
0.0
  0
LINE
  5
927
  8
0
 62
     0
 10
9.1164819758303413
 20
6.9951616322706993
 30
0.0
 11
9.1479780388223926
 21
7.0266576952627497
 31
0.0
  0
LINE
  5
928
  8
0
 62
     0
 10
8.9397052805337047
 20
6.9951616322706984
 30
0.0
 11
8.9839849334981121
 21
7.0394412852351049
 31
0.0
  0
LINE
  5
929
  8
0
 62
     0
 10
8.7629285852370682
 20
6.9951616322706984
 30
0.0
 11
8.8076612096333644
 21
7.0398942566669929
 31
0.0
  0
LINE
  5
92A
  8
0
 62
     0
 10
8.6336499066595778
 20
6.865882953693208
 30
0.0
 11
8.6730199853997352
 21
6.9052530324333663
 31
0.0
  0
LINE
  5
92B
  8
0
 62
     0
 10
8.6139648672894982
 20
7.0229746096197641
 30
0.0
 11
8.629328225965434
 21
7.038337968295699
 31
0.0
  0
ENDBLK
  5
92D
  8
0
  0
BLOCK
  8
0
  2
*X47
 70
     1
 10
0.0
 20
0.0
 30
0.0
  3
*X47
  1

  0
LINE
  5
92F
  8
0
 62
     0
 10
8.9680668624863493
 20
6.4931931283334317
 30
0.0
 11
9.0076656546910758
 21
6.532791920538159
 31
0.0
  0
LINE
  5
930
  8
0
 62
     0
 10
8.7919699935553552
 20
6.4938729546990741
 30
0.0
 11
8.8405027656149642
 21
6.542405726758683
 31
0.0
  0
LINE
  5
931
  8
0
 62
     0
 10
8.6167226585818071
 20
6.4954023150221634
 30
0.0
 11
8.6730199853997352
 21
6.5516996418400932
 31
0.0
  0
ENDBLK
  5
933
  8
0
  0
BLOCK
  8
0
  2
*X48
 70
     1
 10
0.0
 20
0.0
 30
0.0
  3
*X48
  1

  0
LINE
  5
935
  8
0
 62
     0
 10
8.6533349460296591
 20
6.7087912977666511
 30
0.0
 11
8.6730199853997352
 21
6.7284763371367289
 31
0.0
  0
ENDBLK
  5
937
  8
0
  0
BLOCK
  8
0
  2
*X49
 70
     1
 10
0.0
 20
0.0
 30
0.0
  3
*X49
  1

  0
LINE
  5
939
  8
0
 62
     0
 10
9.7489717434436614
 20
6.2134378375109227
 30
0.0
 11
9.8619963633525227
 21
6.3264624574197841
 31
0.0
  0
LINE
  5
93A
  8
0
 62
     0
 10
9.6966420326438598
 20
6.3378848220077577
 30
0.0
 11
9.8619963633525192
 21
6.5032391527164188
 31
0.0
  0
LINE
  5
93B
  8
0
 62
     0
 10
9.696642032643858
 20
6.5146615173043951
 30
0.0
 11
9.7034646466654628
 21
6.5214841313259964
 31
0.0
  0
ENDBLK
  5
93D
  8
0
  0
BLOCK
  8
0
  2
*X50
 70
     1
 10
0.0
 20
0.0
 30
0.0
  3
*X50
  1

  0
LINE
  5
93F
  8
0
 62
     0
 10
9.5194766783170692
 20
3.738775468930696
 30
0.0
 11
9.4807687164540191
 21
3.777483430793747
 31
0.0
  0
LINE
  5
940
  8
0
 62
     0
 10
9.5193846858221338
 20
3.5620907661289949
 30
0.0
 11
9.4564845523328174
 21
3.6249908996183118
 31
0.0
  0
LINE
  5
941
  8
0
 62
     0
 10
9.4564845523328156
 20
3.6228536075437989
 30
0.0
 11
9.5194766783170692
 21
3.6858457335280521
 31
0.0
  0
ENDBLK
  5
943
  8
0
  0
BLOCK
  8
0
  2
*X51
 70
     1
 10
0.0
 20
0.0
 30
0.0
  3
*X51
  1

  0
LINE
  5
945
  8
0
 62
     0
 10
9.5194766783170568
 20
6.9207559842701709
 30
0.0
 11
9.4568820539385516
 21
6.983350608648677
 31
0.0
  0
LINE
  5
946
  8
0
 62
     0
 10
9.4954980233066664
 20
6.7679579439839248
 30
0.0
 11
9.4564845523328067
 21
6.8069714149577862
 31
0.0
  0
LINE
  5
947
  8
0
 62
     0
 10
9.4564845523328067
 20
6.8048341228832507
 30
0.0
 11
9.5194766783170586
 21
6.8678262488675026
 31
0.0
  0
LINE
  5
948
  8
0
 62
     0
 10
9.4564845523328067
 20
6.981610818179889
 30
0.0
 11
9.4582243428015964
 21
6.9833506086486787
 31
0.0
  0
ENDBLK
  5
94A
  8
0
  0
BLOCK
  8
0
  2
*X52
 70
     1
 10
0.0
 20
0.0
 30
0.0
  3
*X52
  1

  0
LINE
  5
94C
  8
0
 62
     0
 10
9.5194766783170586
 20
6.7439792889735344
 30
0.0
 11
9.5095945837410216
 21
6.7538613835495713
 31
0.0
  0
LINE
  5
94D
  8
0
 62
     0
 10
9.5194766783170586
 20
6.567202593676897
 30
0.0
 11
9.4564845523328085
 21
6.630194719661147
 31
0.0
  0
LINE
  5
94E
  8
0
 62
     0
 10
9.5194766783170586
 20
6.3904258983802587
 30
0.0
 11
9.4564845523328085
 21
6.4534180243645096
 31
0.0
  0
LINE
  5
94F
  8
0
 62
     0
 10
9.5194766783170586
 20
6.213649203083623
 30
0.0
 11
9.4564845523328085
 21
6.2766413290678731
 31
0.0
  0
LINE
  5
950
  8
0
 62
     0
 10
9.5194766783170603
 20
6.0368725077869838
 30
0.0
 11
9.4564845523328085
 21
6.0998646337712357
 31
0.0
  0
LINE
  5
951
  8
0
 62
     0
 10
9.5194766783170621
 20
5.8600958124903464
 30
0.0
 11
9.4564845523328103
 21
5.9230879384745982
 31
0.0
  0
LINE
  5
952
  8
0
 62
     0
 10
9.5194766783170621
 20
5.6833191171937081
 30
0.0
 11
9.4564845523328103
 21
5.7463112431779608
 31
0.0
  0
LINE
  5
953
  8
0
 62
     0
 10
9.5194766783170621
 20
5.5065424218970707
 30
0.0
 11
9.4564845523328103
 21
5.5695345478813243
 31
0.0
  0
LINE
  5
954
  8
0
 62
     0
 10
9.5194766783170621
 20
5.329765726600435
 30
0.0
 11
9.456484552332812
 21
5.3927578525846851
 31
0.0
  0
LINE
  5
955
  8
0
 62
     0
 10
9.5194766783170621
 20
5.1529890313037976
 30
0.0
 11
9.456484552332812
 21
5.2159811572880477
 31
0.0
  0
LINE
  5
956
  8
0
 62
     0
 10
9.5194766783170621
 20
4.9762123360071593
 30
0.0
 11
9.456484552332812
 21
5.0392044619914111
 31
0.0
  0
LINE
  5
957
  8
0
 62
     0
 10
9.5194766783170621
 20
4.799435640710521
 30
0.0
 11
9.4564845523328138
 21
4.8624277666947728
 31
0.0
  0
LINE
  5
958
  8
0
 62
     0
 10
9.5194766783170657
 20
4.6226589454138853
 30
0.0
 11
9.4564845523328138
 21
4.6856510713981363
 31
0.0
  0
LINE
  5
959
  8
0
 62
     0
 10
9.5194766783170657
 20
4.445882250117247
 30
0.0
 11
9.4564845523328156
 21
4.5088743761014971
 31
0.0
  0
LINE
  5
95A
  8
0
 62
     0
 10
9.5194766783170675
 20
4.2691055548206087
 30
0.0
 11
9.4564845523328156
 21
4.3320976808048597
 31
0.0
  0
LINE
  5
95B
  8
0
 62
     0
 10
9.5194766783170675
 20
4.0923288595239722
 30
0.0
 11
9.4564845523328156
 21
4.1553209855082232
 31
0.0
  0
LINE
  5
95C
  8
0
 62
     0
 10
9.5194766783170675
 20
3.9155521642273339
 30
0.0
 11
9.4564845523328156
 21
3.9785442902115848
 31
0.0
  0
LINE
  5
95D
  8
0
 62
     0
 10
9.4666721560196621
 20
3.7915799912281019
 30
0.0
 11
9.4564845523328174
 21
3.8017675949149479
 31
0.0
  0
LINE
  5
95E
  8
0
 62
     0
 10
9.4564845523328156
 20
3.799630302840435
 30
0.0
 11
9.5194766783170675
 21
3.8626224288246869
 31
0.0
  0
LINE
  5
95F
  8
0
 62
     0
 10
9.4564845523328156
 20
3.976406998137072
 30
0.0
 11
9.5194766783170675
 21
4.0393991241213216
 31
0.0
  0
LINE
  5
960
  8
0
 62
     0
 10
9.4564845523328138
 20
4.1531836934337081
 30
0.0
 11
9.5194766783170657
 21
4.2161758194179599
 31
0.0
  0
LINE
  5
961
  8
0
 62
     0
 10
9.4564845523328138
 20
4.3299603887303428
 30
0.0
 11
9.5194766783170657
 21
4.3929525147145974
 31
0.0
  0
LINE
  5
962
  8
0
 62
     0
 10
9.4564845523328138
 20
4.5067370840269811
 30
0.0
 11
9.5194766783170657
 21
4.569729210011233
 31
0.0
  0
LINE
  5
963
  8
0
 62
     0
 10
9.456484552332812
 20
4.6835137793236159
 30
0.0
 11
9.5194766783170657
 21
4.7465059053078686
 31
0.0
  0
LINE
  5
964
  8
0
 62
     0
 10
9.456484552332812
 20
4.8602904746202533
 30
0.0
 11
9.5194766783170657
 21
4.9232826006045061
 31
0.0
  0
LINE
  5
965
  8
0
 62
     0
 10
9.456484552332812
 20
5.037067169916889
 30
0.0
 11
9.5194766783170621
 21
5.100059295901139
 31
0.0
  0
LINE
  5
966
  8
0
 62
     0
 10
9.4564845523328103
 20
5.2138438652135264
 30
0.0
 11
9.5194766783170621
 21
5.2768359911977782
 31
0.0
  0
LINE
  5
967
  8
0
 62
     0
 10
9.4564845523328103
 20
5.390620560510162
 30
0.0
 11
9.5194766783170621
 21
5.4536126864944139
 31
0.0
  0
LINE
  5
968
  8
0
 62
     0
 10
9.4564845523328103
 20
5.5673972558067977
 30
0.0
 11
9.5194766783170621
 21
5.6303893817910504
 31
0.0
  0
LINE
  5
969
  8
0
 62
     0
 10
9.4564845523328103
 20
5.7441739511034351
 30
0.0
 11
9.5194766783170621
 21
5.8071660770876861
 31
0.0
  0
LINE
  5
96A
  8
0
 62
     0
 10
9.4564845523328085
 20
5.9209506464000699
 30
0.0
 11
9.5194766783170603
 21
5.9839427723843208
 31
0.0
  0
LINE
  5
96B
  8
0
 62
     0
 10
9.4564845523328085
 20
6.0977273416967073
 30
0.0
 11
9.5194766783170603
 21
6.1607194676809591
 31
0.0
  0
LINE
  5
96C
  8
0
 62
     0
 10
9.4564845523328103
 20
6.2745040369933429
 30
0.0
 11
9.5194766783170603
 21
6.3374961629775948
 31
0.0
  0
LINE
  5
96D
  8
0
 62
     0
 10
9.4564845523328067
 20
6.4512807322899803
 30
0.0
 11
9.5194766783170586
 21
6.5142728582742304
 31
0.0
  0
LINE
  5
96E
  8
0
 62
     0
 10
9.4564845523328067
 20
6.6280574275866151
 30
0.0
 11
9.5194766783170568
 21
6.6910495535708669
 31
0.0
  0
ENDBLK
  5
970
  8
0
  0
BLOCK
  8
0
  2
*X53
 70
     1
 10
0.0
 20
0.0
 30
0.0
  3
*X53
  1

  0
LINE
  5
972
  8
0
 62
     0
 10
9.4220139538675181
 20
6.5935868291213273
 30
0.0
 11
9.4564845523286252
 21
6.6280574275824362
 31
0.0
  0
LINE
  5
973
  8
0
 62
     0
 10
9.2452372585708833
 20
6.5935868291213291
 30
0.0
 11
9.4564845523286252
 21
6.804834122879071
 31
0.0
  0
LINE
  5
974
  8
0
 62
     0
 10
9.3501853397301886
 20
6.8753116055772709
 30
0.0
 11
9.4227912719356777
 21
6.94791753778276
 31
0.0
  0
LINE
  5
975
  8
0
 62
     0
 10
9.0991442528024802
 20
6.6242705186495634
 30
0.0
 11
9.2517601428798084
 21
6.7768864087268907
 31
0.0
  0
LINE
  5
976
  8
0
 62
     0
 10
8.9964254467888658
 20
6.6983284079325847
 30
0.0
 11
9.1191751384497781
 21
6.8210780995934988
 31
0.0
  0
LINE
  5
977
  8
0
 62
     0
 10
9.1395554184703585
 20
6.8414583796140764
 30
0.0
 11
9.2146936509676358
 21
6.9165966121113529
 31
0.0
  0
LINE
  5
978
  8
0
 62
     0
 10
8.9580990171934491
 20
6.6600019783371698
 30
0.0
 11
8.9942899915702963
 21
6.696192952714016
 31
0.0
  0
LINE
  5
979
  8
0
 62
     0
 10
8.9666317577504984
 20
6.8453114141908538
 30
0.0
 11
9.0257344466204756
 21
6.9044141030608328
 31
0.0
  0
ENDBLK
  5
97B
  8
0
  0
BLOCK
  8
0
  2
*X54
 70
     1
 10
0.0
 20
0.0
 30
0.0
  3
*X54
  1

  0
LINE
  5
97D
  8
0
 62
     0
 10
9.4311547817837909
 20
3.5975238369947742
 30
0.0
 11
9.4564845523287762
 21
3.622853607539759
 31
0.0
  0
LINE
  5
97E
  8
0
 62
     0
 10
9.3501853397303503
 20
3.6933310902379688
 30
0.0
 11
9.4564845523287762
 21
3.799630302836396
 31
0.0
  0
LINE
  5
97F
  8
0
 62
     0
 10
9.3315383990645682
 20
3.8514608448688259
 30
0.0
 11
9.4319320998519487
 21
3.9518545456562042
 31
0.0
  0
LINE
  5
980
  8
0
 62
     0
 10
9.0984985137840155
 20
3.6184209595882719
 30
0.0
 11
9.2517601428799576
 21
3.771682588684214
 31
0.0
  0
LINE
  5
981
  8
0
 62
     0
 10
9.005566274705135
 20
3.7022654158060289
 30
0.0
 11
9.1283159663660491
 21
3.825015107466943
 31
0.0
  0
LINE
  5
982
  8
0
 62
     0
 10
9.1395554184705077
 20
3.8362545595714019
 30
0.0
 11
9.2551554045553104
 21
3.9518545456562051
 31
0.0
  0
LINE
  5
983
  8
0
 62
     0
 10
8.9636244425576876
 20
3.6603235836585819
 30
0.0
 11
9.0034308194846187
 21
3.700129960585512
 31
0.0
  0
LINE
  5
984
  8
0
 62
     0
 10
8.9757725856658475
 20
3.8492484220633769
 30
0.0
 11
9.0302390299380981
 21
3.9037148663356271
 31
0.0
  0
ENDBLK
  5
986
  8
0
  0
BLOCK
  8
0
  2
*U55
 70
     1
 10
0.0
 20
0.0
 30
0.0
  3
*U55
  1

  0
TEXT
  5
988
  8
0
 62
     1
 10
683.49716211487112
 20
-239.0439964571496
 30
0.0
 40
2.5
  1
50
  0
TEXT
  5
989
  8
0
 62
     1
 10
688.08049544820437
 20
-237.377329790483
 30
0.0
 40
2.5
  1
 0
  0
TEXT
  5
98A
  8
0
 62
     1
 10
688.08049544820437
 20
-241.127329790483
 30
0.0
 40
2.5
  1
-0,1
  0
ENDBLK
  5
98C
  8
0
  0
BLOCK
  8
0
  2
*U56
 70
     1
 10
0.0
 20
0.0
 30
0.0
  3
*U56
  1

  0
TEXT
  5
98E
  8
0
 62
     1
 10
733.90315477444824
 20
-306.69111197606873
 30
0.0
 40
2.5
  1
86,9
 50
90.0
  0
TEXT
  5
98F
  8
0
 62
     1
 10
732.23648810778161
 20
-297.94111197606873
 30
0.0
 40
2.5
  1
 0
 50
90.0
  0
TEXT
  5
990
  8
0
 62
     1
 10
735.98648810778161
 20
-297.94111197606873
 30
0.0
 40
2.5
  1
-0,1
 50
90.0
  0
ENDBLK
  5
992
  8
0
  0
BLOCK
  8
0
  2
*U57
 70
     1
 10
0.0
 20
0.0
 30
0.0
  3
*U57
  1

  0
TEXT
  5
994
  8
0
 62
     1
 10
646.85332654461035
 20
-314.30877283002042
 30
0.0
 40
2.5
  1
\U+22051,3
 50
338.48229700471251
  0
TEXT
  5
995
  8
0
 62
     1
 10
654.82954993270755
 20
-315.66200945088917
 30
0.0
 40
2.5
  1
+0,2
 50
338.48229700471251
  0
TEXT
  5
996
  8
0
 62
     1
 10
653.60692098100685
 20
-318.76302372972998
 30
0.0
 40
2.5
  1
-0
 50
338.48229700471251
  0
ENDBLK
  5
998
  8
0
  0
ENDSEC
  0
SECTION
  2
ENTITIES
  0
LINE
  5
44
  8
0
  6
CONTINUOUS
 62
     7
 10
0.3919269999999984
 20
8.1300731707317055
 30
0.0
 11
0.3919269999999979
 21
0.4540731707317041
 31
0.0
  0
LINE
  5
45
  8
0
  6
CONTINUOUS
 62
     7
 10
0.3299269999999985
 20
8.1920731707317032
 30
0.0
 11
0.3299269999999985
 21
0.3920731707317054
 31
0.0
  0
LINE
  5
46
  8
0
  6
CONTINUOUS
 62
     7
 10
10.629927
 20
0.3920731707317041
 30
0.0
 11
0.3299269999999985
 21
0.3920731707317054
 31
0.0
  0
LINE
  5
47
  8
0
  6
CONTINUOUS
 62
     7
 10
10.629927
 20
0.3920731707317041
 30
0.0
 11
10.629927
 21
8.1920731707317032
 31
0.0
  0
LINE
  5
48
  8
0
  6
CONTINUOUS
 62
     7
 10
10.56792699999999
 20
0.4540731707317041
 30
0.0
 11
0.3919269999999979
 21
0.4540731707317041
 31
0.0
  0
LINE
  5
49
  8
0
  6
CONTINUOUS
 62
     7
 10
10.56792699999999
 20
0.4540731707317041
 30
0.0
 11
10.56792699999999
 21
8.1300731707317055
 31
0.0
  0
LINE
  5
4A
  8
0
  6
CONTINUOUS
 62
     7
 10
0.3919269999999984
 20
8.1300731707317055
 30
0.0
 11
10.56792699999999
 21
8.1300731707317055
 31
0.0
  0
LINE
  5
4B
  8
0
  6
CONTINUOUS
 62
     7
 10
0.3919269999999984
 20
7.724073170731705
 30
0.0
 11
10.56792699999999
 21
7.724073170731705
 31
0.0
  0
LINE
  5
4C
  8
0
  6
CONTINUOUS
 62
     7
 10
0.9539269999999984
 20
8.1300731707317055
 30
0.0
 11
0.9539269999999984
 21
7.724073170731705
 31
0.0
  0
LINE
  5
4D
  8
0
  6
CONTINUOUS
 62
     7
 10
9.0209161630781534
 20
8.1300731707317055
 30
0.0
 11
9.0209161630781534
 21
7.724073170731705
 31
0.0
  0
LINE
  5
4E
  8
0
  6
CONTINUOUS
 62
     7
 10
9.5829161630781527
 20
8.1300731707317055
 30
0.0
 11
9.5829161630781527
 21
7.724073170731705
 31
0.0
  0
LINE
  5
4F
  8
0
  6
CONTINUOUS
 62
     7
 10
5.4539269999999984
 20
8.1300731707317055
 30
0.0
 11
5.4539269999999984
 21
7.724073170731705
 31
0.0
  0
LINE
  5
50
  8
0
  6
CONTINUOUS
 62
     7
 10
6.0159269999999978
 20
8.1300731707317055
 30
0.0
 11
6.0159269999999978
 21
7.724073170731705
 31
0.0
  0
LINE
  5
51
  8
0
  6
CONTINUOUS
 62
     7
 10
0.3299269999999985
 20
8.1920731707317032
 30
0.0
 11
10.629927
 21
8.1920731707317032
 31
0.0
  0
TEXT
  5
53
  8
0
 62
     7
 10
2.7817013331985638
 20
1.118650793674091
 30
0.0
 40
0.125
  1
PCB THICKNESS: 1.6mm
 41
0.75
  7
SLDTEXTSTYLE0
  0
INSERT
  5
60
  8
0
  6
CONTINUOUS
 62
     7
  2
SW_NOTE_0
 10
6.2560797218439541
 20
2.4314842762270961
 30
0.0
  0
INSERT
  5
66
  8
0
  6
CONTINUOUS
 62
     7
  2
SW_NOTE_1
 10
0.4700130873777168
 20
7.914031890322593
 30
0.0
  0
INSERT
  5
6C
  8
0
  6
CONTINUOUS
 62
     7
  2
SW_NOTE_2
 10
5.5393881544520136
 20
7.9135712069467941
 30
0.0
  0
INSERT
  5
72
  8
0
  6
CONTINUOUS
 62
     7
  2
SW_NOTE_3
 10
9.1290491867108674
 20
7.9199729233358864
 30
0.0
  0
TEXT
  5
73
  8
0
 62
     7
 10
1.371633220205404
 20
7.8375753632776997
 30
0.0
 40
0.1875
  1
PCB FOR DIN RAIL MOUNT BOX
 41
0.75
  7
SLDTEXTSTYLE0
  0
TEXT
  5
74
  8
0
 62
     7
 10
6.813299256320076
 20
7.8383199070570253
 30
0.0
 40
0.1875
  1
DMB-4771-CB
 41
0.75
  7
SLDTEXTSTYLE0
  0
TEXT
  5
75
  8
0
 62
     7
 10
9.6800489047343525
 20
7.8354025962005567
 30
0.0
 40
0.1875
  1
8-2-12
 41
0.75
  7
SLDTEXTSTYLE0
  0
ARC
  5
76
  8
0
  6
CONTINUOUS
 62
     7
 10
9.0234136861949281
 20
3.8416183251838159
 30
0.0
 40
0.0118110236220481
 50
0.0
 51
40.241809582017588
  0
ARC
  5
77
  8
0
  6
CONTINUOUS
 62
     7
 10
9.0234136861949281
 20
3.7077600574673131
 30
0.0
 40
0.0118110236220481
 50
319.7581904179815
 51
0.0
  0
ARC
  5
78
  8
0
  6
CONTINUOUS
 62
     7
 10
8.9801065995807576
 20
3.7038230495931659
 30
0.0
 40
0.0078740157480324
 50
179.9999999989821
 51
207.97085085234309
  0
ARC
  5
79
  8
0
  6
CONTINUOUS
 62
     7
 10
8.9801065995807576
 20
3.8455553330578232
 30
0.0
 40
0.0078740157480321
 50
152.02914914650401
 51
180.0
  0
LINE
  5
7A
  8
0
  6
CONTINUOUS
 62
     7
 10
9.1395554204674632
 20
3.833731234507157
 30
0.0
 11
9.0568782488945381
 21
3.833731234507157
 31
0.0
  0
LINE
  5
7B
  8
0
  6
CONTINUOUS
 62
     7
 10
9.045355900335025
 20
3.833731234507157
 30
0.0
 11
9.0352247148713438
 21
3.833731234507157
 31
0.0
  0
LINE
  5
7C
  8
0
  6
CONTINUOUS
 62
     7
 10
9.0352247148713438
 20
3.715610785711327
 30
0.0
 11
9.045355900335025
 21
3.715610785711327
 31
0.0
  0
LINE
  5
7D
  8
0
  6
CONTINUOUS
 62
     7
 10
9.0568782488945381
 20
3.715610785711327
 30
0.0
 11
9.1395554204674632
 21
3.715610785711327
 31
0.0
  0
ARC
  5
7E
  8
0
  6
CONTINUOUS
 62
     7
 10
9.0234136861947913
 20
6.8376813173103708
 30
0.0
 40
0.011811023622047
 50
0.0
 51
40.24180958290691
  0
ARC
  5
7F
  8
0
  6
CONTINUOUS
 62
     7
 10
9.0234136861947913
 20
6.7038230495938684
 30
0.0
 40
0.0118110236220476
 50
319.75819041709059
 51
0.0
  0
ARC
  5
80
  8
0
  6
CONTINUOUS
 62
     7
 10
8.9801065995806173
 20
6.6998860417198607
 30
0.0
 40
0.0078740157480318
 50
180.0
 51
207.97085085465039
  0
ARC
  5
81
  8
0
  6
CONTINUOUS
 62
     7
 10
8.9801065995806173
 20
6.8416183251845171
 30
0.0
 40
0.0078740157480315
 50
152.0291491465008
 51
180.0000000010219
  0
LINE
  5
82
  8
0
  6
CONTINUOUS
 62
     7
 10
9.1395554204674632
 20
6.829770437339957
 30
0.0
 11
9.0568782488945381
 21
6.829770437339957
 31
0.0
  0
LINE
  5
83
  8
0
  6
CONTINUOUS
 62
     7
 10
9.045355900335025
 20
6.829770437339957
 30
0.0
 11
9.0352247148713438
 21
6.829770437339957
 31
0.0
  0
LINE
  5
84
  8
0
  6
CONTINUOUS
 62
     7
 10
9.0352247148713438
 20
6.7117250810099858
 30
0.0
 11
9.045355900335025
 21
6.7117250810099858
 31
0.0
  0
LINE
  5
85
  8
0
  6
CONTINUOUS
 62
     7
 10
9.0568782488945381
 20
6.7117250810099858
 30
0.0
 11
9.1395554204674632
 21
6.7117250810099858
 31
0.0
  0
LINE
  5
86
  8
0
  6
CONTINUOUS
 62
     7
 10
8.0627837719254316
 20
6.3002934605698409
 30
0.0
 11
8.2399491186295624
 21
6.3095298338704691
 31
0.0
  0
LINE
  5
87
  8
0
  6
CONTINUOUS
 62
     7
 10
8.2399491186295624
 20
6.401217734684014
 30
0.0
 11
8.0627837719254316
 21
6.410529200450501
 31
0.0
  0
LINE
  5
88
  8
0
  6
CONTINUOUS
 62
     7
 10
8.0627837719254316
 20
4.1349271150666418
 30
0.0
 11
8.2399491186295624
 21
4.1442385808331279
 31
0.0
  0
LINE
  5
89
  8
0
  6
CONTINUOUS
 62
     7
 10
8.2399491186295624
 20
4.2358513891808149
 30
0.0
 11
8.0627837719254316
 21
4.2451628549473011
 31
0.0
  0
LINE
  5
8A
  8
0
  6
CONTINUOUS
 62
     7
 10
7.9801066003525056
 20
6.0935639020606747
 30
0.0
 11
7.7793192465318191
 21
6.0935639020606747
 31
0.0
  0
LINE
  5
8B
  8
0
  6
CONTINUOUS
 62
     7
 10
7.7202640087429639
 20
5.9676338368155353
 30
0.0
 11
7.9801066003525056
 21
5.9676338368155353
 31
0.0
  0
LINE
  5
8C
  8
0
  6
CONTINUOUS
 62
     7
 10
7.9801066003525056
 20
4.5778224787016084
 30
0.0
 11
7.7202640087429639
 21
4.5778224787016084
 31
0.0
  0
LINE
  5
8D
  8
0
  6
CONTINUOUS
 62
     7
 10
7.7793192465318191
 20
4.4518173209906093
 30
0.0
 11
7.9801066003525056
 21
4.4518173209906093
 31
0.0
  0
ARC
  5
8E
  8
0
  6
CONTINUOUS
 62
     7
 10
9.0227654509355428
 20
3.714701601566794
 30
0.0
 40
0.0124741297352096
 50
272.97882670314169
 51
2.7974979420916148
  0
LINE
  5
8F
  8
0
  6
CONTINUOUS
 62
     7
 10
9.0352247148713438
 20
3.8340316043705922
 30
0.0
 11
9.0352247148713438
 21
3.841615943422326
 31
0.0
  0
LINE
  5
90
  8
0
  6
CONTINUOUS
 62
     7
 10
9.0352247148713438
 20
3.7077260767961571
 30
0.0
 11
9.0352247148713438
 21
3.7153104158478918
 31
0.0
  0
ARC
  5
91
  8
0
  6
CONTINUOUS
 62
     7
 10
9.0228085699877667
 20
3.8346793958902081
 30
0.0
 40
0.0124330321170206
 50
357.013396806711
 51
87.210278548051747
  0
ARC
  5
92
  8
0
  6
CONTINUOUS
 62
     7
 10
8.9407365214070182
 20
3.7003729702930181
 30
0.0
 40
0.0039437858500217
 50
356.6386988890826
 51
183.3613011109189
  0
LINE
  5
93
  8
0
  6
CONTINUOUS
 62
     7
 10
8.9367995202209247
 20
3.84927537493992
 30
0.0
 11
8.9367995202209247
 21
3.7001417377444228
 31
0.0
  0
POLYLINE
  5
94
  8
0
  6
CONTINUOUS
 62
     7
 66
     1
 10
0.0
 20
0.0
 30
0.0
 70
   128
  0
VERTEX
  5
8A3
  8
0
  6
CONTINUOUS
 62
     7
 10
8.9446735225931118
 20
3.84927537493992
 30
0.0
  0
VERTEX
  5
8A4
  8
0
  6
CONTINUOUS
 62
     7
 10
8.9444185822048716
 20
3.847773525622745
 30
0.0
  0
VERTEX
  5
8A5
  8
0
  6
CONTINUOUS
 62
     7
 10
8.9436703341820305
 20
3.8464218612372871
 30
0.0
  0
VERTEX
  5
8A6
  8
0
  6
CONTINUOUS
 62
     7
 10
8.9425448638502232
 20
3.8454456591811228
 30
0.0
  0
VERTEX
  5
8A7
  8
0
  6
CONTINUOUS
 62
     7
 10
8.9412677786032226
 20
3.84499510438597
 30
0.0
  0
VERTEX
  5
8A8
  8
0
  6
CONTINUOUS
 62
     7
 10
8.9400204663456151
 20
3.8450701968518288
 30
0.0
  0
VERTEX
  5
8A9
  8
0
  6
CONTINUOUS
 62
     7
 10
8.9388873877683679
 20
3.8454456591811228
 30
0.0
  0
VERTEX
  5
8AA
  8
0
  6
CONTINUOUS
 62
     7
 10
8.9379195272825083
 20
3.8462716763055691
 30
0.0
  0
VERTEX
  5
8AB
  8
0
  6
CONTINUOUS
 62
     7
 10
8.9371933156717667
 20
3.847398063293451
 30
0.0
  0
VERTEX
  5
8AC
  8
0
  6
CONTINUOUS
 62
     7
 10
8.9368227666190485
 20
3.848749727678908
 30
0.0
  0
VERTEX
  5
8AD
  8
0
  6
CONTINUOUS
 62
     7
 10
8.9367995202209247
 20
3.84927537493992
 30
0.0
  0
SEQEND
  5
8AE
  8
0
  6
CONTINUOUS
 62
     7
  0
LINE
  5
95
  8
0
  6
CONTINUOUS
 62
     7
 10
8.9446735225931118
 20
3.7001417377444228
 30
0.0
 11
8.9446735225931118
 21
3.84927537493992
 31
0.0
  0
LINE
  5
96
  8
0
  6
CONTINUOUS
 62
     7
 10
8.9722325858951262
 20
3.710879960362226
 30
0.0
 11
8.9722325858951262
 21
3.703821268571502
 31
0.0
  0
ARC
  5
97
  8
0
  6
CONTINUOUS
 62
     7
 10
8.9805611456013796
 20
3.7105663837093532
 30
0.0
 40
0.0083344608162634
 50
177.84378849370839
 51
266.87369172773509
  0
ARC
  5
98
  8
0
  6
CONTINUOUS
 62
     7
 10
8.9804111109797518
 20
3.8389124389460472
 30
0.0
 40
0.0081909165472707
 50
92.130510900938432
 51
183.15200887761631
  0
LINE
  5
99
  8
0
  6
CONTINUOUS
 62
     7
 10
8.9722325858951262
 20
3.838462059856258
 30
0.0
 11
8.9722325858951262
 21
3.845520751646982
 31
0.0
  0
LINE
  5
9A
  8
0
  6
CONTINUOUS
 62
     7
 10
9.0479260573110203
 20
3.8273483749091621
 30
0.0
 11
9.0391617160574373
 21
3.84927537493992
 31
0.0
  0
LINE
  5
9B
  8
0
  6
CONTINUOUS
 62
     7
 10
9.0391617160574373
 20
3.7001417377444228
 30
0.0
 11
9.0479260573110203
 21
3.7220687377751811
 31
0.0
  0
LINE
  5
9C
  8
0
  6
CONTINUOUS
 62
     7
 10
9.0391617160574373
 20
3.84927537493992
 30
0.0
 11
9.0391617160574373
 21
3.833731234507157
 31
0.0
  0
LINE
  5
9D
  8
0
  6
CONTINUOUS
 62
     7
 10
9.0391617160574373
 20
3.715610785711327
 30
0.0
 11
9.0391617160574373
 21
3.7001417377444228
 31
0.0
  0
LINE
  5
9E
  8
0
  6
CONTINUOUS
 62
     7
 10
8.9446735225931118
 20
3.84927537493992
 30
0.0
 11
9.0391617160574373
 21
3.84927537493992
 31
0.0
  0
LINE
  5
9F
  8
0
  6
CONTINUOUS
 62
     7
 10
9.0391617160574373
 20
3.7001417377444228
 30
0.0
 11
8.9446735225931118
 21
3.7001417377444228
 31
0.0
  0
LINE
  5
A0
  8
0
  6
CONTINUOUS
 62
     7
 10
8.9801066066004331
 20
3.8470976934300158
 30
0.0
 11
9.0234136929799433
 21
3.8470976934300158
 31
0.0
  0
LINE
  5
A1
  8
0
  6
CONTINUOUS
 62
     7
 10
9.0234136929799433
 20
3.7022443267884682
 30
0.0
 11
8.9801066066004331
 21
3.7022443267884682
 31
0.0
  0
LINE
  5
A2
  8
0
  6
CONTINUOUS
 62
     7
 10
8.9249884983295242
 20
3.84927537493992
 30
0.0
 11
8.9367995202209247
 21
3.84927537493992
 31
0.0
  0
LINE
  5
A3
  8
0
  6
CONTINUOUS
 62
     7
 10
8.9367995202209247
 20
3.7001417377444228
 30
0.0
 11
8.9249884983295242
 21
3.7001417377444228
 31
0.0
  0
LINE
  5
A4
  8
0
  6
CONTINUOUS
 62
     7
 10
8.9249884983295242
 20
3.7001417377444228
 30
0.0
 11
8.9249884983295242
 21
3.84927537493992
 31
0.0
  0
LINE
  5
A5
  8
0
  6
CONTINUOUS
 62
     7
 10
9.0352247148713438
 20
3.8250205084675399
 30
0.0
 11
9.1395554204674632
 21
3.8250205084675399
 31
0.0
  0
LINE
  5
A6
  8
0
  6
CONTINUOUS
 62
     7
 10
9.1395554204674632
 20
3.724396604216802
 30
0.0
 11
9.0352247148713438
 21
3.724396604216802
 31
0.0
  0
LINE
  5
A7
  8
0
  6
CONTINUOUS
 62
     7
 10
9.0479260573110203
 20
3.8273483749091621
 30
0.0
 11
9.0568782488945381
 21
3.8273483749091621
 31
0.0
  0
LINE
  5
A8
  8
0
  6
CONTINUOUS
 62
     7
 10
9.0568782488945381
 20
3.7220687377751811
 30
0.0
 11
9.0479260573110203
 21
3.7220687377751811
 31
0.0
  0
LINE
  5
A9
  8
0
  6
CONTINUOUS
 62
     7
 10
9.2517601421856082
 20
3.733332607653995
 30
0.0
 11
9.2497916370092845
 21
3.7313802035416672
 31
0.0
  0
LINE
  5
AA
  8
0
  6
CONTINUOUS
 62
     7
 10
9.2497916370092845
 20
3.715610785711327
 30
0.0
 11
9.2517601421856082
 21
3.7136583815990001
 31
0.0
  0
LINE
  5
AB
  8
0
  6
CONTINUOUS
 62
     7
 10
9.2517601421856082
 20
3.6978889637686598
 30
0.0
 11
9.2517601421856082
 21
3.6939841555440052
 31
0.0
  0
LINE
  5
AC
  8
0
  6
CONTINUOUS
 62
     7
 10
9.0568782488945381
 20
3.7220687377751811
 30
0.0
 11
9.0568782488945381
 21
3.6978889637686598
 31
0.0
  0
LINE
  5
AD
  8
0
  6
CONTINUOUS
 62
     7
 10
9.1395554204674632
 20
3.6978889637686598
 30
0.0
 11
9.1395554204674632
 21
3.724396604216802
 31
0.0
  0
LINE
  5
AE
  8
0
  6
CONTINUOUS
 62
     7
 10
9.1395554204674632
 20
3.8250205084675399
 30
0.0
 11
9.1395554204674632
 21
3.8514530564498242
 31
0.0
  0
LINE
  5
AF
  8
0
  6
CONTINUOUS
 62
     7
 10
9.0568782488945381
 20
3.8514530564498242
 30
0.0
 11
9.0568782488945381
 21
3.8273483749091621
 31
0.0
  0
LINE
  5
B0
  8
0
  6
CONTINUOUS
 62
     7
 10
9.1277443939927831
 20
3.6093549465211821
 30
0.0
 11
8.9249884983295242
 21
3.672357525376682
 31
0.0
  0
LINE
  5
B1
  8
0
  6
CONTINUOUS
 62
     7
 10
9.2438861260635843
 20
3.6447985904065172
 30
0.0
 11
9.1572719533045657
 21
3.5974903369154978
 31
0.0
  0
LINE
  5
B2
  8
0
  6
CONTINUOUS
 62
     7
 10
9.2202640799891427
 20
3.9518516833029862
 30
0.0
 11
9.4564845567750364
 21
3.9518516833029862
 31
0.0
  0
LINE
  5
B3
  8
0
  6
CONTINUOUS
 62
     7
 10
8.9249884983295242
 20
3.8770595873076612
 30
0.0
 11
9.2202640799891427
 21
3.9518516833029862
 31
0.0
  0
LINE
  5
B4
  8
0
  6
CONTINUOUS
 62
     7
 10
9.1395554204674632
 20
3.8514530564498242
 30
0.0
 11
9.0568782488945381
 21
3.8514530564498242
 31
0.0
  0
LINE
  5
B5
  8
0
  6
CONTINUOUS
 62
     7
 10
9.0352247148713438
 20
3.724396604216802
 30
0.0
 11
9.0352247148713438
 21
3.7153104158478918
 31
0.0
  0
LINE
  5
B6
  8
0
  6
CONTINUOUS
 62
     7
 10
9.0352247148713438
 20
3.8340316043705922
 30
0.0
 11
9.0352247148713438
 21
3.8250205084675399
 31
0.0
  0
LINE
  5
B7
  8
0
  6
CONTINUOUS
 62
     7
 10
8.9722325858951262
 20
3.790402881706652
 30
0.0
 11
8.9722325858951262
 21
3.838462059856258
 31
0.0
  0
LINE
  5
B8
  8
0
  6
CONTINUOUS
 62
     7
 10
9.1277443939927831
 20
3.5974903369154978
 30
0.0
 11
9.1277443939927831
 21
3.6093549465211821
 31
0.0
  0
LINE
  5
B9
  8
0
  6
CONTINUOUS
 62
     7
 10
9.1572719533045657
 20
3.5974903369154978
 30
0.0
 11
9.1277443939927831
 21
3.5974903369154978
 31
0.0
  0
LINE
  5
BA
  8
0
  6
CONTINUOUS
 62
     7
 10
9.4564845567750364
 20
3.5974903369154978
 30
0.0
 11
9.3777443863882048
 21
3.5974903369154978
 31
0.0
  0
LINE
  5
BB
  8
0
  6
CONTINUOUS
 62
     7
 10
9.2438861260635843
 20
3.6731835425011279
 30
0.0
 11
9.2438861260635843
 21
3.6447985904065172
 31
0.0
  0
LINE
  5
BC
  8
0
  6
CONTINUOUS
 62
     7
 10
9.3501853414193103
 20
3.6978889637686598
 30
0.0
 11
9.3344373091752555
 21
3.6978889637686598
 31
0.0
  0
LINE
  5
BD
  8
0
  6
CONTINUOUS
 62
     7
 10
9.2497916370092845
 20
3.6999164603468468
 30
0.0
 11
9.2517601421856082
 21
3.6978889637686598
 31
0.0
  0
LINE
  5
BE
  8
0
  6
CONTINUOUS
 62
     7
 10
9.2517601421856082
 20
3.7018688644591742
 30
0.0
 11
9.2497916370092845
 21
3.6999164603468468
 31
0.0
  0
LINE
  5
BF
  8
0
  6
CONTINUOUS
 62
     7
 10
9.2517601421856082
 20
3.7136583815990001
 30
0.0
 11
9.2517601421856082
 21
3.7018688644591742
 31
0.0
  0
LINE
  5
C0
  8
0
  6
CONTINUOUS
 62
     7
 10
9.2517601421856082
 20
3.717638282289514
 30
0.0
 11
9.2497916370092845
 21
3.715610785711327
 31
0.0
  0
LINE
  5
C1
  8
0
  6
CONTINUOUS
 62
     7
 10
9.2517601421856082
 20
3.729427799429339
 30
0.0
 11
9.2517601421856082
 21
3.717638282289514
 31
0.0
  0
LINE
  5
C2
  8
0
  6
CONTINUOUS
 62
     7
 10
9.2497916370092845
 20
3.7313802035416672
 30
0.0
 11
9.2517601421856082
 21
3.729427799429339
 31
0.0
  0
LINE
  5
C3
  8
0
  6
CONTINUOUS
 62
     7
 10
9.4564845567750364
 20
3.9518516833029862
 30
0.0
 11
9.4564845567750364
 21
3.5974903369154978
 31
0.0
  0
LINE
  5
C4
  8
0
  6
CONTINUOUS
 62
     7
 10
9.2517601421856082
 20
3.7451972172596788
 30
0.0
 11
9.2517601421856082
 21
3.733332607653995
 31
0.0
  0
LINE
  5
C5
  8
0
  6
CONTINUOUS
 62
     7
 10
9.2497916370092845
 20
3.747149621372007
 30
0.0
 11
9.2517601421856082
 21
3.7451972172596788
 31
0.0
  0
LINE
  5
C6
  8
0
  6
CONTINUOUS
 62
     7
 10
9.2517601421856082
 20
3.7491020254843339
 30
0.0
 11
9.2497916370092845
 21
3.747149621372007
 31
0.0
  0
LINE
  5
C7
  8
0
  6
CONTINUOUS
 62
     7
 10
9.2497916370092845
 20
3.762843946736488
 30
0.0
 11
9.2517601421856082
 21
3.7608915426241598
 31
0.0
  0
LINE
  5
C8
  8
0
  6
CONTINUOUS
 62
     7
 10
9.2517601421856082
 20
3.7766609604544992
 30
0.0
 11
9.2517601421856082
 21
3.7648714433146742
 31
0.0
  0
LINE
  5
C9
  8
0
  6
CONTINUOUS
 62
     7
 10
9.2497916370092845
 20
3.7786133645668269
 30
0.0
 11
9.2517601421856082
 21
3.7766609604544992
 31
0.0
  0
LINE
  5
CA
  8
0
  6
CONTINUOUS
 62
     7
 10
9.2517601421856082
 20
3.7805657686791552
 30
0.0
 11
9.2497916370092845
 21
3.7786133645668269
 31
0.0
  0
LINE
  5
CB
  8
0
  6
CONTINUOUS
 62
     7
 10
9.2517601421856082
 20
3.792430378284839
 30
0.0
 11
9.2517601421856082
 21
3.7805657686791552
 31
0.0
  0
LINE
  5
CC
  8
0
  6
CONTINUOUS
 62
     7
 10
9.2497916370092845
 20
3.7943827823971659
 30
0.0
 11
9.2517601421856082
 21
3.792430378284839
 31
0.0
  0
LINE
  5
CD
  8
0
  6
CONTINUOUS
 62
     7
 10
9.2517601421856082
 20
3.7963351865094941
 30
0.0
 11
9.2497916370092845
 21
3.7943827823971659
 31
0.0
  0
LINE
  5
CE
  8
0
  6
CONTINUOUS
 62
     7
 10
9.2517601421856082
 20
3.8081247036493191
 30
0.0
 11
9.2517601421856082
 21
3.7963351865094941
 31
0.0
  0
LINE
  5
CF
  8
0
  6
CONTINUOUS
 62
     7
 10
9.2497916370092845
 20
3.8101522002275061
 30
0.0
 11
9.2517601421856082
 21
3.8081247036493191
 31
0.0
  0
LINE
  5
D0
  8
0
  6
CONTINUOUS
 62
     7
 10
9.2517601421856082
 20
3.8238941214796589
 30
0.0
 11
9.2517601421856082
 21
3.8121046043398339
 31
0.0
  0
LINE
  5
D1
  8
0
  6
CONTINUOUS
 62
     7
 10
9.2497916370092845
 20
3.8258465255919871
 30
0.0
 11
9.2517601421856082
 21
3.8238941214796589
 31
0.0
  0
LINE
  5
D2
  8
0
  6
CONTINUOUS
 62
     7
 10
9.2517601421856082
 20
3.8278740221701728
 30
0.0
 11
9.2497916370092845
 21
3.8258465255919871
 31
0.0
  0
LINE
  5
D3
  8
0
  6
CONTINUOUS
 62
     7
 10
9.2517601421856082
 20
3.8396635393099992
 30
0.0
 11
9.2517601421856082
 21
3.8278740221701728
 31
0.0
  0
LINE
  5
D4
  8
0
  6
CONTINUOUS
 62
     7
 10
9.2517601421856082
 20
3.8514530564498242
 30
0.0
 11
9.2517601421856082
 21
3.8435683475346538
 31
0.0
  0
LINE
  5
D5
  8
0
  6
CONTINUOUS
 62
     7
 10
9.3344373091752555
 20
3.8514530564498242
 30
0.0
 11
9.2517601421856082
 21
3.8514530564498242
 31
0.0
  0
LINE
  5
D6
  8
0
  6
CONTINUOUS
 62
     7
 10
9.3777443863882048
 20
3.5974903369154978
 30
0.0
 11
9.3501853414193103
 21
3.6447985904065172
 31
0.0
  0
ARC
  5
D7
  8
0
  6
CONTINUOUS
 62
     7
 10
9.2202640798957152
 20
3.6939805299082198
 30
0.0
 40
0.031496062992143
 50
318.59037789069481
 51
0.0
  0
LINE
  5
D8
  8
0
  6
CONTINUOUS
 62
     7
 10
9.0568782488945381
 20
3.6978889637686598
 30
0.0
 11
9.1395554204674632
 21
3.6978889637686598
 31
0.0
  0
LINE
  5
D9
  8
0
  6
CONTINUOUS
 62
     7
 10
8.9722325858951262
 20
3.758939138511832
 30
0.0
 11
9.0076656515693294
 21
3.758939138511832
 31
0.0
  0
LINE
  5
DA
  8
0
  6
CONTINUOUS
 62
     7
 10
8.9722325858951262
 20
3.710879960362226
 30
0.0
 11
8.9722325858951262
 21
3.758939138511832
 31
0.0
  0
LINE
  5
DB
  8
0
  6
CONTINUOUS
 62
     7
 10
9.2517601421856082
 20
3.7608915426241598
 30
0.0
 11
9.2517601421856082
 21
3.7491020254843339
 31
0.0
  0
LINE
  5
DC
  8
0
  6
CONTINUOUS
 62
     7
 10
9.0076656515693294
 20
3.790402881706652
 30
0.0
 11
8.9722325858951262
 21
3.790402881706652
 31
0.0
  0
LINE
  5
DD
  8
0
  6
CONTINUOUS
 62
     7
 10
8.9249884983295242
 20
3.84927537493992
 30
0.0
 11
8.9249884983295242
 21
3.8770595873076612
 31
0.0
  0
LINE
  5
DE
  8
0
  6
CONTINUOUS
 62
     7
 10
8.9249884983295242
 20
3.672357525376682
 30
0.0
 11
8.9249884983295242
 21
3.7001417377444228
 31
0.0
  0
LINE
  5
DF
  8
0
  6
CONTINUOUS
 62
     7
 10
9.2517601421856082
 20
3.8435683475346538
 30
0.0
 11
9.2497916370092845
 21
3.841615943422326
 31
0.0
  0
LINE
  5
E0
  8
0
  6
CONTINUOUS
 62
     7
 10
9.0076656515693294
 20
3.758939138511832
 30
0.0
 11
9.0076656515693294
 21
3.790402881706652
 31
0.0
  0
LINE
  5
E1
  8
0
  6
CONTINUOUS
 62
     7
 10
9.3501853414193103
 20
3.6447985904065172
 30
0.0
 11
9.3501853414193103
 21
3.6978889637686598
 31
0.0
  0
LINE
  5
E2
  8
0
  6
CONTINUOUS
 62
     7
 10
9.3344373091752555
 20
3.6978889637686598
 30
0.0
 11
9.3344373091752555
 21
3.8514530564498242
 31
0.0
  0
LINE
  5
E3
  8
0
  6
CONTINUOUS
 62
     7
 10
9.2517601421856082
 20
3.7648714433146742
 30
0.0
 11
9.2497916370092845
 21
3.762843946736488
 31
0.0
  0
LINE
  5
E4
  8
0
  6
CONTINUOUS
 62
     7
 10
9.2497916370092845
 20
3.841615943422326
 30
0.0
 11
9.2517601421856082
 21
3.8396635393099992
 31
0.0
  0
LINE
  5
E5
  8
0
  6
CONTINUOUS
 62
     7
 10
9.2517601421856082
 20
3.8121046043398339
 30
0.0
 11
9.2497916370092845
 21
3.8101522002275061
 31
0.0
  0
LINE
  5
E6
  8
0
  6
CONTINUOUS
 62
     7
 10
9.5942798366188722
 20
3.790402881706652
 30
0.0
 11
9.4564845567750364
 21
3.790402881706652
 31
0.0
  0
LINE
  5
E7
  8
0
  6
CONTINUOUS
 62
     7
 10
9.5942798366188722
 20
3.758939138511832
 30
0.0
 11
9.5194766674181324
 21
3.758939138511832
 31
0.0
  0
LINE
  5
E8
  8
0
  6
CONTINUOUS
 62
     7
 10
9.5942798366188722
 20
3.758939138511832
 30
0.0
 11
9.5942798366188722
 21
3.790402881706652
 31
0.0
  0
LINE
  5
E9
  8
0
  6
CONTINUOUS
 62
     7
 10
9.3501853414193103
 20
3.6447985904065172
 30
0.0
 11
9.2438861260635843
 21
3.6447985904065172
 31
0.0
  0
LINE
  5
EA
  8
0
  6
CONTINUOUS
 62
     7
 10
9.3777443863882048
 20
3.5974903369154978
 30
0.0
 11
9.1572719533045657
 21
3.5974903369154978
 31
0.0
  0
ARC
  5
EB
  8
0
  6
CONTINUOUS
 62
     7
 10
9.0230928557643786
 20
6.710514928152314
 30
0.0
 40
0.0121605392014261
 50
271.51183688305969
 51
3.9358351064698689
  0
LINE
  5
EC
  8
0
  6
CONTINUOUS
 62
     7
 10
9.0352247148713438
 20
6.830145899669251
 30
0.0
 11
9.0352247148713438
 21
6.837655146255126
 31
0.0
  0
LINE
  5
ED
  8
0
  6
CONTINUOUS
 62
     7
 10
9.0352247148713438
 20
6.7113496186806927
 30
0.0
 11
9.0352247148713438
 21
6.7038403720948159
 31
0.0
  0
ARC
  5
EE
  8
0
  6
CONTINUOUS
 62
     7
 10
9.0227160204693302
 20
6.8307100315426386
 30
0.0
 40
0.0125214088829309
 50
357.4177570242324
 51
86.805918330530943
  0
POLYLINE
  5
EF
  8
0
  6
CONTINUOUS
 62
     7
 66
     1
 10
0.0
 20
0.0
 30
0.0
 70
   128
  0
VERTEX
  5
8AF
  8
0
  6
CONTINUOUS
 62
     7
 10
8.9367995202209247
 20
6.6961809405772232
 30
0.0
  0
VERTEX
  5
8B0
  8
0
  6
CONTINUOUS
 62
     7
 10
8.9370544606091649
 20
6.6976827898943991
 30
0.0
  0
VERTEX
  5
8B1
  8
0
  6
CONTINUOUS
 62
     7
 10
8.9378027086320078
 20
6.6990344542798557
 30
0.0
  0
VERTEX
  5
8B2
  8
0
  6
CONTINUOUS
 62
     7
 10
8.9389281789638115
 20
6.7000106563360191
 30
0.0
  0
VERTEX
  5
8B3
  8
0
  6
CONTINUOUS
 62
     7
 10
8.9402052642108139
 20
6.7004612111311719
 30
0.0
  0
VERTEX
  5
8B4
  8
0
  6
CONTINUOUS
 62
     7
 10
8.9414525764684232
 20
6.7003861186653131
 30
0.0
  0
VERTEX
  5
8B5
  8
0
  6
CONTINUOUS
 62
     7
 10
8.9425856550456686
 20
6.6999355638701612
 30
0.0
  0
VERTEX
  5
8B6
  8
0
  6
CONTINUOUS
 62
     7
 10
8.9435535155315282
 20
6.6991846392115741
 30
0.0
  0
VERTEX
  5
8B7
  8
0
  6
CONTINUOUS
 62
     7
 10
8.9442797271422698
 20
6.6980582522236922
 30
0.0
  0
VERTEX
  5
8B8
  8
0
  6
CONTINUOUS
 62
     7
 10
8.9446502761949898
 20
6.696631495372376
 30
0.0
  0
VERTEX
  5
8B9
  8
0
  6
CONTINUOUS
 62
     7
 10
8.9446735225931118
 20
6.6961809405772232
 30
0.0
  0
SEQEND
  5
8BA
  8
0
  6
CONTINUOUS
 62
     7
  0
LINE
  5
F0
  8
0
  6
CONTINUOUS
 62
     7
 10
8.9367995202209247
 20
6.8453145777727196
 30
0.0
 11
8.9367995202209247
 21
6.6961809405772232
 31
0.0
  0
POLYLINE
  5
F1
  8
0
  6
CONTINUOUS
 62
     7
 66
     1
 10
0.0
 20
0.0
 30
0.0
 70
   128
  0
VERTEX
  5
8BB
  8
0
  6
CONTINUOUS
 62
     7
 10
8.9446735225931118
 20
6.8453145777727196
 30
0.0
  0
VERTEX
  5
8BC
  8
0
  6
CONTINUOUS
 62
     7
 10
8.9444185822048716
 20
6.8438127284555446
 30
0.0
  0
VERTEX
  5
8BD
  8
0
  6
CONTINUOUS
 62
     7
 10
8.9436703341820305
 20
6.842461064070088
 30
0.0
  0
VERTEX
  5
8BE
  8
0
  6
CONTINUOUS
 62
     7
 10
8.9425448638502232
 20
6.8414848620139228
 30
0.0
  0
VERTEX
  5
8BF
  8
0
  6
CONTINUOUS
 62
     7
 10
8.9412677786032226
 20
6.8410343072187709
 30
0.0
  0
VERTEX
  5
8C0
  8
0
  6
CONTINUOUS
 62
     7
 10
8.9400204663456151
 20
6.8411093996846288
 30
0.0
  0
VERTEX
  5
8C1
  8
0
  6
CONTINUOUS
 62
     7
 10
8.9388873877683679
 20
6.8415599544797816
 30
0.0
  0
VERTEX
  5
8C2
  8
0
  6
CONTINUOUS
 62
     7
 10
8.9379195272825083
 20
6.8423108791383704
 30
0.0
  0
VERTEX
  5
8C3
  8
0
  6
CONTINUOUS
 62
     7
 10
8.9371933156717667
 20
6.8434372661262506
 30
0.0
  0
VERTEX
  5
8C4
  8
0
  6
CONTINUOUS
 62
     7
 10
8.9368227666190485
 20
6.8448640229775677
 30
0.0
  0
VERTEX
  5
8C5
  8
0
  6
CONTINUOUS
 62
     7
 10
8.9367995202209247
 20
6.8453145777727196
 30
0.0
  0
SEQEND
  5
8C6
  8
0
  6
CONTINUOUS
 62
     7
  0
LINE
  5
F2
  8
0
  6
CONTINUOUS
 62
     7
 10
8.9446735225931118
 20
6.6961809405772232
 30
0.0
 11
8.9446735225931118
 21
6.8453145777727196
 31
0.0
  0
LINE
  5
F3
  8
0
  6
CONTINUOUS
 62
     7
 10
8.9722325858951262
 20
6.7069942556608853
 30
0.0
 11
8.9722325858951262
 21
6.6998604714043033
 31
0.0
  0
ARC
  5
F4
  8
0
  6
CONTINUOUS
 62
     7
 10
8.9804314601196715
 20
6.7065624310347234
 30
0.0
 40
0.0082102381851957
 50
176.9850874586254
 51
267.73239276280123
  0
ARC
  5
F5
  8
0
  6
CONTINUOUS
 62
     7
 10
8.9804805155046186
 20
6.8349597900911618
 30
0.0
 40
0.0082606652408624
 50
92.594309740373362
 51
183.18197066328679
  0
LINE
  5
F6
  8
0
  6
CONTINUOUS
 62
     7
 10
8.9722325858951262
 20
6.8345012626890593
 30
0.0
 11
8.9722325858951262
 21
6.8416350469456413
 31
0.0
  0
LINE
  5
F7
  8
0
  6
CONTINUOUS
 62
     7
 10
8.9249884983295242
 20
6.8453145777727196
 30
0.0
 11
8.9367995202209247
 21
6.8453145777727196
 31
0.0
  0
LINE
  5
F8
  8
0
  6
CONTINUOUS
 62
     7
 10
8.9367995202209247
 20
6.6961809405772232
 30
0.0
 11
8.9249884983295242
 21
6.6961809405772232
 31
0.0
  0
LINE
  5
F9
  8
0
  6
CONTINUOUS
 62
     7
 10
8.9249884983295242
 20
6.6961809405772232
 30
0.0
 11
8.9249884983295242
 21
6.8453145777727196
 31
0.0
  0
LINE
  5
FA
  8
0
  6
CONTINUOUS
 62
     7
 10
9.0479260573110203
 20
6.823387577741963
 30
0.0
 11
9.0568782488945381
 21
6.823387577741963
 31
0.0
  0
LINE
  5
FB
  8
0
  6
CONTINUOUS
 62
     7
 10
9.0568782488945381
 20
6.7181079406079807
 30
0.0
 11
9.0479260573110203
 21
6.7181079406079807
 31
0.0
  0
LINE
  5
FC
  8
0
  6
CONTINUOUS
 62
     7
 10
8.9801066066004331
 20
6.8432119887286751
 30
0.0
 11
9.0234136929799433
 21
6.8432119887286751
 31
0.0
  0
LINE
  5
FD
  8
0
  6
CONTINUOUS
 62
     7
 10
9.0234136929799433
 20
6.6983586220871274
 30
0.0
 11
8.9801066066004331
 21
6.6983586220871274
 31
0.0
  0
LINE
  5
FE
  8
0
  6
CONTINUOUS
 62
     7
 10
9.0352247148713438
 20
6.8210597113003413
 30
0.0
 11
9.1395554204674632
 21
6.8210597113003413
 31
0.0
  0
LINE
  5
FF
  8
0
  6
CONTINUOUS
 62
     7
 10
9.1395554204674632
 20
6.7204358070496033
 30
0.0
 11
9.0352247148713438
 21
6.7204358070496033
 31
0.0
  0
LINE
  5
100
  8
0
  6
CONTINUOUS
 62
     7
 10
8.9446735225931118
 20
6.8453145777727196
 30
0.0
 11
9.0391617160574373
 21
6.8453145777727196
 31
0.0
  0
LINE
  5
101
  8
0
  6
CONTINUOUS
 62
     7
 10
9.0391617160574373
 20
6.845539855170296
 30
0.0
 11
9.0391617160574373
 21
6.829770437339957
 31
0.0
  0
LINE
  5
102
  8
0
  6
CONTINUOUS
 62
     7
 10
9.0391617160574373
 20
6.7117250810099858
 30
0.0
 11
9.0391617160574373
 21
6.6958805707137881
 31
0.0
  0
LINE
  5
103
  8
0
  6
CONTINUOUS
 62
     7
 10
9.0391617160574373
 20
6.6961809405772232
 30
0.0
 11
8.9446735225931118
 21
6.6961809405772232
 31
0.0
  0
LINE
  5
104
  8
0
  6
CONTINUOUS
 62
     7
 10
9.2517601421856082
 20
6.7372565194019653
 30
0.0
 11
9.2497916370092845
 21
6.7353041152896367
 31
0.0
  0
LINE
  5
105
  8
0
  6
CONTINUOUS
 62
     7
 10
9.2497916370092845
 20
6.7353041152896367
 30
0.0
 11
9.2517601421856082
 21
6.7333517111773089
 31
0.0
  0
LINE
  5
106
  8
0
  6
CONTINUOUS
 62
     7
 10
9.2517601421856082
 20
6.7333517111773089
 30
0.0
 11
9.2517601421856082
 21
6.7215621940374843
 31
0.0
  0
LINE
  5
107
  8
0
  6
CONTINUOUS
 62
     7
 10
9.2517601421856082
 20
6.7215621940374843
 30
0.0
 11
9.2497916370092845
 21
6.7195346974592969
 31
0.0
  0
LINE
  5
108
  8
0
  6
CONTINUOUS
 62
     7
 10
9.2497916370092845
 20
6.7195346974592969
 30
0.0
 11
9.2517601421856082
 21
6.7175822933469691
 31
0.0
  0
LINE
  5
109
  8
0
  6
CONTINUOUS
 62
     7
 10
9.2497916370092845
 20
6.7038403720948159
 30
0.0
 11
9.2517601421856082
 21
6.7018879679824881
 31
0.0
  0
LINE
  5
10A
  8
0
  6
CONTINUOUS
 62
     7
 10
9.2517601421856082
 20
6.7018879679824881
 30
0.0
 11
9.2517601421856082
 21
6.6940032590673191
 31
0.0
  0
LINE
  5
10B
  8
0
  6
CONTINUOUS
 62
     7
 10
9.2517601421856082
 20
6.6940032590673191
 30
0.0
 11
9.3344373091752555
 21
6.6940032590673191
 31
0.0
  0
LINE
  5
10C
  8
0
  6
CONTINUOUS
 62
     7
 10
9.3344373091752555
 20
6.6940032590673191
 30
0.0
 11
9.3344373091752555
 21
6.8474922592826237
 31
0.0
  0
LINE
  5
10D
  8
0
  6
CONTINUOUS
 62
     7
 10
9.3344373091752555
 20
6.8474922592826237
 30
0.0
 11
9.3501853414193103
 21
6.8474922592826237
 31
0.0
  0
LINE
  5
10E
  8
0
  6
CONTINUOUS
 62
     7
 10
9.0391617160574373
 20
6.6961809405772232
 30
0.0
 11
9.0479260573110203
 21
6.7181079406079807
 31
0.0
  0
LINE
  5
10F
  8
0
  6
CONTINUOUS
 62
     7
 10
9.0352247148713438
 20
6.7204358070496033
 30
0.0
 11
9.0352247148713438
 21
6.7113496186806927
 31
0.0
  0
LINE
  5
110
  8
0
  6
CONTINUOUS
 62
     7
 10
9.0076656515693294
 20
6.754978341344632
 30
0.0
 11
9.0076656515693294
 21
6.7865171770053108
 31
0.0
  0
LINE
  5
111
  8
0
  6
CONTINUOUS
 62
     7
 10
9.0352247148713438
 20
6.830145899669251
 30
0.0
 11
9.0352247148713438
 21
6.8210597113003413
 31
0.0
  0
LINE
  5
112
  8
0
  6
CONTINUOUS
 62
     7
 10
9.0479260573110203
 20
6.823387577741963
 30
0.0
 11
9.0391617160574373
 21
6.8453145777727196
 31
0.0
  0
LINE
  5
113
  8
0
  6
CONTINUOUS
 62
     7
 10
9.1572719533045657
 20
6.9478908861357862
 30
0.0
 11
9.2438861260635843
 21
6.9006577251106256
 31
0.0
  0
LINE
  5
114
  8
0
  6
CONTINUOUS
 62
     7
 10
9.2438861260635843
 20
6.9006577251106256
 30
0.0
 11
9.2438861260635843
 21
6.8722727730160154
 31
0.0
  0
ARC
  5
115
  8
0
  6
CONTINUOUS
 62
     7
 10
9.2202640798955766
 20
6.8514608448694636
 30
0.0
 40
0.0314960629921424
 50
0.0
 51
41.409622109304742
  0
LINE
  5
116
  8
0
  6
CONTINUOUS
 62
     7
 10
9.2517601421856082
 20
6.8514721599731381
 30
0.0
 11
9.2517601421856082
 21
6.8474922592826237
 31
0.0
  0
LINE
  5
117
  8
0
  6
CONTINUOUS
 62
     7
 10
9.2517601421856082
 20
6.8474922592826237
 30
0.0
 11
9.2497916370092845
 21
6.845539855170296
 31
0.0
  0
LINE
  5
118
  8
0
  6
CONTINUOUS
 62
     7
 10
9.2497916370092845
 20
6.845539855170296
 30
0.0
 11
9.2517601421856082
 21
6.8435874510579691
 31
0.0
  0
LINE
  5
119
  8
0
  6
CONTINUOUS
 62
     7
 10
9.2517601421856082
 20
6.8317979339181427
 30
0.0
 11
9.2497916370092845
 21
6.829770437339957
 31
0.0
  0
LINE
  5
11A
  8
0
  6
CONTINUOUS
 62
     7
 10
9.2497916370092845
 20
6.829770437339957
 30
0.0
 11
9.2517601421856082
 21
6.8278180332276293
 31
0.0
  0
LINE
  5
11B
  8
0
  6
CONTINUOUS
 62
     7
 10
9.2517601421856082
 20
6.8278180332276293
 30
0.0
 11
9.2517601421856082
 21
6.8160285160878038
 31
0.0
  0
LINE
  5
11C
  8
0
  6
CONTINUOUS
 62
     7
 10
9.2517601421856082
 20
6.8160285160878038
 30
0.0
 11
9.2497916370092845
 21
6.814076111975476
 31
0.0
  0
LINE
  5
11D
  8
0
  6
CONTINUOUS
 62
     7
 10
9.2497916370092845
 20
6.814076111975476
 30
0.0
 11
9.2517601421856082
 21
6.8121237078631491
 31
0.0
  0
LINE
  5
11E
  8
0
  6
CONTINUOUS
 62
     7
 10
9.2517601421856082
 20
6.8121237078631491
 30
0.0
 11
9.2517601421856082
 21
6.800259098257464
 31
0.0
  0
LINE
  5
11F
  8
0
  6
CONTINUOUS
 62
     7
 10
9.2517601421856082
 20
6.800259098257464
 30
0.0
 11
9.2497916370092845
 21
6.7983066941451371
 31
0.0
  0
LINE
  5
120
  8
0
  6
CONTINUOUS
 62
     7
 10
9.2497916370092845
 20
6.7983066941451371
 30
0.0
 11
9.2517601421856082
 21
6.7963542900328093
 31
0.0
  0
LINE
  5
121
  8
0
  6
CONTINUOUS
 62
     7
 10
9.2517601421856082
 20
6.7963542900328093
 30
0.0
 11
9.2517601421856082
 21
6.784564772892983
 31
0.0
  0
LINE
  5
122
  8
0
  6
CONTINUOUS
 62
     7
 10
9.2517601421856082
 20
6.784564772892983
 30
0.0
 11
9.2497916370092845
 21
6.7825372763147973
 31
0.0
  0
LINE
  5
123
  8
0
  6
CONTINUOUS
 62
     7
 10
9.2497916370092845
 20
6.7825372763147973
 30
0.0
 11
9.2517601421856082
 21
6.7805848722024686
 31
0.0
  0
LINE
  5
124
  8
0
  6
CONTINUOUS
 62
     7
 10
9.2517601421856082
 20
6.7805848722024686
 30
0.0
 11
9.2517601421856082
 21
6.7687953550626441
 31
0.0
  0
LINE
  5
125
  8
0
  6
CONTINUOUS
 62
     7
 10
9.2517601421856082
 20
6.7687953550626441
 30
0.0
 11
9.2497916370092845
 21
6.7668429509503163
 31
0.0
  0
LINE
  5
126
  8
0
  6
CONTINUOUS
 62
     7
 10
9.2517601421856082
 20
6.7648154543721288
 30
0.0
 11
9.2517601421856082
 21
6.7530259372323052
 31
0.0
  0
LINE
  5
127
  8
0
  6
CONTINUOUS
 62
     7
 10
9.4564845567750364
 20
6.5936046322141566
 30
0.0
 11
9.2202640799891427
 21
6.5936046322141566
 31
0.0
  0
LINE
  5
128
  8
0
  6
CONTINUOUS
 62
     7
 10
9.4564845567750364
 20
6.9478908861357862
 30
0.0
 11
9.4564845567750364
 21
6.5936046322141566
 31
0.0
  0
LINE
  5
129
  8
0
  6
CONTINUOUS
 62
     7
 10
9.2202640799891427
 20
6.5936046322141566
 30
0.0
 11
8.9249884983295242
 21
6.6683967282094816
 31
0.0
  0
LINE
  5
12A
  8
0
  6
CONTINUOUS
 62
     7
 10
9.0568782488945381
 20
6.7181079406079807
 30
0.0
 11
9.0568782488945381
 21
6.6940032590673191
 31
0.0
  0
LINE
  5
12B
  8
0
  6
CONTINUOUS
 62
     7
 10
9.0568782488945381
 20
6.8474922592826237
 30
0.0
 11
9.0568782488945381
 21
6.823387577741963
 31
0.0
  0
LINE
  5
12C
  8
0
  6
CONTINUOUS
 62
     7
 10
9.1395554204674632
 20
6.8210597113003413
 30
0.0
 11
9.1395554204674632
 21
6.8474922592826237
 31
0.0
  0
LINE
  5
12D
  8
0
  6
CONTINUOUS
 62
     7
 10
9.1395554204674632
 20
6.6940032590673191
 30
0.0
 11
9.1395554204674632
 21
6.7204358070496033
 31
0.0
  0
LINE
  5
12E
  8
0
  6
CONTINUOUS
 62
     7
 10
9.0568782488945381
 20
6.6940032590673191
 30
0.0
 11
9.1395554204674632
 21
6.6940032590673191
 31
0.0
  0
LINE
  5
12F
  8
0
  6
CONTINUOUS
 62
     7
 10
9.1395554204674632
 20
6.8474922592826237
 30
0.0
 11
9.0568782488945381
 21
6.8474922592826237
 31
0.0
  0
LINE
  5
130
  8
0
  6
CONTINUOUS
 62
     7
 10
9.2497916370092845
 20
6.7510735331199774
 30
0.0
 11
9.2517601421856082
 21
6.7491211290076487
 31
0.0
  0
LINE
  5
131
  8
0
  6
CONTINUOUS
 62
     7
 10
9.2517601421856082
 20
6.7491211290076487
 30
0.0
 11
9.2517601421856082
 21
6.7372565194019653
 31
0.0
  0
LINE
  5
132
  8
0
  6
CONTINUOUS
 62
     7
 10
9.0076656515693294
 20
6.7865171770053108
 30
0.0
 11
8.9722325858951262
 21
6.7865171770053108
 31
0.0
  0
LINE
  5
133
  8
0
  6
CONTINUOUS
 62
     7
 10
8.9722325858951262
 20
6.7865171770053108
 30
0.0
 11
8.9722325858951262
 21
6.8345012626890593
 31
0.0
  0
LINE
  5
134
  8
0
  6
CONTINUOUS
 62
     7
 10
9.2517601421856082
 20
6.7175822933469691
 30
0.0
 11
9.2517601421856082
 21
6.7057927762071436
 31
0.0
  0
LINE
  5
135
  8
0
  6
CONTINUOUS
 62
     7
 10
8.9722325858951262
 20
6.754978341344632
 30
0.0
 11
9.0076656515693294
 21
6.754978341344632
 31
0.0
  0
LINE
  5
136
  8
0
  6
CONTINUOUS
 62
     7
 10
8.9722325858951262
 20
6.7069942556608853
 30
0.0
 11
8.9722325858951262
 21
6.754978341344632
 31
0.0
  0
LINE
  5
137
  8
0
  6
CONTINUOUS
 62
     7
 10
8.9249884983295242
 20
6.8730987901404621
 30
0.0
 11
9.1277443939927831
 21
6.9361013689959607
 31
0.0
  0
LINE
  5
138
  8
0
  6
CONTINUOUS
 62
     7
 10
9.1277443939927831
 20
6.9361013689959607
 30
0.0
 11
9.1277443939927831
 21
6.9478908861357862
 31
0.0
  0
LINE
  5
139
  8
0
  6
CONTINUOUS
 62
     7
 10
9.3777443863882048
 20
6.9478908861357862
 30
0.0
 11
9.4564845567750364
 21
6.9478908861357862
 31
0.0
  0
LINE
  5
13A
  8
0
  6
CONTINUOUS
 62
     7
 10
9.1277443939927831
 20
6.9478908861357862
 30
0.0
 11
9.1572719533045657
 21
6.9478908861357862
 31
0.0
  0
LINE
  5
13B
  8
0
  6
CONTINUOUS
 62
     7
 10
9.2517601421856082
 20
6.8435874510579691
 30
0.0
 11
9.2517601421856082
 21
6.8317979339181427
 31
0.0
  0
LINE
  5
13C
  8
0
  6
CONTINUOUS
 62
     7
 10
9.2497916370092845
 20
6.7668429509503163
 30
0.0
 11
9.2517601421856082
 21
6.7648154543721288
 31
0.0
  0
LINE
  5
13D
  8
0
  6
CONTINUOUS
 62
     7
 10
9.2517601421856082
 20
6.7530259372323052
 30
0.0
 11
9.2497916370092845
 21
6.7510735331199774
 31
0.0
  0
LINE
  5
13E
  8
0
  6
CONTINUOUS
 62
     7
 10
9.2517601421856082
 20
6.7057927762071436
 30
0.0
 11
9.2497916370092845
 21
6.7038403720948159
 31
0.0
  0
LINE
  5
13F
  8
0
  6
CONTINUOUS
 62
     7
 10
9.3501853414193103
 20
6.8474922592826237
 30
0.0
 11
9.3501853414193103
 21
6.9006577251106256
 31
0.0
  0
LINE
  5
140
  8
0
  6
CONTINUOUS
 62
     7
 10
9.3501853414193103
 20
6.9006577251106256
 30
0.0
 11
9.3777443863882048
 21
6.9478908861357862
 31
0.0
  0
LINE
  5
141
  8
0
  6
CONTINUOUS
 62
     7
 10
8.9249884983295242
 20
6.8453145777727196
 30
0.0
 11
8.9249884983295242
 21
6.8730987901404621
 31
0.0
  0
LINE
  5
142
  8
0
  6
CONTINUOUS
 62
     7
 10
8.9249884983295242
 20
6.6683967282094816
 30
0.0
 11
8.9249884983295242
 21
6.6961809405772232
 31
0.0
  0
LINE
  5
143
  8
0
  6
CONTINUOUS
 62
     7
 10
9.5194766674181324
 20
6.7865171770053108
 30
0.0
 11
9.5942798366188722
 21
6.7865171770053108
 31
0.0
  0
LINE
  5
144
  8
0
  6
CONTINUOUS
 62
     7
 10
9.5942798366188722
 20
6.7865171770053108
 30
0.0
 11
9.5942798366188722
 21
6.754978341344632
 31
0.0
  0
LINE
  5
145
  8
0
  6
CONTINUOUS
 62
     7
 10
9.4564845567750364
 20
6.754978341344632
 30
0.0
 11
9.5942798366188722
 21
6.754978341344632
 31
0.0
  0
LINE
  5
146
  8
0
  6
CONTINUOUS
 62
     7
 10
9.2438861260635843
 20
6.9006577251106256
 30
0.0
 11
9.3501853414193103
 21
6.9006577251106256
 31
0.0
  0
LINE
  5
147
  8
0
  6
CONTINUOUS
 62
     7
 10
9.1572719533045657
 20
6.9478908861357862
 30
0.0
 11
9.3777443863882048
 21
6.9478908861357862
 31
0.0
  0
LINE
  5
148
  8
0
  6
CONTINUOUS
 62
     7
 10
9.5194766674181324
 20
3.777486977578945
 30
0.0
 11
9.5194766674181324
 21
3.5621217854960219
 31
0.0
  0
LINE
  5
149
  8
0
  6
CONTINUOUS
 62
     7
 10
9.4564845567750364
 20
3.5621217854960219
 30
0.0
 11
9.5194766674181324
 21
3.5621217854960219
 31
0.0
  0
LINE
  5
14A
  8
0
  6
CONTINUOUS
 62
     7
 10
9.4564845567750364
 20
3.777486977578945
 30
0.0
 11
9.4564845567750364
 21
3.5621217854960219
 31
0.0
  0
LINE
  5
14B
  8
0
  6
CONTINUOUS
 62
     7
 10
9.5194766674181324
 20
3.777486977578945
 30
0.0
 11
9.4564845567750364
 21
3.777486977578945
 31
0.0
  0
LINE
  5
14C
  8
0
  6
CONTINUOUS
 62
     7
 10
9.5194766674181324
 20
3.790402881706652
 30
0.0
 11
9.5194766674181324
 21
3.7916043611603918
 31
0.0
  0
LINE
  5
14D
  8
0
  6
CONTINUOUS
 62
     7
 10
9.4564845567750364
 20
3.7916043611603918
 30
0.0
 11
9.5194766674181324
 21
3.7916043611603918
 31
0.0
  0
LINE
  5
14E
  8
0
  6
CONTINUOUS
 62
     7
 10
9.5194766674181324
 20
6.753851954356751
 30
0.0
 11
9.5194766674181324
 21
6.754978341344632
 31
0.0
  0
LINE
  5
14F
  8
0
  6
CONTINUOUS
 62
     7
 10
9.5194766674181324
 20
6.753851954356751
 30
0.0
 11
9.4564845567750364
 21
6.753851954356751
 31
0.0
  0
LINE
  5
150
  8
0
  6
CONTINUOUS
 62
     7
 10
9.4564845567750364
 20
6.7679693379381982
 30
0.0
 11
9.5194766674181324
 21
6.7679693379381982
 31
0.0
  0
LINE
  5
151
  8
0
  6
CONTINUOUS
 62
     7
 10
9.5194766674181324
 20
6.9833345300211214
 30
0.0
 11
9.5194766674181324
 21
6.7679693379381982
 31
0.0
  0
LINE
  5
152
  8
0
  6
CONTINUOUS
 62
     7
 10
9.4564845567750364
 20
6.9833345300211214
 30
0.0
 11
9.4564845567750364
 21
6.7679693379381982
 31
0.0
  0
LINE
  5
153
  8
0
  6
CONTINUOUS
 62
     7
 10
9.5194766674181324
 20
6.9833345300211214
 30
0.0
 11
9.4564845567750364
 21
6.9833345300211214
 31
0.0
  0
LINE
  5
154
  8
0
  6
CONTINUOUS
 62
     7
 10
9.5194766674181324
 20
6.753851954356751
 30
0.0
 11
9.5194766674181324
 21
3.7916043611603918
 31
0.0
  0
LINE
  5
155
  8
0
  6
CONTINUOUS
 62
     7
 10
9.4564845567750364
 20
6.753851954356751
 30
0.0
 11
9.4564845567750364
 21
3.7916043611603918
 31
0.0
  0
LINE
  5
156
  8
0
  6
CONTINUOUS
 62
     7
 10
9.8619963939343585
 20
6.561239779429032
 30
0.0
 11
9.6966420507885065
 21
6.561239779429032
 31
0.0
  0
LINE
  5
157
  8
0
  6
CONTINUOUS
 62
     7
 10
9.6966420507885065
 20
6.5215158649897482
 30
0.0
 11
9.8619963939343585
 21
6.5215158649897482
 31
0.0
  0
LINE
  5
158
  8
0
  6
CONTINUOUS
 62
     7
 10
9.8619963939343585
 20
6.5215158649897482
 30
0.0
 11
9.8619963939343585
 21
6.561239779429032
 31
0.0
  0
LINE
  5
159
  8
0
  6
CONTINUOUS
 62
     7
 10
9.8619963939343585
 20
6.213411477571257
 30
0.0
 11
9.6966420507885065
 21
6.213411477571257
 31
0.0
  0
LINE
  5
15A
  8
0
  6
CONTINUOUS
 62
     7
 10
9.6966420507885065
 20
6.213411477571257
 30
0.0
 11
9.6966420507885065
 21
6.5215158649897482
 31
0.0
  0
LINE
  5
15B
  8
0
  6
CONTINUOUS
 62
     7
 10
9.8619963939343585
 20
6.213411477571257
 30
0.0
 11
9.8619963939343585
 21
6.5215158649897482
 31
0.0
  0
LINE
  5
15C
  8
0
  6
CONTINUOUS
 62
     7
 10
9.8619963939343585
 20
6.0340906691005376
 30
0.0
 11
9.8619963939343585
 21
6.213411477571257
 31
0.0
  0
LINE
  5
15D
  8
0
  6
CONTINUOUS
 62
     7
 10
9.7675081821369094
 20
6.0132149635918033
 30
0.0
 11
9.7675081821369094
 21
6.0139658882503904
 31
0.0
  0
LINE
  5
15E
  8
0
  6
CONTINUOUS
 62
     7
 10
9.6966420507885065
 20
6.0139658882503904
 30
0.0
 11
9.7675081821369094
 21
6.0139658882503904
 31
0.0
  0
LINE
  5
15F
  8
0
  6
CONTINUOUS
 62
     7
 10
9.8619963939343585
 20
6.0132149635918033
 30
0.0
 11
9.8619963939343585
 21
6.0340906691005376
 31
0.0
  0
LINE
  5
160
  8
0
  6
CONTINUOUS
 62
     7
 10
9.8019464009703334
 20
5.9517893265193367
 30
0.0
 11
9.8619963939343585
 21
5.9870076930070946
 31
0.0
  0
LINE
  5
161
  8
0
  6
CONTINUOUS
 62
     7
 10
9.7675081821369094
 20
6.0132149635918033
 30
0.0
 11
9.7675081821369094
 21
5.9517893265193367
 31
0.0
  0
LINE
  5
162
  8
0
  6
CONTINUOUS
 62
     7
 10
9.8619963939343585
 20
5.9870076930070946
 30
0.0
 11
9.8619963939343585
 21
6.0132149635918033
 31
0.0
  0
LINE
  5
163
  8
0
  6
CONTINUOUS
 62
     7
 10
9.7675081821369094
 20
5.9431536929455788
 30
0.0
 11
9.7871932247336169
 21
5.9431536929455788
 31
0.0
  0
ARC
  5
164
  8
0
  6
CONTINUOUS
 62
     7
 10
9.8594478047777105
 20
5.8366334987643471
 30
0.0
 40
0.1287139312807906
 50
116.5345890173318
 51
124.1497565447639
  0
LINE
  5
165
  8
0
  6
CONTINUOUS
 62
     7
 10
9.7675081821369094
 20
5.9517893265193367
 30
0.0
 11
9.7675081821369094
 21
5.9431536929455788
 31
0.0
  0
LINE
  5
166
  8
0
  6
CONTINUOUS
 62
     7
 10
9.6572719655950898
 20
7.0476136807962186
 30
0.0
 11
9.6572719655950898
 21
7.2620026708229792
 31
0.0
  0
LINE
  5
167
  8
0
  6
CONTINUOUS
 62
     7
 10
9.7163270567189706
 20
7.2620026708229792
 30
0.0
 11
9.6572719655950898
 21
7.2620026708229792
 31
0.0
  0
ARC
  5
168
  8
0
  6
CONTINUOUS
 62
     7
 10
9.7163270720218318
 20
7.183294365679048
 30
0.0
 40
0.0787401574803166
 50
0.0
 51
90.0
  0
LINE
  5
169
  8
0
  6
CONTINUOUS
 62
     7
 10
9.7950672271058021
 20
7.0452107218887381
 30
0.0
 11
9.7950672271058021
 21
7.1833057666029978
 31
0.0
  0
LINE
  5
16A
  8
0
  6
CONTINUOUS
 62
     7
 10
8.6730199824246554
 20
6.8457651325678732
 30
0.0
 11
8.6730199824246554
 21
6.8369793140623978
 31
0.0
  0
LINE
  5
16B
  8
0
  6
CONTINUOUS
 62
     7
 10
8.6730199824246554
 20
6.696631495372376
 30
0.0
 11
8.6730199824246554
 21
6.6878456768669006
 31
0.0
  0
LINE
  5
16C
  8
0
  6
CONTINUOUS
 62
     7
 10
8.6730199824246554
 20
6.6878456768669006
 30
0.0
 11
8.6336498972312388
 21
6.6878456768669006
 31
0.0
  0
LINE
  5
16D
  8
0
  6
CONTINUOUS
 62
     7
 10
8.6336498972312388
 20
6.6878456768669006
 30
0.0
 11
8.6336498972312388
 21
6.8457651325678732
 31
0.0
  0
LINE
  5
16E
  8
0
  6
CONTINUOUS
 62
     7
 10
8.6336498972312388
 20
6.8457651325678732
 30
0.0
 11
8.6730199824246554
 21
6.8457651325678732
 31
0.0
  0
LINE
  5
16F
  8
0
  6
CONTINUOUS
 62
     7
 10
9.1023430886808292
 20
7.0266628828216247
 30
0.0
 11
9.1023430886808292
 21
7.0383773074955922
 31
0.0
  0
LINE
  5
170
  8
0
  6
CONTINUOUS
 62
     7
 10
8.6730199824246554
 20
6.9951991396268047
 30
0.0
 11
9.3779336392019381
 21
6.9951991396268047
 31
0.0
  0
LINE
  5
171
  8
0
  6
CONTINUOUS
 62
     7
 10
8.6336498972312388
 20
6.8457651325678732
 30
0.0
 11
8.6336498972312388
 21
6.993171643048619
 31
0.0
  0
LINE
  5
172
  8
0
  6
CONTINUOUS
 62
     7
 10
8.6139648546345313
 20
6.993171643048619
 30
0.0
 11
8.6336498972312388
 21
6.993171643048619
 31
0.0
  0
LINE
  5
173
  8
0
  6
CONTINUOUS
 62
     7
 10
8.6730199824246554
 20
6.9951991396268047
 30
0.0
 11
8.6730199824246554
 21
6.8457651325678732
 31
0.0
  0
LINE
  5
174
  8
0
  6
CONTINUOUS
 62
     7
 10
9.3779336392019381
 20
7.0266628828216247
 30
0.0
 11
9.3779336392019381
 21
6.9951991396268047
 31
0.0
  0
LINE
  5
175
  8
0
  6
CONTINUOUS
 62
     7
 10
9.3779336392019381
 20
7.0266628828216247
 30
0.0
 11
9.1023430886808292
 21
7.0266628828216247
 31
0.0
  0
LINE
  5
176
  8
0
  6
CONTINUOUS
 62
     7
 10
9.1023430886808292
 20
7.0383773074955922
 30
0.0
 11
8.8698703717254936
 21
7.0404048040737779
 31
0.0
  0
LINE
  5
177
  8
0
  6
CONTINUOUS
 62
     7
 10
8.8698703717254936
 20
7.0404048040737779
 30
0.0
 11
8.6139648546345313
 21
7.0382271225638737
 31
0.0
  0
LINE
  5
178
  8
0
  6
CONTINUOUS
 62
     7
 10
8.6139648546345313
 20
7.0382271225638737
 30
0.0
 11
8.6139648546345313
 21
6.993171643048619
 31
0.0
  0
LINE
  5
179
  8
0
  6
CONTINUOUS
 62
     7
 10
8.6336498972312388
 20
6.5404391663861547
 30
0.0
 11
8.6139648546345313
 21
6.5404391663861547
 31
0.0
  0
LINE
  5
17A
  8
0
  6
CONTINUOUS
 62
     7
 10
8.6336498972312388
 20
6.5404391663861547
 30
0.0
 11
8.6336498972312388
 21
6.6878456768669006
 31
0.0
  0
LINE
  5
17B
  8
0
  6
CONTINUOUS
 62
     7
 10
8.6730199824246554
 20
6.6878456768669006
 30
0.0
 11
8.6730199824246554
 21
6.5423915704984834
 31
0.0
  0
LINE
  5
17C
  8
0
  6
CONTINUOUS
 62
     7
 10
9.0076656515693294
 20
6.493206005360995
 30
0.0
 11
8.8698703717254936
 21
6.493206005360995
 31
0.0
  0
LINE
  5
17D
  8
0
  6
CONTINUOUS
 62
     7
 10
9.0076656515693294
 20
6.5423915704984834
 30
0.0
 11
9.0076656515693294
 21
6.493206005360995
 31
0.0
  0
LINE
  5
17E
  8
0
  6
CONTINUOUS
 62
     7
 10
8.6139648546345313
 20
6.5404391663861547
 30
0.0
 11
8.6139648546345313
 21
6.495458779336758
 31
0.0
  0
LINE
  5
17F
  8
0
  6
CONTINUOUS
 62
     7
 10
9.0076656515693294
 20
6.5423915704984834
 30
0.0
 11
8.6730199824246554
 21
6.5423915704984834
 31
0.0
  0
LINE
  5
180
  8
0
  6
CONTINUOUS
 62
     7
 10
8.8698703717254936
 20
6.493206005360995
 30
0.0
 11
8.6139648546345313
 21
6.495458779336758
 31
0.0
  0
LINE
  5
181
  8
0
  6
CONTINUOUS
 62
     7
 10
8.6533349398279462
 20
6.696631495372376
 30
0.0
 11
8.6533349398279462
 21
6.8369793140623978
 31
0.0
  0
LINE
  5
182
  8
0
  6
CONTINUOUS
 62
     7
 10
8.6730199824246554
 20
6.8369793140623978
 30
0.0
 11
8.6730199824246554
 21
6.696631495372376
 31
0.0
  0
LINE
  5
183
  8
0
  6
CONTINUOUS
 62
     7
 10
8.6533349398279462
 20
6.8369793140623978
 30
0.0
 11
8.6730199824246554
 21
6.8369793140623978
 31
0.0
  0
LINE
  5
184
  8
0
  6
CONTINUOUS
 62
     7
 10
8.6730199824246554
 20
6.696631495372376
 30
0.0
 11
8.6533349398279462
 21
6.696631495372376
 31
0.0
  0
LINE
  5
185
  8
0
  6
CONTINUOUS
 62
     7
 10
8.9486105421123252
 20
6.493206005360995
 30
0.0
 11
8.8698703717254936
 21
6.4616671697003163
 31
0.0
  0
ARC
  5
186
  8
0
  6
CONTINUOUS
 62
     7
 10
9.0273506940690496
 20
6.9642590137526863
 30
0.0
 40
0.0196850393700796
 50
0.0
 51
89.500000000012079
  0
LINE
  5
187
  8
0
  6
CONTINUOUS
 62
     7
 10
9.0470357367627461
 20
6.5142318958014478
 30
0.0
 11
9.0470357367627461
 21
6.6374586322756732
 31
0.0
  0
LINE
  5
188
  8
0
  6
CONTINUOUS
 62
     7
 10
9.0470357367627461
 20
6.9110204853991348
 30
0.0
 11
9.0470357367627461
 21
6.9642610436929964
 31
0.0
  0
ARC
  5
189
  8
0
  6
CONTINUOUS
 62
     7
 10
9.0273506940690496
 20
6.5142532271667486
 30
0.0
 40
0.0196850393700769
 50
270.49999999998857
 51
0.0
  0
LINE
  5
18A
  8
0
  6
CONTINUOUS
 62
     7
 10
9.0076656515693294
 20
6.4944074848147348
 30
0.0
 11
9.027522475514937
 21
6.4945576697464533
 31
0.0
  0
LINE
  5
18B
  8
0
  6
CONTINUOUS
 62
     7
 10
8.8698703717254936
 20
6.9852869341334491
 30
0.0
 11
8.8698703717254936
 21
6.5423915704984834
 31
0.0
  0
LINE
  5
18C
  8
0
  6
CONTINUOUS
 62
     7
 10
9.027522475514937
 20
6.9839352697479908
 30
0.0
 11
8.8698703717254936
 21
6.9852869341334491
 31
0.0
  0
LINE
  5
18D
  8
0
  6
CONTINUOUS
 62
     7
 10
8.6139648546345313
 20
6.993171643048619
 30
0.0
 11
8.6139648546345313
 21
6.5404391663861547
 31
0.0
  0
LINE
  5
18E
  8
0
  6
CONTINUOUS
 62
     7
 10
7.710421615776462
 20
6.0108870971501807
 30
0.0
 11
7.710421615776462
 21
4.534569218366963
 31
0.0
  0
LINE
  5
18F
  8
0
  6
CONTINUOUS
 62
     7
 10
7.7202640087429639
 20
4.534569218366963
 30
0.0
 11
7.710421615776462
 21
4.534569218366963
 31
0.0
  0
LINE
  5
190
  8
0
  6
CONTINUOUS
 62
     7
 10
7.6316814453896287
 20
6.0581202581753413
 30
0.0
 11
7.6316814453896287
 21
4.4872609648759427
 31
0.0
  0
LINE
  5
191
  8
0
  6
CONTINUOUS
 62
     7
 10
7.710421615776462
 20
6.0108870971501807
 30
0.0
 11
7.7202640087429639
 21
6.0108870971501807
 31
0.0
  0
LINE
  5
192
  8
0
  6
CONTINUOUS
 62
     7
 10
7.6218389057581541
 20
6.0581202581753413
 30
0.0
 11
7.6316814453896287
 21
6.0581202581753413
 31
0.0
  0
LINE
  5
193
  8
0
  6
CONTINUOUS
 62
     7
 10
7.7202640087429639
 20
4.534569218366963
 30
0.0
 11
7.7202640087429639
 21
4.4479125127659529
 31
0.0
  0
LINE
  5
194
  8
0
  6
CONTINUOUS
 62
     7
 10
7.7202640087429639
 20
6.097543802751189
 30
0.0
 11
7.7202640087429639
 21
6.0108870971501807
 31
0.0
  0
LINE
  5
195
  8
0
  6
CONTINUOUS
 62
     7
 10
7.6218389057581541
 20
6.097543802751189
 30
0.0
 11
7.7202640087429639
 21
6.097543802751189
 31
0.0
  0
LINE
  5
196
  8
0
  6
CONTINUOUS
 62
     7
 10
7.7202640087429639
 20
4.4479125127659529
 30
0.0
 11
7.6218389057581541
 21
4.4479125127659529
 31
0.0
  0
LINE
  5
197
  8
0
  6
CONTINUOUS
 62
     7
 10
7.6218389057581541
 20
4.4872609648759427
 30
0.0
 11
7.6218389057581541
 21
4.4479125127659529
 31
0.0
  0
LINE
  5
198
  8
0
  6
CONTINUOUS
 62
     7
 10
7.6218389057581541
 20
6.097543802751189
 30
0.0
 11
7.6218389057581541
 21
6.0581202581753413
 31
0.0
  0
LINE
  5
199
  8
0
  6
CONTINUOUS
 62
     7
 10
7.6316814453896287
 20
4.4872609648759427
 30
0.0
 11
7.6218389057581541
 21
4.4872609648759427
 31
0.0
  0
LINE
  5
19A
  8
0
  6
CONTINUOUS
 62
     7
 10
7.7202640087429639
 20
5.9691356861327112
 30
0.0
 11
7.7202640087429639
 21
4.5763206293844334
 31
0.0
  0
LINE
  5
19B
  8
0
  6
CONTINUOUS
 62
     7
 10
7.8344372631371213
 20
5.18013914735472
 30
0.0
 11
7.8344372631371213
 21
5.3651669832307052
 31
0.0
  0
LINE
  5
19C
  8
0
  6
CONTINUOUS
 62
     7
 10
7.8344372631371213
 20
5.3651669832307052
 30
0.0
 11
7.7202640087429639
 21
5.3711743804994061
 31
0.0
  0
LINE
  5
19D
  8
0
  6
CONTINUOUS
 62
     7
 10
7.7202640087429639
 20
5.1741317500860191
 30
0.0
 11
7.8344372631371213
 21
5.18013914735472
 31
0.0
  0
LINE
  5
19E
  8
0
  6
CONTINUOUS
 62
     7
 10
7.6218389057581541
 20
4.4872609648759427
 30
0.0
 11
7.6218389057581541
 21
6.0581202581753413
 31
0.0
  0
LINE
  5
19F
  8
0
  6
CONTINUOUS
 62
     7
 10
8.6336498972312388
 20
3.69969118294927
 30
0.0
 11
8.6336498972312388
 21
3.857535546184383
 31
0.0
  0
LINE
  5
1A0
  8
0
  6
CONTINUOUS
 62
     7
 10
8.6336498972312388
 20
3.857535546184383
 30
0.0
 11
8.6730199824246554
 21
3.857535546184383
 31
0.0
  0
LINE
  5
1A1
  8
0
  6
CONTINUOUS
 62
     7
 10
8.6730199824246554
 20
3.857535546184383
 30
0.0
 11
8.6730199824246554
 21
3.8488248201447668
 31
0.0
  0
LINE
  5
1A2
  8
0
  6
CONTINUOUS
 62
     7
 10
8.6730199824246554
 20
3.708477001454745
 30
0.0
 11
8.6730199824246554
 21
3.69969118294927
 31
0.0
  0
LINE
  5
1A3
  8
0
  6
CONTINUOUS
 62
     7
 10
8.6730199824246554
 20
3.69969118294927
 30
0.0
 11
8.6336498972312388
 21
3.69969118294927
 31
0.0
  0
LINE
  5
1A4
  8
0
  6
CONTINUOUS
 62
     7
 10
8.6336498972312388
 20
3.5522846724685251
 30
0.0
 11
8.6336498972312388
 21
3.69969118294927
 31
0.0
  0
LINE
  5
1A5
  8
0
  6
CONTINUOUS
 62
     7
 10
8.6730199824246554
 20
3.69969118294927
 30
0.0
 11
8.6730199824246554
 21
3.5502571758903381
 31
0.0
  0
LINE
  5
1A6
  8
0
  6
CONTINUOUS
 62
     7
 10
9.3779336392019381
 20
3.5502571758903381
 30
0.0
 11
8.6730199824246554
 21
3.5502571758903381
 31
0.0
  0
LINE
  5
1A7
  8
0
  6
CONTINUOUS
 62
     7
 10
9.3779336392019381
 20
3.5502571758903381
 30
0.0
 11
9.3779336392019381
 21
3.5187934326955181
 31
0.0
  0
LINE
  5
1A8
  8
0
  6
CONTINUOUS
 62
     7
 10
9.1023430886808292
 20
3.5187934326955181
 30
0.0
 11
9.3779336392019381
 21
3.5187934326955181
 31
0.0
  0
LINE
  5
1A9
  8
0
  6
CONTINUOUS
 62
     7
 10
9.1023430886808292
 20
3.5070039155556931
 30
0.0
 11
9.1023430886808292
 21
3.5187934326955181
 31
0.0
  0
LINE
  5
1AA
  8
0
  6
CONTINUOUS
 62
     7
 10
8.6139648546345313
 20
3.5072291929532691
 30
0.0
 11
8.8698703717254936
 21
3.5049764189775061
 31
0.0
  0
LINE
  5
1AB
  8
0
  6
CONTINUOUS
 62
     7
 10
8.6336498972312388
 20
3.5522846724685251
 30
0.0
 11
8.6139648546345313
 21
3.5522846724685251
 31
0.0
  0
LINE
  5
1AC
  8
0
  6
CONTINUOUS
 62
     7
 10
8.8698703717254936
 20
3.5049764189775061
 30
0.0
 11
9.1023430886808292
 21
3.5070039155556931
 31
0.0
  0
LINE
  5
1AD
  8
0
  6
CONTINUOUS
 62
     7
 10
8.6139648546345313
 20
3.5522846724685251
 30
0.0
 11
8.6139648546345313
 21
3.5072291929532691
 31
0.0
  0
LINE
  5
1AE
  8
0
  6
CONTINUOUS
 62
     7
 10
8.6533349398279462
 20
3.8488248201447668
 30
0.0
 11
8.6730199824246554
 21
3.8488248201447668
 31
0.0
  0
LINE
  5
1AF
  8
0
  6
CONTINUOUS
 62
     7
 10
8.6730199824246554
 20
3.8488248201447668
 30
0.0
 11
8.6730199824246554
 21
3.708477001454745
 31
0.0
  0
LINE
  5
1B0
  8
0
  6
CONTINUOUS
 62
     7
 10
8.6730199824246554
 20
3.708477001454745
 30
0.0
 11
8.6533349398279462
 21
3.708477001454745
 31
0.0
  0
LINE
  5
1B1
  8
0
  6
CONTINUOUS
 62
     7
 10
8.6533349398279462
 20
3.708477001454745
 30
0.0
 11
8.6533349398279462
 21
3.8488248201447668
 31
0.0
  0
LINE
  5
1B2
  8
0
  6
CONTINUOUS
 62
     7
 10
8.6730199824246554
 20
4.0030647450186603
 30
0.0
 11
8.6730199824246554
 21
3.857535546184383
 31
0.0
  0
LINE
  5
1B3
  8
0
  6
CONTINUOUS
 62
     7
 10
8.6336498972312388
 20
3.857535546184383
 30
0.0
 11
8.6336498972312388
 21
4.0050171491309881
 31
0.0
  0
LINE
  5
1B4
  8
0
  6
CONTINUOUS
 62
     7
 10
8.6139648546345313
 20
4.0050171491309881
 30
0.0
 11
8.6336498972312388
 21
4.0050171491309881
 31
0.0
  0
LINE
  5
1B5
  8
0
  6
CONTINUOUS
 62
     7
 10
8.8698703717254936
 20
4.0522503101561478
 30
0.0
 11
9.0076656515693294
 21
4.0522503101561478
 31
0.0
  0
LINE
  5
1B6
  8
0
  6
CONTINUOUS
 62
     7
 10
8.6139648546345313
 20
4.0499975361803848
 30
0.0
 11
8.6139648546345313
 21
4.0050171491309881
 31
0.0
  0
LINE
  5
1B7
  8
0
  6
CONTINUOUS
 62
     7
 10
8.6139648546345313
 20
4.0499975361803848
 30
0.0
 11
8.8698703717254936
 21
4.0522503101561478
 31
0.0
  0
LINE
  5
1B8
  8
0
  6
CONTINUOUS
 62
     7
 10
8.6730199824246554
 20
4.0030647450186603
 30
0.0
 11
9.0076656515693294
 21
4.0030647450186603
 31
0.0
  0
LINE
  5
1B9
  8
0
  6
CONTINUOUS
 62
     7
 10
9.0076656515693294
 20
4.0522503101561478
 30
0.0
 11
9.0076656515693294
 21
4.0030647450186603
 31
0.0
  0
LINE
  5
1BA
  8
0
  6
CONTINUOUS
 62
     7
 10
8.9486105421123252
 20
4.0522503101561478
 30
0.0
 11
8.8698703717254936
 21
4.0837140533509677
 31
0.0
  0
LINE
  5
1BB
  8
0
  6
CONTINUOUS
 62
     7
 10
9.027522475514937
 20
4.0508986457706904
 30
0.0
 11
9.0076656515693294
 21
4.0510488307024071
 31
0.0
  0
ARC
  5
1BC
  8
0
  6
CONTINUOUS
 62
     7
 10
9.0273506940690496
 20
4.0311881476109361
 30
0.0
 40
0.0196850393702164
 50
0.0
 51
89.500000000000156
  0
LINE
  5
1BD
  8
0
  6
CONTINUOUS
 62
     7
 10
9.0470357367627461
 20
3.5811952718241469
 30
0.0
 11
9.0470357367627461
 21
3.634435830118008
 31
0.0
  0
LINE
  5
1BE
  8
0
  6
CONTINUOUS
 62
     7
 10
9.0470357367627461
 20
3.90799768324147
 30
0.0
 11
9.0470357367627461
 21
4.031224419715695
 31
0.0
  0
ARC
  5
1BF
  8
0
  6
CONTINUOUS
 62
     7
 10
9.0273506940690496
 20
3.5811823610248581
 30
0.0
 40
0.0196850393702163
 50
270.49999999995919
 51
0.0
  0
LINE
  5
1C0
  8
0
  6
CONTINUOUS
 62
     7
 10
8.8698703717254936
 20
3.5600942889178362
 30
0.0
 11
9.027522475514937
 21
3.561521045769152
 31
0.0
  0
LINE
  5
1C1
  8
0
  6
CONTINUOUS
 62
     7
 10
8.8698703717254936
 20
4.0030647450186603
 30
0.0
 11
8.8698703717254936
 21
3.5600942889178362
 31
0.0
  0
LINE
  5
1C2
  8
0
  6
CONTINUOUS
 62
     7
 10
8.6139648546345313
 20
4.0050171491309881
 30
0.0
 11
8.6139648546345313
 21
3.5522846724685251
 31
0.0
  0
LINE
  5
1C3
  8
0
  6
CONTINUOUS
 62
     7
 10
9.6179018804016732
 20
3.497166802528195
 30
0.0
 11
9.6179018804016732
 21
3.5660265937206779
 31
0.0
  0
LINE
  5
1C4
  8
0
  6
CONTINUOUS
 62
     7
 10
9.6179018804016732
 20
6.9794297217964649
 30
0.0
 11
9.6179018804016732
 21
7.0482895129889478
 31
0.0
  0
LINE
  5
1C5
  8
0
  6
CONTINUOUS
 62
     7
 10
9.8344373122992188
 20
3.6250492718856631
 30
0.0
 11
9.5194766674181324
 21
3.6250492718856631
 31
0.0
  0
LINE
  5
1C6
  8
0
  6
CONTINUOUS
 62
     7
 10
9.8344373122992188
 20
4.5010779785939548
 30
0.0
 11
9.8344373122992188
 21
3.6250492718856631
 31
0.0
  0
LINE
  5
1C7
  8
0
  6
CONTINUOUS
 62
     7
 10
9.6179018804016732
 20
4.5010779785939548
 30
0.0
 11
9.8344373122992188
 21
4.5010779785939548
 31
0.0
  0
LINE
  5
1C8
  8
0
  6
CONTINUOUS
 62
     7
 10
9.8934924034231013
 20
3.5019727203431561
 30
0.0
 11
9.6179018804016732
 21
3.497166802528195
 31
0.0
  0
LINE
  5
1C9
  8
0
  6
CONTINUOUS
 62
     7
 10
9.8934924034231013
 20
4.5797748828139362
 30
0.0
 11
9.8934924034231013
 21
3.5019727203431561
 31
0.0
  0
LINE
  5
1CA
  8
0
  6
CONTINUOUS
 62
     7
 10
9.5194766674181324
 20
6.9203319511656209
 30
0.0
 11
9.6179018804016732
 21
6.9203319511656209
 31
0.0
  0
LINE
  5
1CB
  8
0
  6
CONTINUOUS
 62
     7
 10
9.6179018804016732
 20
4.5010779785939548
 30
0.0
 11
9.6179018804016732
 21
6.9203319511656209
 31
0.0
  0
LINE
  5
1CC
  8
0
  6
CONTINUOUS
 62
     7
 10
9.6966420507885065
 20
4.5832291362434381
 30
0.0
 11
9.8934924034231013
 21
4.5797748828139362
 31
0.0
  0
LINE
  5
1CD
  8
0
  6
CONTINUOUS
 62
     7
 10
9.8934924034231013
 20
7.0434835951739867
 30
0.0
 11
9.8934924034231013
 21
6.9729717697326121
 31
0.0
  0
LINE
  5
1CE
  8
0
  6
CONTINUOUS
 62
     7
 10
9.6966420507885065
 20
6.9695926087689681
 30
0.0
 11
9.6966420507885065
 21
4.5832291362434381
 31
0.0
  0
ARC
  5
1CF
  8
0
  6
CONTINUOUS
 62
     7
 10
9.5391617176911083
 20
6.959728561404714
 30
0.0
 40
0.0196850393700778
 50
90.0
 51
180.0
  0
LINE
  5
1D0
  8
0
  6
CONTINUOUS
 62
     7
 10
9.6179018804016732
 20
7.0482895129889478
 30
0.0
 11
9.8934924034231013
 21
7.0434835951739867
 31
0.0
  0
LINE
  5
1D1
  8
0
  6
CONTINUOUS
 62
     7
 10
9.8934924034231013
 20
6.9729717697326121
 30
0.0
 11
9.6966420507885065
 21
6.9695926087689681
 31
0.0
  0
ARC
  5
1D2
  8
0
  6
CONTINUOUS
 62
     7
 10
9.5391617176911083
 20
3.585712813372969
 30
0.0
 40
0.0196850393700778
 50
180.0
 51
270.00000000000603
  0
LINE
  5
1D3
  8
0
  6
CONTINUOUS
 62
     7
 10
9.5194766674181324
 20
3.6250492718856631
 30
0.0
 11
9.5194766674181324
 21
3.5857008197756728
 31
0.0
  0
LINE
  5
1D4
  8
0
  6
CONTINUOUS
 62
     7
 10
9.5194766674181324
 20
6.9597554957414696
 30
0.0
 11
9.5194766674181324
 21
6.9203319511656209
 31
0.0
  0
LINE
  5
1D5
  8
0
  6
CONTINUOUS
 62
     7
 10
9.5391617100148416
 20
6.9794297217964649
 30
0.0
 11
9.6179018804016732
 21
6.9794297217964649
 31
0.0
  0
LINE
  5
1D6
  8
0
  6
CONTINUOUS
 62
     7
 10
9.6179018804016732
 20
3.5660265937206779
 30
0.0
 11
9.5391617100148416
 21
3.5660265937206779
 31
0.0
  0
LINE
  5
1D7
  8
0
  6
CONTINUOUS
 62
     7
 10
9.6966420507885065
 20
4.6782211055547691
 30
0.0
 11
9.7163270567189706
 21
4.6782211055547691
 31
0.0
  0
LINE
  5
1D8
  8
0
  6
CONTINUOUS
 62
     7
 10
9.6966420507885065
 20
4.7569931022406093
 30
0.0
 11
9.7163270567189706
 21
4.7569931022406093
 31
0.0
  0
LINE
  5
1D9
  8
0
  6
CONTINUOUS
 62
     7
 10
9.7163270567189706
 20
4.6782211055547691
 30
0.0
 11
9.7163270567189706
 21
4.7569931022406093
 31
0.0
  0
LINE
  5
1DA
  8
0
  6
CONTINUOUS
 62
     7
 10
9.8934924034231013
 20
6.2806192345148464
 30
0.0
 11
9.8619963939343585
 21
6.2783664605390843
 31
0.0
  0
LINE
  5
1DB
  8
0
  6
CONTINUOUS
 62
     7
 10
9.8934924034231013
 20
6.9729717697326121
 30
0.0
 11
9.8934924034231013
 21
6.2806192345148464
 31
0.0
  0
LINE
  5
1DC
  8
0
  6
CONTINUOUS
 62
     7
 10
9.6375869229983806
 20
4.5010779785939548
 30
0.0
 11
9.6375869229983806
 21
3.6250492718856631
 31
0.0
  0
LINE
  5
1DD
  8
0
  6
CONTINUOUS
 62
     7
 10
9.7551112153477266
 20
4.5822529341872746
 30
0.0
 11
9.8147522330362662
 21
4.686105814469939
 31
0.0
  0
LINE
  5
1DE
  8
0
  6
CONTINUOUS
 62
     7
 10
9.8147522330362662
 20
4.686105814469939
 30
0.0
 11
9.8934924034231013
 21
4.686105814469939
 31
0.0
  0
LINE
  5
1DF
  8
0
  6
CONTINUOUS
 62
     7
 10
9.8934924034231013
 20
4.686105814469939
 30
0.0
 11
9.8934924034231013
 21
4.5797748828139362
 31
0.0
  0
LINE
  5
1E0
  8
0
  6
CONTINUOUS
 62
     7
 10
9.7408099138909154
 20
4.582478211584851
 30
0.0
 11
9.7753821845090947
 21
4.686105814469939
 31
0.0
  0
LINE
  5
1E1
  8
0
  6
CONTINUOUS
 62
     7
 10
9.7753821845090947
 20
4.686105814469939
 30
0.0
 11
9.8147522330362662
 21
4.686105814469939
 31
0.0
  0
LINE
  5
1E2
  8
0
  6
CONTINUOUS
 62
     7
 10
9.8934924034231013
 20
6.0561678540630126
 30
0.0
 11
9.8934924034231013
 21
6.2806192345148464
 31
0.0
  0
LINE
  5
1E3
  8
0
  6
CONTINUOUS
 62
     7
 10
9.6966420507885065
 20
5.9971451758980283
 30
0.0
 11
9.7528849877319654
 21
6.0139658882503904
 31
0.0
  0
LINE
  5
1E4
  8
0
  6
CONTINUOUS
 62
     7
 10
9.8619963939343585
 20
6.0467062033648089
 30
0.0
 11
9.8934924034231013
 21
6.0561678540630126
 31
0.0
  0
LINE
  5
1E5
  8
0
  6
CONTINUOUS
 62
     7
 10
9.6179018804016732
 20
7.0482895129889478
 30
0.0
 11
9.6179018804016732
 21
6.9852869341334491
 31
0.0
  0
LINE
  5
1E6
  8
0
  6
CONTINUOUS
 62
     7
 10
9.3816919657854303
 20
7.0462620164107621
 30
0.0
 11
9.3816919657854303
 21
6.9852869341334491
 31
0.0
  0
LINE
  5
1E7
  8
0
  6
CONTINUOUS
 62
     7
 10
9.3816919657854303
 20
6.9852869341334491
 30
0.0
 11
9.6179018804016732
 21
6.9852869341334491
 31
0.0
  0
LINE
  5
1E8
  8
0
  6
CONTINUOUS
 62
     7
 10
9.3816919657854303
 20
7.0462620164107621
 30
0.0
 11
9.6179018804016732
 21
7.0482895129889478
 31
0.0
  0
LINE
  5
1E9
  8
0
  6
CONTINUOUS
 62
     7
 10
9.6179018804016732
 20
3.5600942889178362
 30
0.0
 11
9.6179018804016732
 21
3.497166802528195
 31
0.0
  0
LINE
  5
1EA
  8
0
  6
CONTINUOUS
 62
     7
 10
9.6179018804016732
 20
3.5600942889178362
 30
0.0
 11
9.3816919657854303
 21
3.5600942889178362
 31
0.0
  0
LINE
  5
1EB
  8
0
  6
CONTINUOUS
 62
     7
 10
9.6179018804016732
 20
3.497166802528195
 30
0.0
 11
9.3816919657854303
 21
3.499194299106382
 31
0.0
  0
LINE
  5
1EC
  8
0
  6
CONTINUOUS
 62
     7
 10
9.3816919657854303
 20
3.5600942889178362
 30
0.0
 11
9.3816919657854303
 21
3.499194299106382
 31
0.0
  0
LINE
  5
1ED
  8
0
  6
CONTINUOUS
 62
     7
 10
7.6297129081303394
 20
6.1034010150881732
 30
0.0
 11
7.6297129081303394
 21
6.149507789125451
 31
0.0
  0
ARC
  5
1EE
  8
0
  6
CONTINUOUS
 62
     7
 10
7.641523922415514
 20
6.149480584743432
 30
0.0
 40
0.0118110236220741
 50
90.500000000122867
 51
180.0
  0
ARC
  5
1EF
  8
0
  6
CONTINUOUS
 62
     7
 10
8.0155396704470139
 20
6.4739260238227878
 30
0.0
 40
0.0118110236220739
 50
90.500000000019455
 51
180.0
  0
LINE
  5
1F0
  8
0
  6
CONTINUOUS
 62
     7
 10
8.0627837719254316
 20
6.1034010150881732
 30
0.0
 11
8.0627837719254316
 21
6.4302034265054964
 31
0.0
  0
LINE
  5
1F1
  8
0
  6
CONTINUOUS
 62
     7
 10
7.7202640087429639
 20
6.030561323205176
 30
0.0
 11
7.7793192465318191
 21
6.030561323205176
 31
0.0
  0
LINE
  5
1F2
  8
0
  6
CONTINUOUS
 62
     7
 10
7.641420879545521
 20
6.1612973062652774
 30
0.0
 11
8.0037286808015509
 21
6.1644511898313441
 31
0.0
  0
LINE
  5
1F3
  8
0
  6
CONTINUOUS
 62
     7
 10
8.0627837719254316
 20
6.4302034265054964
 30
0.0
 11
8.8698703717254936
 21
6.4302034265054964
 31
0.0
  0
LINE
  5
1F4
  8
0
  6
CONTINUOUS
 62
     7
 10
8.8698703717254936
 20
6.4302034265054964
 30
0.0
 11
8.8698703717254936
 21
6.493206005360995
 31
0.0
  0
LINE
  5
1F5
  8
0
  6
CONTINUOUS
 62
     7
 10
8.0037286808015509
 20
6.1644511898313441
 30
0.0
 11
8.0037286808015509
 21
6.4739072416352936
 31
0.0
  0
LINE
  5
1F6
  8
0
  6
CONTINUOUS
 62
     7
 10
7.7202640087429639
 20
6.1034010150881732
 30
0.0
 11
7.7202640087429639
 21
6.030561323205176
 31
0.0
  0
LINE
  5
1F7
  8
0
  6
CONTINUOUS
 62
     7
 10
7.7793192465318191
 20
6.1034010150881732
 30
0.0
 11
8.0627837719254316
 21
6.1034010150881732
 31
0.0
  0
LINE
  5
1F8
  8
0
  6
CONTINUOUS
 62
     7
 10
7.6297129081303394
 20
6.1034010150881732
 30
0.0
 11
7.7202640087429639
 21
6.1034010150881732
 31
0.0
  0
LINE
  5
1F9
  8
0
  6
CONTINUOUS
 62
     7
 10
7.7793192465318191
 20
6.030561323205176
 30
0.0
 11
7.7793192465318191
 21
6.1034010150881732
 31
0.0
  0
LINE
  5
1FA
  8
0
  6
CONTINUOUS
 62
     7
 10
8.0154365788842465
 20
6.4857718512409779
 30
0.0
 11
8.8698703717254936
 21
6.493206005360995
 31
0.0
  0
ARC
  5
1FB
  8
0
  6
CONTINUOUS
 62
     7
 10
8.0155396704470192
 20
4.071515350954896
 30
0.0
 40
0.0118110236220739
 50
180.0
 51
269.50000000000722
  0
ARC
  5
1FC
  8
0
  6
CONTINUOUS
 62
     7
 10
7.6415239224155176
 20
4.3959607900339721
 30
0.0
 40
0.0118110236220739
 50
180.0
 51
269.49999999998988
  0
LINE
  5
1FD
  8
0
  6
CONTINUOUS
 62
     7
 10
7.6297129081303394
 20
4.3959485263916909
 30
0.0
 11
7.6297129081303394
 21
4.4419802079631108
 31
0.0
  0
LINE
  5
1FE
  8
0
  6
CONTINUOUS
 62
     7
 10
8.0627837719254316
 20
4.1152528890116482
 30
0.0
 11
8.0627837719254316
 21
4.4419802079631108
 31
0.0
  0
LINE
  5
1FF
  8
0
  6
CONTINUOUS
 62
     7
 10
8.8698703717254936
 20
4.0522503101561478
 30
0.0
 11
8.8698703717254936
 21
4.1152528890116482
 31
0.0
  0
LINE
  5
200
  8
0
  6
CONTINUOUS
 62
     7
 10
8.8698703717254936
 20
4.1152528890116482
 30
0.0
 11
8.0627837719254316
 21
4.1152528890116482
 31
0.0
  0
LINE
  5
201
  8
0
  6
CONTINUOUS
 62
     7
 10
8.0037286808015509
 20
4.3810051256857978
 30
0.0
 11
7.641420879545521
 21
4.3841590092518672
 31
0.0
  0
LINE
  5
202
  8
0
  6
CONTINUOUS
 62
     7
 10
8.0037286808015509
 20
4.0715490738818492
 30
0.0
 11
8.0037286808015509
 21
4.3810051256857978
 31
0.0
  0
LINE
  5
203
  8
0
  6
CONTINUOUS
 62
     7
 10
8.8698703717254936
 20
4.0522503101561478
 30
0.0
 11
8.0154365788842465
 21
4.0596844642761649
 31
0.0
  0
LINE
  5
204
  8
0
  6
CONTINUOUS
 62
     7
 10
7.7793192465318191
 20
4.4419802079631108
 30
0.0
 11
7.7793192465318191
 21
4.514819899846108
 31
0.0
  0
LINE
  5
205
  8
0
  6
CONTINUOUS
 62
     7
 10
7.7202640087429639
 20
4.4419802079631108
 30
0.0
 11
7.6297129081303394
 21
4.4419802079631108
 31
0.0
  0
LINE
  5
206
  8
0
  6
CONTINUOUS
 62
     7
 10
8.0627837719254316
 20
4.4419802079631108
 30
0.0
 11
7.7793192465318191
 21
4.4419802079631108
 31
0.0
  0
LINE
  5
207
  8
0
  6
CONTINUOUS
 62
     7
 10
7.7202640087429639
 20
4.514819899846108
 30
0.0
 11
7.7202640087429639
 21
4.4419802079631108
 31
0.0
  0
LINE
  5
208
  8
0
  6
CONTINUOUS
 62
     7
 10
7.7793192465318191
 20
4.514819899846108
 30
0.0
 11
7.7202640087429639
 21
4.514819899846108
 31
0.0
  0
LINE
  5
209
  8
0
  6
CONTINUOUS
 62
     7
 10
8.0627837719254316
 20
6.1624987857190172
 30
0.0
 11
8.1021538571188483
 21
6.1624987857190172
 31
0.0
  0
LINE
  5
20A
  8
0
  6
CONTINUOUS
 62
     7
 10
8.1021538571188483
 20
6.1624987857190172
 30
0.0
 11
8.1021538571188483
 21
6.1034010150881732
 31
0.0
  0
LINE
  5
20B
  8
0
  6
CONTINUOUS
 62
     7
 10
8.1021538571188483
 20
6.1034010150881732
 30
0.0
 11
8.0627837719254316
 21
6.0640525629781834
 31
0.0
  0
LINE
  5
20C
  8
0
  6
CONTINUOUS
 62
     7
 10
8.0627837719254316
 20
6.0640525629781834
 30
0.0
 11
8.0627837719254316
 21
6.1034010150881732
 31
0.0
  0
LINE
  5
20D
  8
0
  6
CONTINUOUS
 62
     7
 10
8.1021538571188483
 20
4.3829575297981256
 30
0.0
 11
8.0627837719254316
 21
4.3829575297981256
 31
0.0
  0
LINE
  5
20E
  8
0
  6
CONTINUOUS
 62
     7
 10
8.0627837719254316
 20
4.4419802079631108
 30
0.0
 11
8.0627837719254316
 21
4.4814037525389612
 31
0.0
  0
LINE
  5
20F
  8
0
  6
CONTINUOUS
 62
     7
 10
8.0627837719254316
 20
4.4814037525389612
 30
0.0
 11
8.1021538571188483
 21
4.4419802079631108
 31
0.0
  0
LINE
  5
210
  8
0
  6
CONTINUOUS
 62
     7
 10
8.1021538571188483
 20
4.4419802079631108
 30
0.0
 11
8.1021538571188483
 21
4.3829575297981256
 31
0.0
  0
LINE
  5
211
  8
0
  6
CONTINUOUS
 62
     7
 10
8.3226262902024875
 20
6.3908549743955056
 30
0.0
 11
8.3226262902024875
 21
6.4302034265054964
 31
0.0
  0
LINE
  5
212
  8
0
  6
CONTINUOUS
 62
     7
 10
8.5194766428370841
 20
6.4302034265054964
 30
0.0
 11
8.3226262902024875
 21
6.3908549743955056
 31
0.0
  0
LINE
  5
213
  8
0
  6
CONTINUOUS
 62
     7
 10
8.3226262902024875
 20
4.1152528890116482
 30
0.0
 11
8.3226262902024875
 21
4.154601341121638
 31
0.0
  0
LINE
  5
214
  8
0
  6
CONTINUOUS
 62
     7
 10
8.3226262902024875
 20
4.154601341121638
 30
0.0
 11
8.5194766428370841
 21
4.1152528890116482
 31
0.0
  0
LINE
  5
215
  8
0
  6
CONTINUOUS
 62
     7
 10
8.2399491186295624
 20
6.3095298338704691
 30
0.0
 11
8.2399491186295624
 21
6.401217734684014
 31
0.0
  0
LINE
  5
216
  8
0
  6
CONTINUOUS
 62
     7
 10
8.2399491186295624
 20
4.1442385808331279
 30
0.0
 11
8.2399491186295624
 21
4.2358513891808149
 31
0.0
  0
LINE
  5
217
  8
0
  6
CONTINUOUS
 62
     7
 10
7.9801066003525056
 20
5.9676338368155353
 30
0.0
 11
7.9801066003525056
 21
6.0935639020606747
 31
0.0
  0
LINE
  5
218
  8
0
  6
CONTINUOUS
 62
     7
 10
7.7202640087429639
 20
6.0108870971501807
 30
0.0
 11
7.7202640087429639
 21
5.9691356861327112
 31
0.0
  0
LINE
  5
219
  8
0
  6
CONTINUOUS
 62
     7
 10
7.9801066003525056
 20
4.4518173209906093
 30
0.0
 11
7.9801066003525056
 21
4.5778224787016084
 31
0.0
  0
LINE
  5
21A
  8
0
  6
CONTINUOUS
 62
     7
 10
7.7202640087429639
 20
4.5763206293844334
 30
0.0
 11
7.7202640087429639
 21
4.534569218366963
 31
0.0
  0
LINE
  5
21B
  8
0
  6
CONTINUOUS
 62
     7
 10
8.8698703717254936
 20
6.9852869341334491
 30
0.0
 11
8.8698703717254936
 21
6.9951991396268047
 31
0.0
  0
LINE
  5
21C
  8
0
  6
CONTINUOUS
 62
     7
 10
8.8698703717254936
 20
7.0404048040737779
 30
0.0
 11
8.8698703717254936
 21
7.0417564684592362
 31
0.0
  0
LINE
  5
21D
  8
0
  6
CONTINUOUS
 62
     7
 10
8.8698703717254936
 20
6.9852869341334491
 30
0.0
 11
9.3816919657854303
 21
6.9852869341334491
 31
0.0
  0
LINE
  5
21E
  8
0
  6
CONTINUOUS
 62
     7
 10
8.8698703717254936
 20
7.0417564684592362
 30
0.0
 11
9.3816919657854303
 21
7.0462620164107621
 31
0.0
  0
LINE
  5
21F
  8
0
  6
CONTINUOUS
 62
     7
 10
8.8698703717254936
 20
3.5036247545920478
 30
0.0
 11
8.8698703717254936
 21
3.5049764189775061
 31
0.0
  0
LINE
  5
220
  8
0
  6
CONTINUOUS
 62
     7
 10
8.8698703717254936
 20
3.5502571758903381
 30
0.0
 11
8.8698703717254936
 21
3.5600942889178362
 31
0.0
  0
LINE
  5
221
  8
0
  6
CONTINUOUS
 62
     7
 10
9.3816919657854303
 20
3.5600942889178362
 30
0.0
 11
8.8698703717254936
 21
3.5600942889178362
 31
0.0
  0
LINE
  5
222
  8
0
  6
CONTINUOUS
 62
     7
 10
9.3816919657854303
 20
3.499194299106382
 30
0.0
 11
8.8698703717254936
 21
3.5036247545920478
 31
0.0
  0
LINE
  5
223
  8
0
  6
CONTINUOUS
 62
     7
 10
9.4407365153644225
 20
6.493206005360995
 30
0.0
 11
9.0076656515693294
 21
6.493206005360995
 31
0.0
  0
LINE
  5
224
  8
0
  6
CONTINUOUS
 62
     7
 10
9.4407365153644225
 20
6.4302034265054964
 30
0.0
 11
9.4407365153644225
 21
6.493206005360995
 31
0.0
  0
LINE
  5
225
  8
0
  6
CONTINUOUS
 62
     7
 10
8.8698703717254936
 20
6.4302034265054964
 30
0.0
 11
9.4407365153644225
 21
6.4302034265054964
 31
0.0
  0
LINE
  5
226
  8
0
  6
CONTINUOUS
 62
     7
 10
9.4407365153644225
 20
4.0522503101561478
 30
0.0
 11
9.4407365153644225
 21
4.1152528890116482
 31
0.0
  0
LINE
  5
227
  8
0
  6
CONTINUOUS
 62
     7
 10
9.0076656515693294
 20
4.0522503101561478
 30
0.0
 11
9.4407365153644225
 21
4.0522503101561478
 31
0.0
  0
LINE
  5
228
  8
0
  6
CONTINUOUS
 62
     7
 10
9.4407365153644225
 20
4.1152528890116482
 30
0.0
 11
8.8698703717254936
 21
4.1152528890116482
 31
0.0
  0
LINE
  5
229
  8
0
  6
CONTINUOUS
 62
     7
 10
7.7793192465318191
 20
5.3967058188913839
 30
0.0
 11
7.7202640087429639
 21
5.3967058188913839
 31
0.0
  0
LINE
  5
22A
  8
0
  6
CONTINUOUS
 62
     7
 10
7.7793192465318191
 20
5.3967058188913839
 30
0.0
 11
7.7793192465318191
 21
5.9676338368155353
 31
0.0
  0
LINE
  5
22B
  8
0
  6
CONTINUOUS
 62
     7
 10
7.7793192465318191
 20
5.1486754041599001
 30
0.0
 11
7.7202640087429639
 21
5.1486754041599001
 31
0.0
  0
LINE
  5
22C
  8
0
  6
CONTINUOUS
 62
     7
 10
7.7793192465318191
 20
4.5778224787016084
 30
0.0
 11
7.7793192465318191
 21
5.1486754041599001
 31
0.0
  0
LINE
  5
22D
  8
0
  6
CONTINUOUS
 62
     7
 10
7.7793192465318191
 20
5.1486754041599001
 30
0.0
 11
7.7793192465318191
 21
5.1772105411862288
 31
0.0
  0
LINE
  5
22E
  8
0
  6
CONTINUOUS
 62
     7
 10
7.7793192465318191
 20
5.3680204969333376
 30
0.0
 11
7.7793192465318191
 21
5.3967058188913839
 31
0.0
  0
LINE
  5
22F
  8
0
  6
CONTINUOUS
 62
     7
 10
7.6297129081303394
 20
4.4419802079631108
 30
0.0
 11
7.6297129081303394
 21
4.4479125127659529
 31
0.0
  0
LINE
  5
230
  8
0
  6
CONTINUOUS
 62
     7
 10
7.6297129081303394
 20
6.097543802751189
 30
0.0
 11
7.6297129081303394
 21
6.1034010150881732
 31
0.0
  0
INSERT
  5
231
  8
0
  6
CONTINUOUS
 62
     7
  2
*X37
 10
0.0
 20
0.0
 30
0.0
1001
ACAD
1000
HATCH
1002
{
1070
    19
1000
ANSI31
1040
1.0
1040
0.0
1000
R14_HATCH_DATA
1000
231
1011
1.0
1021
0.0
1031
0.0
1021
0.0
1031
0.0
1011
0.0
1021
0.0
1031
0.0
1021
1.0
1031
0.0
1011
0.0
1021
0.0
1031
0.0
1021
0.0
1031
1.0
1040
0.0
1010
0.0
1020
0.0
1030
1.0
1000
ANSI31
1070
     0
1070
     0
1071
        1
1071
        0
1071
        4
1070
     1
1040
9.6179018751635308
1040
3.5601222621919208
1040
9.3816919605551252
1040
3.5601222621919208
1070
     1
1040
9.3816919605551252
1040
3.5601222621919208
1040
9.3816919605551252
1040
3.4991915089031722
1070
     1
1040
9.3816919605551252
1040
3.4991915089031722
1040
9.6179018751635308
1040
3.4971301362075362
1070
     1
1040
9.6179018751635308
1040
3.4971301362075362
1040
9.6179018751635308
1040
3.5601222621919208
1071
        0
1070
     0
1070
     1
1040
0.0
1040
1.0
1070
     0
1070
     1
1040
0.7853981633974483
1040
0.0
1040
0.0
1040
-0.0883883476483184
1040
0.0883883476483185
1070
     0
1071
        1
1040
0.0
1040
0.0
1040
0.0
1002
}
  0
INSERT
  5
232
  8
0
  6
CONTINUOUS
 62
     7
  2
*X38
 10
0.0
 20
0.0
 30
0.0
1001
ACAD
1000
HATCH
1002
{
1070
    19
1000
ANSI31
1040
1.0
1040
0.0
1000
R14_HATCH_DATA
1000
232
1011
1.0
1021
0.0
1031
0.0
1021
0.0
1031
0.0
1011
0.0
1021
0.0
1031
0.0
1021
1.0
1031
0.0
1011
0.0
1021
0.0
1031
0.0
1021
0.0
1031
1.0
1040
0.0
1010
0.0
1020
0.0
1030
1.0
1000
ANSI31
1070
     0
1070
     0
1071
        1
1071
        0
1071
        4
1070
     1
1040
9.6179018751635184
1040
7.0483112385698572
1040
9.3816919605550311
1040
7.0462498658740822
1070
     1
1040
9.3816919605550311
1040
7.0462498658740822
1040
9.3816919605550293
1040
6.9853191125856116
1070
     1
1040
9.3816919605550293
1040
6.9853191125856116
1040
9.6179018751635184
1040
6.9853191125854721
1070
     1
1040
9.6179018751635184
1040
6.9853191125854721
1040
9.6179018751635184
1040
7.0483112385698572
1071
        0
1070
     0
1070
     1
1040
0.0
1040
1.0
1070
     0
1070
     1
1040
0.7853981633974483
1040
0.0
1040
0.0
1040
-0.0883883476483184
1040
0.0883883476483185
1070
     0
1071
        1
1040
0.0
1040
0.0
1040
0.0
1002
}
  0
INSERT
  5
233
  8
0
  6
CONTINUOUS
 62
     7
  2
*X39
 10
0.0
 20
0.0
 30
0.0
1001
ACAD
1000
HATCH
1002
{
1070
    19
1000
ANSI31
1040
1.0
1040
0.0
1000
R14_HATCH_DATA
1000
233
1011
1.0
1021
0.0
1031
0.0
1021
0.0
1031
0.0
1011
0.0
1021
0.0
1031
0.0
1021
1.0
1031
0.0
1011
0.0
1021
0.0
1031
0.0
1021
0.0
1031
1.0
1040
0.0
1010
0.0
1020
0.0
1030
1.0
1000
ANSI31
1070
     0
1070
     0
1071
        1
1071
        0
1071
       14
1070
     1
1040
7.62971289878557
1040
6.103429348806042
1040
7.7202640798879338
1040
6.103429348806042
1070
     1
1040
7.7202640798879338
1040
6.103429348806042
1040
7.7202640798879338
1040
6.0305947031369902
1070
     1
1040
7.7202640798879338
1040
6.0305947031369902
1040
7.7793191979981779
1040
6.0305947031365701
1070
     1
1040
7.7793191979981779
1040
6.0305947031365701
1040
7.7793191979981602
1040
6.103429348806042
1070
     1
1040
7.7793191979981602
1040
6.103429348806042
1040
8.0627837649273122
1040
6.103429348806042
1070
     1
1040
8.0627837649273122
1040
6.103429348806042
1040
8.0627837649273122
1040
6.4302010023492873
1070
     1
1040
8.0627837649273122
1040
6.4302010023492873
1040
8.8698703791004672
1040
6.4302010023492873
1070
     1
1040
8.8698703791004672
1040
6.4302010023492873
1040
8.8698703791005027
1040
6.493193128333532
1070
     1
1040
8.8698703791005027
1040
6.493193128333532
1040
8.0154366011222056
1040
6.4857365977171977
1070
     2
1040
8.0155396704391197
1040
6.4739260238227132
1040
0.0118110236220481
1040
1.5795229730552069
1040
3.1415926535897931
1070
     1
1070
     1
1040
8.0037286468170716
1040
6.4739260238227132
1040
8.0037286468170645
1040
6.1644529708533531
1070
     1
1040
8.0037286468170645
1040
6.1644529708533531
1040
7.6414208530906862
1040
6.1612911586378418
1070
     2
1040
7.641523922407619
1040
6.1494805847433573
1040
0.0118110236220481
1040
1.5795229730568621
1040
3.1415926535897931
1070
     1
1070
     1
1040
7.6297128987855709
1040
6.1494805847433573
1040
7.62971289878557
1040
6.103429348806042
1071
        0
1070
     0
1070
     1
1040
0.0
1040
1.0
1070
     0
1070
     1
1040
0.7853981633974483
1040
0.0
1040
0.0
1040
-0.0883883476483184
1040
0.0883883476483185
1070
     0
1071
        1
1040
0.0
1040
0.0
1040
0.0
1002
}
  0
INSERT
  5
234
  8
0
  6
CONTINUOUS
 62
     7
  2
*X40
 10
0.0
 20
0.0
 30
0.0
1001
ACAD
1000
HATCH
1002
{
1070
    19
1000
ANSI31
1040
1.0
1040
0.0
1000
R14_HATCH_DATA
1000
234
1011
1.0
1021
0.0
1031
0.0
1021
0.0
1031
0.0
1011
0.0
1021
0.0
1031
0.0
1021
1.0
1031
0.0
1011
0.0
1021
0.0
1031
0.0
1021
0.0
1031
1.0
1040
0.0
1010
0.0
1020
0.0
1030
1.0
1000
ANSI31
1070
     0
1070
     0
1071
        1
1071
        0
1071
       14
1070
     1
1040
8.0154366011222233
1040
4.0597047770603361
1040
8.8698703791005311
1040
4.0522482464438623
1070
     1
1040
8.8698703791005311
1040
4.0522482464438623
1040
8.8698703791005311
1040
4.115240372428107
1070
     1
1040
8.8698703791005311
1040
4.115240372428107
1040
8.0627837649273246
1040
4.115240372428107
1070
     1
1040
8.0627837649273246
1040
4.115240372428107
1040
8.0627837649273211
1040
4.4420120259713523
1070
     1
1040
8.0627837649273211
1040
4.4420120259713523
1040
7.7793191979981842
1040
4.4420120259713523
1070
     1
1040
7.7793191979981842
1040
4.4420120259713523
1040
7.7793191979981842
1040
4.514846671640683
1070
     1
1040
7.7793191979981842
1040
4.514846671640683
1040
7.7202640798879401
1040
4.514846671640683
1070
     1
1040
7.7202640798879401
1040
4.514846671640683
1040
7.7202640798879392
1040
4.4420120259713523
1070
     1
1040
7.7202640798879392
1040
4.4420120259713523
1040
7.6297128987855798
1040
4.4420120259713523
1070
     1
1040
7.6297128987855798
1040
4.4420120259713523
1040
7.6297128987855798
1040
4.3959607900338957
1070
     2
1040
7.6415239224076297
1040
4.3959607900338957
1040
0.0118110236220481
1040
3.1415926535897931
1040
4.7036623341246182
1070
     1
1070
     1
1040
7.6414208530907191
1040
4.3841502161394112
1040
8.0037286468170805
1040
4.3809884039243201
1070
     1
1040
8.0037286468170805
1040
4.3809884039243201
1040
8.0037286468170841
1040
4.0715153509548214
1070
     2
1040
8.0155396704391322
1040
4.0715153509548214
1040
0.0118110236220481
1040
3.1415926535897931
1040
4.7036623341248429
1070
     1
1071
        0
1070
     0
1070
     1
1040
0.0
1040
1.0
1070
     0
1070
     1
1040
0.7853981633974483
1040
0.0
1040
0.0
1040
-0.0883883476483184
1040
0.0883883476483185
1070
     0
1071
        1
1040
0.0
1040
0.0
1040
0.0
1002
}
  0
INSERT
  5
235
  8
0
  6
CONTINUOUS
 62
     7
  2
*X41
 10
0.0
 20
0.0
 30
0.0
1001
ACAD
1000
HATCH
1002
{
1070
    19
1000
ANSI31
1040
1.0
1040
0.0
1000
R14_HATCH_DATA
1000
235
1011
1.0
1021
0.0
1031
0.0
1021
0.0
1031
0.0
1011
0.0
1021
0.0
1031
0.0
1021
1.0
1031
0.0
1011
0.0
1021
0.0
1031
0.0
1021
0.0
1031
1.0
1040
0.0
1010
0.0
1020
0.0
1030
1.0
1000
ANSI31
1070
     0
1070
     0
1071
        1
1071
        0
1071
       20
1070
     1
1040
9.8934924263446415
1040
3.5019405871721361
1040
9.8934924263448636
1040
4.5798073015618614
1070
     1
1040
9.8934924263448636
1040
4.5798073015618614
1040
9.6966420326438456
1040
4.5832433379650874
1070
     1
1040
9.6966420326438456
1040
4.5832433379650874
1040
9.6966420326438367
1040
6.9695710810894456
1070
     1
1040
9.6966420326438367
1040
6.9695710810894456
1040
9.8934924263446291
1040
6.9730071174926707
1070
     1
1040
9.8934924263446291
1040
6.9730071174926707
1040
9.8934924263446309
1040
7.0435007876055371
1070
     1
1040
9.8934924263446309
1040
7.0435007876055371
1040
9.6179018751635272
1040
7.0483112385698572
1070
     1
1040
9.6179018751635272
1040
7.0483112385698572
1040
9.6179018751635272
1040
6.9794136007745324
1070
     1
1040
9.6179018751635272
1040
6.9794136007745324
1040
9.5391617176832106
1040
6.9794136007746719
1070
     2
1040
9.5391617176832124
1040
6.9597285614046394
1040
0.0196850393700788
1040
1.570796326794986
1040
3.1415926535897931
1070
     1
1070
     1
1040
9.5194766783131328
1040
6.9597285614046394
1040
9.5194766783131328
1040
6.9203584826642937
1070
     1
1040
9.5194766783131328
1040
6.9203584826642937
1040
9.6179018751635272
1040
6.9203584826642937
1070
     1
1040
9.6179018751635272
1040
6.9203584826642937
1040
9.6179018751635361
1040
4.5010671440815901
1070
     1
1040
9.6179018751635361
1040
4.5010671440815901
1040
9.8344373082344028
1040
4.5010671440815901
1070
     1
1040
9.8344373082344028
1040
4.5010671440815901
1040
9.8344373082344063
1040
3.6250828921130989
1070
     1
1040
9.8344373082344063
1040
3.6250828921130989
1040
9.5194766783131453
1040
3.6250828921130989
1070
     1
1040
9.5194766783131453
1040
3.6250828921130989
1040
9.5194766783131453
1040
3.5857128133728939
1070
     2
1040
9.5391617176832249
1040
3.5857128133728939
1040
0.0196850393700329
1040
3.1415926535897931
1040
4.712388980384703
1070
     1
1070
     1
1040
9.5391617176832249
1040
3.566027774002861
1040
9.6179018751635397
1040
3.566027774002861
1070
     1
1040
9.6179018751635397
1040
3.566027774002861
1040
9.6179018751635397
1040
3.4971301362076761
1070
     1
1040
9.6179018751635397
1040
3.4971301362076761
1040
9.8934924263446415
1040
3.5019405871721361
1071
        0
1070
     0
1070
     1
1040
0.0
1040
1.0
1070
     0
1070
     1
1040
0.7853981633974483
1040
0.0
1040
0.0
1040
-0.0883883476483184
1040
0.0883883476483185
1070
     0
1071
        1
1040
0.0
1040
0.0
1040
0.0
1002
}
  0
INSERT
  5
236
  8
0
  6
CONTINUOUS
 62
     7
  2
*X42
 10
0.0
 20
0.0
 30
0.0
1001
ACAD
1000
HATCH
1002
{
1070
    19
1000
ANSI31
1040
1.0
1040
0.0
1000
R14_HATCH_DATA
1000
236
1011
1.0
1021
0.0
1031
0.0
1021
0.0
1031
0.0
1011
0.0
1021
0.0
1031
0.0
1021
1.0
1031
0.0
1011
0.0
1021
0.0
1031
0.0
1021
0.0
1031
1.0
1040
0.0
1010
0.0
1020
0.0
1030
1.0
1000
ANSI31
1070
     0
1070
     0
1071
        1
1071
        0
1071
       11
1070
     1
1040
8.6336499066595902
1040
3.5522482839226601
1040
8.6139648672895124
1040
3.5522482839226601
1070
     1
1040
8.6139648672895124
1040
3.5522482839226601
1040
8.6139648672895088
1040
3.5072374804816868
1070
     1
1040
8.6139648672895088
1040
3.5072374804816868
1040
8.8698703791005364
1040
3.5050042269130519
1070
     1
1040
8.8698703791005364
1040
3.5050042269130519
1040
9.1023430879020264
1040
3.507032985507732
1070
     1
1040
9.1023430879020264
1040
3.507032985507732
1040
9.1023430879020228
1040
3.5187836795146419
1070
     1
1040
9.1023430879020228
1040
3.5187836795146419
1040
9.3779336390831283
1040
3.5187836795146419
1070
     1
1040
9.3779336390831283
1040
3.5187836795146419
1040
9.3779336390831265
1040
3.5502797425068349
1070
     1
1040
9.3779336390831265
1040
3.5502797425068349
1040
8.6730199853997476
1040
3.5502797425068349
1070
     1
1040
8.6730199853997476
1040
3.5502797425068349
1040
8.6730199853997476
1040
3.6996938883332482
1070
     1
1040
8.6730199853997476
1040
3.6996938883332482
1040
8.6336499066595902
1040
3.6996938883332482
1070
     1
1040
8.6336499066595902
1040
3.6996938883332482
1040
8.6336499066595902
1040
3.5522482839226601
1071
        0
1070
     0
1070
     1
1040
0.0
1040
1.0
1070
     0
1070
     1
1040
0.7853981633974483
1040
0.0
1040
0.0
1040
-0.0883883476483184
1040
0.0883883476483185
1070
     0
1071
        1
1040
0.0
1040
0.0
1040
0.0
1002
}
  0
INSERT
  5
237
  8
0
  6
CONTINUOUS
 62
     7
  2
*X43
 10
0.0
 20
0.0
 30
0.0
1001
ACAD
1000
HATCH
1002
{
1070
    19
1000
ANSI31
1040
1.0
1040
0.0
1000
R14_HATCH_DATA
1000
237
1011
1.0
1021
0.0
1031
0.0
1021
0.0
1031
0.0
1011
0.0
1021
0.0
1031
0.0
1021
1.0
1031
0.0
1011
0.0
1021
0.0
1031
0.0
1021
0.0
1031
1.0
1040
0.0
1010
0.0
1020
0.0
1030
1.0
1000
ANSI31
1070
     0
1070
     0
1071
        1
1071
        0
1071
        4
1070
     1
1040
8.653334946029668
1040
3.8487950813669518
1040
8.6533349460296698
1040
3.7084573919902408
1070
     1
1040
8.6533349460296698
1040
3.7084573919902408
1040
8.6730199853997476
1040
3.7084573919903812
1070
     1
1040
8.6730199853997476
1040
3.7084573919903812
1040
8.6730199853997476
1040
3.8487950813669518
1070
     1
1040
8.6730199853997476
1040
3.8487950813669518
1040
8.653334946029668
1040
3.8487950813669518
1071
        0
1070
     0
1070
     1
1040
0.0
1040
1.0
1070
     0
1070
     1
1040
0.7853981633974483
1040
0.0
1040
0.0
1040
-0.0883883476483184
1040
0.0883883476483185
1070
     0
1071
        1
1040
0.0
1040
0.0
1040
0.0
1002
}
  0
INSERT
  5
238
  8
0
  6
CONTINUOUS
 62
     7
  2
*X44
 10
0.0
 20
0.0
 30
0.0
1001
ACAD
1000
HATCH
1002
{
1070
    19
1000
ANSI31
1040
1.0
1040
0.0
1000
R14_HATCH_DATA
1000
238
1011
1.0
1021
0.0
1031
0.0
1021
0.0
1031
0.0
1011
0.0
1021
0.0
1031
0.0
1021
1.0
1031
0.0
1011
0.0
1021
0.0
1031
0.0
1021
0.0
1031
1.0
1040
0.0
1010
0.0
1020
0.0
1030
1.0
1000
ANSI31
1070
     0
1070
     0
1071
        1
1071
        0
1071
        9
1070
     1
1040
8.8698703791005347
1040
4.0522482464438623
1040
8.6139648672895106
1040
4.0500149928753659
1070
     1
1040
8.6139648672895106
1040
4.0500149928753659
1040
8.6139648672895106
1040
4.0050041894342554
1070
     1
1040
8.6139648672895106
1040
4.0050041894342554
1040
8.6336499066595902
1040
4.0050041894342554
1070
     1
1040
8.6336499066595902
1040
4.0050041894342554
1040
8.6336499066595902
1040
3.8575585850235261
1070
     1
1040
8.6336499066595902
1040
3.8575585850235261
1040
8.6730199853997476
1040
3.8575585850235261
1070
     1
1040
8.6730199853997476
1040
3.8575585850235261
1040
8.6730199853997476
1040
4.00303564801857
1070
     1
1040
8.6730199853997476
1040
4.00303564801857
1040
9.0076656546910865
1040
4.0030356480187104
1070
     1
1040
9.0076656546910865
1040
4.0030356480187104
1040
9.0076656546910847
1040
4.0522482464437211
1070
     1
1040
9.0076656546910847
1040
4.0522482464437211
1040
8.8698703791005347
1040
4.0522482464438623
1071
        0
1070
     0
1070
     1
1040
0.0
1040
1.0
1070
     0
1070
     1
1040
0.7853981633974483
1040
0.0
1040
0.0
1040
-0.0883883476483184
1040
0.0883883476483185
1070
     0
1071
        1
1040
0.0
1040
0.0
1040
0.0
1002
}
  0
INSERT
  5
239
  8
0
  6
CONTINUOUS
 62
     7
  2
*X45
 10
0.0
 20
0.0
 30
0.0
1001
ACAD
1000
HATCH
1002
{
1070
    19
1000
ANSI31
1040
1.0
1040
0.0
1000
R14_HATCH_DATA
1000
239
1011
1.0
1021
0.0
1031
0.0
1021
0.0
1031
0.0
1011
0.0
1021
0.0
1031
0.0
1021
1.0
1031
0.0
1011
0.0
1021
0.0
1031
0.0
1021
0.0
1031
1.0
1040
0.0
1010
0.0
1020
0.0
1030
1.0
1000
ANSI31
1070
     0
1070
     0
1071
        1
1071
        0
1071
       12
1070
     1
1040
7.7104215602029011
1040
4.5345317110109962
1040
7.7104215602028949
1040
6.010909663766677
1070
     1
1040
7.7104215602028949
1040
6.010909663766677
1040
7.7202640798879338
1040
6.010909663766677
1070
     1
1040
7.7202640798879338
1040
6.010909663766677
1040
7.7202640798879338
1040
6.0975238369951024
1070
     1
1040
7.7202640798879338
1040
6.0975238369951024
1040
7.6218388830375412
1040
6.0975238369951024
1070
     1
1040
7.6218388830375412
1040
6.0975238369951024
1040
7.6218388830375412
1040
6.0581537582548961
1070
     1
1040
7.6218388830375412
1040
6.0581537582548961
1040
7.6316814027225801
1040
6.0581537582548961
1070
     1
1040
7.6316814027225801
1040
6.0581537582548961
1040
7.6316814027225863
1040
4.4872876165227771
1070
     1
1040
7.6316814027225863
1040
4.4872876165227771
1040
7.6218388830375474
1040
4.4872876165227771
1070
     1
1040
7.6218388830375474
1040
4.4872876165227771
1040
7.6218388830375474
1040
4.4479175377824323
1070
     1
1040
7.6218388830375474
1040
4.4479175377824323
1040
7.7202640798879401
1040
4.4479175377824323
1070
     1
1040
7.7202640798879401
1040
4.4479175377824323
1040
7.7202640798879401
1040
4.5345317110109962
1070
     1
1040
7.7202640798879401
1040
4.5345317110109962
1040
7.7104215602029011
1040
4.5345317110109962
1071
        0
1070
     0
1070
     1
1040
0.0
1040
1.0
1070
     0
1070
     1
1040
0.7853981633974483
1040
0.0
1040
0.0
1040
-0.0883883476483184
1040
0.0883883476483185
1070
     0
1071
        1
1040
0.0
1040
0.0
1040
0.0
1002
}
  0
INSERT
  5
23A
  8
0
  6
CONTINUOUS
 62
     7
  2
*X46
 10
0.0
 20
0.0
 30
0.0
1001
ACAD
1000
HATCH
1002
{
1070
    19
1000
ANSI31
1040
1.0
1040
0.0
1000
R14_HATCH_DATA
1000
23A
1011
1.0
1021
0.0
1031
0.0
1021
0.0
1031
0.0
1011
0.0
1021
0.0
1031
0.0
1021
1.0
1031
0.0
1011
0.0
1021
0.0
1031
0.0
1021
0.0
1031
1.0
1040
0.0
1010
0.0
1020
0.0
1030
1.0
1000
ANSI31
1070
     0
1070
     0
1071
        1
1071
        0
1071
       11
1070
     1
1040
8.869870379100524
1040
7.040437147864341
1040
8.6139648672894982
1040
7.0382038942957061
1070
     1
1040
8.6139648672894982
1040
7.0382038942957061
1040
8.6139648672894982
1040
6.9931930908548727
1070
     1
1040
8.6139648672894982
1040
6.9931930908548727
1040
8.6336499066595778
1040
6.9931930908548727
1070
     1
1040
8.6336499066595778
1040
6.9931930908548727
1040
8.6336499066595778
1040
6.8457474864441448
1070
     1
1040
8.6336499066595778
1040
6.8457474864441448
1040
8.6730199853997352
1040
6.8457474864441448
1070
     1
1040
8.6730199853997352
1040
6.8457474864441448
1040
8.6730199853997352
1040
6.9951616322706984
1070
     1
1040
8.6730199853997352
1040
6.9951616322706984
1040
9.3779336390830998
1040
6.9951616322706984
1070
     1
1040
9.3779336390830998
1040
6.9951616322706984
1040
9.3779336390831158
1040
7.0266576952627506
1070
     1
1040
9.3779336390831158
1040
7.0266576952627506
1040
9.1023430879020122
1040
7.0266576952627506
1070
     1
1040
9.1023430879020122
1040
7.0266576952627506
1040
9.1023430879020122
1040
7.0384083892696614
1070
     1
1040
9.1023430879020122
1040
7.0384083892696614
1040
8.869870379100524
1040
7.040437147864341
1071
        0
1070
     0
1070
     1
1040
0.0
1040
1.0
1070
     0
1070
     1
1040
0.7853981633974483
1040
0.0
1040
0.0
1040
-0.0883883476483184
1040
0.0883883476483185
1070
     0
1071
        1
1040
0.0
1040
0.0
1040
0.0
1002
}
  0
INSERT
  5
23B
  8
0
  6
CONTINUOUS
 62
     7
  2
*X47
 10
0.0
 20
0.0
 30
0.0
1001
ACAD
1000
HATCH
1002
{
1070
    19
1000
ANSI31
1040
1.0
1040
0.0
1000
R14_HATCH_DATA
1000
23B
1011
1.0
1021
0.0
1031
0.0
1021
0.0
1031
0.0
1011
0.0
1021
0.0
1031
0.0
1021
1.0
1031
0.0
1011
0.0
1021
0.0
1031
0.0
1021
0.0
1031
1.0
1040
0.0
1010
0.0
1020
0.0
1030
1.0
1000
ANSI31
1070
     0
1070
     0
1071
        1
1071
        0
1071
        9
1070
     1
1040
8.6139648672895017
1040
6.495426381902166
1040
8.869870379100524
1040
6.493193128333532
1070
     1
1040
8.869870379100524
1040
6.493193128333532
1040
9.0076656546910758
1040
6.4931931283333908
1070
     1
1040
9.0076656546910758
1040
6.4931931283333908
1040
9.0076656546910758
1040
6.542405726758683
1070
     1
1040
9.0076656546910758
1040
6.542405726758683
1040
8.6730199853997352
1040
6.542405726758683
1070
     1
1040
8.6730199853997352
1040
6.542405726758683
1040
8.6730199853997352
1040
6.6878827897538669
1070
     1
1040
8.6730199853997352
1040
6.6878827897538669
1040
8.6336499066595795
1040
6.6878827897538669
1070
     1
1040
8.6336499066595795
1040
6.6878827897538669
1040
8.6336499066595795
1040
6.5404371853432792
1070
     1
1040
8.6336499066595795
1040
6.5404371853432792
1040
8.6139648672895017
1040
6.5404371853432792
1070
     1
1040
8.6139648672895017
1040
6.5404371853432792
1040
8.6139648672895017
1040
6.495426381902166
1071
        0
1070
     0
1070
     1
1040
0.0
1040
1.0
1070
     0
1070
     1
1040
0.7853981633974483
1040
0.0
1040
0.0
1040
-0.0883883476483184
1040
0.0883883476483185
1070
     0
1071
        1
1040
0.0
1040
0.0
1040
0.0
1002
}
  0
INSERT
  5
23C
  8
0
  6
CONTINUOUS
 62
     7
  2
*X48
 10
0.0
 20
0.0
 30
0.0
1001
ACAD
1000
HATCH
1002
{
1070
    19
1000
ANSI31
1040
1.0
1040
0.0
1000
R14_HATCH_DATA
1000
23C
1011
1.0
1021
0.0
1031
0.0
1021
0.0
1031
0.0
1011
0.0
1021
0.0
1031
0.0
1021
1.0
1031
0.0
1011
0.0
1021
0.0
1031
0.0
1021
0.0
1031
1.0
1040
0.0
1010
0.0
1020
0.0
1030
1.0
1000
ANSI31
1070
     0
1070
     0
1071
        1
1071
        0
1071
        4
1070
     1
1040
8.6533349460296591
1040
6.8369839827872916
1040
8.6533349460296591
1040
6.6966462934104412
1070
     1
1040
8.6533349460296591
1040
6.6966462934104412
1040
8.6730199853997352
1040
6.6966462934105806
1070
     1
1040
8.6730199853997352
1040
6.6966462934105806
1040
8.6730199853997352
1040
6.8369839827870118
1070
     1
1040
8.6730199853997352
1040
6.8369839827870118
1040
8.6533349460296591
1040
6.8369839827872916
1071
        0
1070
     0
1070
     1
1040
0.0
1040
1.0
1070
     0
1070
     1
1040
0.7853981633974483
1040
0.0
1040
0.0
1040
-0.0883883476483184
1040
0.0883883476483185
1070
     0
1071
        1
1040
0.0
1040
0.0
1040
0.0
1002
}
  0
INSERT
  5
23D
  8
0
  6
CONTINUOUS
 62
     7
  2
*X49
 10
0.0
 20
0.0
 30
0.0
1001
ACAD
1000
HATCH
1002
{
1070
    19
1000
ANSI31
1040
1.0
1040
0.0
1000
R14_HATCH_DATA
1000
23D
1011
1.0
1021
0.0
1031
0.0
1021
0.0
1031
0.0
1011
0.0
1021
0.0
1031
0.0
1021
1.0
1031
0.0
1011
0.0
1021
0.0
1031
0.0
1021
0.0
1031
1.0
1040
0.0
1010
0.0
1020
0.0
1030
1.0
1000
ANSI31
1070
     0
1070
     0
1071
        1
1071
        0
1071
        4
1070
     1
1040
9.6966420326438598
1040
6.5214841313259972
1040
9.6966420326438616
1040
6.2134378375109227
1070
     1
1040
9.6966420326438616
1040
6.2134378375109227
1040
9.8619963633525245
1040
6.2134378375109227
1070
     1
1040
9.8619963633525245
1040
6.2134378375109227
1040
9.8619963633525192
1040
6.5214841313259972
1070
     1
1040
9.8619963633525192
1040
6.5214841313259972
1040
9.6966420326438598
1040
6.5214841313259972
1071
        0
1070
     0
1070
     1
1040
0.0
1040
1.0
1070
     0
1070
     1
1040
0.7853981633974483
1040
0.0
1040
0.0
1040
-0.0883883476483184
1040
0.0883883476483185
1070
     0
1071
        1
1040
0.0
1040
0.0
1040
0.0
1002
}
  0
INSERT
  5
23E
  8
0
  6
CONTINUOUS
 62
     7
  2
*X50
 10
0.0
 20
0.0
 30
0.0
1001
ACAD
1000
HATCH
1002
{
1070
    19
1000
ANSI37
1040
1.0
1040
0.0
1000
R14_HATCH_DATA
1000
23E
1011
1.0
1021
0.0
1031
0.0
1021
0.0
1031
0.0
1011
0.0
1021
0.0
1031
0.0
1021
1.0
1031
0.0
1011
0.0
1021
0.0
1031
0.0
1021
0.0
1031
1.0
1040
0.0
1010
0.0
1020
0.0
1030
1.0
1000
ANSI37
1070
     0
1070
     0
1071
        1
1071
        0
1071
        4
1070
     1
1040
9.5194766783170692
1040
3.777483430793747
1040
9.4564845523328174
1040
3.777483430793747
1070
     1
1040
9.4564845523328174
1040
3.777483430793747
1040
9.4564845523328174
1040
3.562090766128994
1070
     1
1040
9.4564845523328174
1040
3.562090766128994
1040
9.519476678317071
1040
3.562090766128994
1070
     1
1040
9.519476678317071
1040
3.562090766128994
1040
9.5194766783170692
1040
3.777483430793747
1071
        0
1070
     0
1070
     1
1040
0.0
1040
1.0
1070
     0
1070
     2
1040
0.7853981633974483
1040
0.0
1040
0.0
1040
-0.0883883476483184
1040
0.0883883476483185
1070
     0
1040
2.3561944901923439
1040
0.0
1040
0.0
1040
-0.0883883476483185
1040
-0.0883883476483184
1070
     0
1071
        1
1040
0.0
1040
0.0
1040
0.0
1002
}
  0
INSERT
  5
23F
  8
0
  6
CONTINUOUS
 62
     7
  2
*X51
 10
0.0
 20
0.0
 30
0.0
1001
ACAD
1000
HATCH
1002
{
1070
    19
1000
ANSI37
1040
1.0
1040
0.0
1000
R14_HATCH_DATA
1000
23F
1011
1.0
1021
0.0
1031
0.0
1021
0.0
1031
0.0
1011
0.0
1021
0.0
1031
0.0
1021
1.0
1031
0.0
1011
0.0
1021
0.0
1031
0.0
1021
0.0
1031
1.0
1040
0.0
1010
0.0
1020
0.0
1030
1.0
1000
ANSI37
1070
     0
1070
     0
1071
        1
1071
        0
1071
        4
1070
     1
1040
9.5194766783170568
1040
6.9833506086486778
1040
9.4564845523328067
1040
6.9833506086486778
1070
     1
1040
9.4564845523328067
1040
6.9833506086486778
1040
9.4564845523328067
1040
6.7679579439839248
1070
     1
1040
9.4564845523328067
1040
6.7679579439839248
1040
9.5194766783170586
1040
6.7679579439839248
1070
     1
1040
9.5194766783170586
1040
6.7679579439839248
1040
9.5194766783170568
1040
6.9833506086486778
1071
        0
1070
     0
1070
     1
1040
0.0
1040
1.0
1070
     0
1070
     2
1040
0.7853981633974483
1040
0.0
1040
0.0
1040
-0.0883883476483184
1040
0.0883883476483185
1070
     0
1040
2.3561944901923439
1040
0.0
1040
0.0
1040
-0.0883883476483185
1040
-0.0883883476483184
1070
     0
1071
        1
1040
0.0
1040
0.0
1040
0.0
1002
}
  0
INSERT
  5
240
  8
0
  6
CONTINUOUS
 62
     7
  2
*X52
 10
0.0
 20
0.0
 30
0.0
1001
ACAD
1000
HATCH
1002
{
1070
    19
1000
ANSI37
1040
1.0
1040
0.0
1000
R14_HATCH_DATA
1000
240
1011
1.0
1021
0.0
1031
0.0
1021
0.0
1031
0.0
1011
0.0
1021
0.0
1031
0.0
1021
1.0
1031
0.0
1011
0.0
1021
0.0
1031
0.0
1021
0.0
1031
1.0
1040
0.0
1010
0.0
1020
0.0
1030
1.0
1000
ANSI37
1070
     0
1070
     0
1071
        1
1071
        0
1071
        4
1070
     1
1040
9.4564845523328067
1040
6.7538613835495704
1040
9.4564845523328174
1040
3.7915799912281032
1070
     1
1040
9.4564845523328174
1040
3.7915799912281032
1040
9.5194766783170692
1040
3.7915799912281032
1070
     1
1040
9.5194766783170692
1040
3.7915799912281032
1040
9.5194766783170586
1040
6.7538613835495704
1070
     1
1040
9.5194766783170586
1040
6.7538613835495704
1040
9.4564845523328067
1040
6.7538613835495704
1071
        0
1070
     0
1070
     1
1040
0.0
1040
1.0
1070
     0
1070
     2
1040
0.7853981633974483
1040
0.0
1040
0.0
1040
-0.0883883476483184
1040
0.0883883476483185
1070
     0
1040
2.3561944901923439
1040
0.0
1040
0.0
1040
-0.0883883476483185
1040
-0.0883883476483184
1070
     0
1071
        1
1040
0.0
1040
0.0
1040
0.0
1002
}
  0
INSERT
  5
241
  8
0
  6
CONTINUOUS
 62
     7
  2
*X53
 10
0.0
 20
0.0
 30
0.0
1001
ACAD
1000
HATCH
1002
{
1070
    19
1000
ANSI31
1040
1.0
1040
0.0
1000
R14_HATCH_DATA
1000
241
1011
1.0
1021
0.0
1031
0.0
1021
0.0
1031
0.0
1011
0.0
1021
0.0
1031
0.0
1021
1.0
1031
0.0
1011
0.0
1021
0.0
1031
0.0
1021
0.0
1031
1.0
1040
0.0
1010
0.0
1020
0.0
1030
1.0
1000
ANSI31
1070
     0
1070
     0
1071
        1
1071
        0
1071
       79
1070
     1
1040
9.251760142879732
1040
6.753035648018944
1040
9.2517601428798084
1040
6.7648466716409636
1070
     1
1040
9.2517601428798084
1040
6.7648466716409636
1040
9.2497916389427992
1040
6.7668151755780368
1070
     1
1040
9.2497916389427992
1040
6.7668151755780368
1040
9.2517601428798084
1040
6.76878367951511
1070
     1
1040
9.2517601428798084
1040
6.76878367951511
1040
9.2517601428798066
1040
6.7805947031371296
1070
     1
1040
9.2517601428798066
1040
6.7805947031371296
1040
9.2497916389427992
1040
6.7825632070740642
1070
     1
1040
9.2497916389427992
1040
6.7825632070740642
1040
9.2517601428798066
1040
6.7845317110111374
1070
     1
1040
9.2517601428798066
1040
6.7845317110111374
1040
9.2517601428798066
1040
6.7963427346331571
1070
     1
1040
9.2517601428798066
1040
6.7963427346331571
1040
9.2497916389427992
1040
6.7983112385702302
1070
     1
1040
9.2497916389427992
1040
6.7983112385702302
1040
9.2517601428798066
1040
6.800279742507163
1070
     1
1040
9.2517601428798066
1040
6.800279742507163
1040
9.2517601428798066
1040
6.8120907661291827
1070
     1
1040
9.2517601428798066
1040
6.8120907661291827
1040
9.2497916389427992
1040
6.8140592700662559
1070
     1
1040
9.2497916389427992
1040
6.8140592700662559
1040
9.2517601428798066
1040
6.8160277740031887
1070
     1
1040
9.2517601428798066
1040
6.8160277740031887
1040
9.2517601428798066
1040
6.8278387976252093
1070
     1
1040
9.2517601428798066
1040
6.8278387976252093
1040
9.2497916389427992
1040
6.8298073015622824
1070
     1
1040
9.2497916389427992
1040
6.8298073015622824
1040
9.2517601428798066
1040
6.8317758054993556
1070
     1
1040
9.2517601428798066
1040
6.8317758054993556
1040
9.2517601428798066
1040
6.8435868291213762
1070
     1
1040
9.2517601428798066
1040
6.8435868291213762
1040
9.2497916389427992
1040
6.8455553330583081
1070
     1
1040
9.2497916389427992
1040
6.8455553330583081
1040
9.2517601428798066
1040
6.8475238369953821
1070
     1
1040
9.2517601428798066
1040
6.8475238369953821
1040
9.2517601428798066
1040
6.8514608448693881
1070
     2
1040
9.2202640798876807
1040
6.8514608448693881
1040
0.031496062992126
1040
0.0
1040
0.722734247814028
1070
     1
1070
     1
1040
9.2438861271317752
1040
6.8722935323581122
1040
9.2438861271317752
1040
6.90067344329454
1070
     1
1040
9.2438861271317752
1040
6.90067344329454
1040
9.1572719539034289
1040
6.94791753778276
1070
     1
1040
9.1572719539034289
1040
6.94791753778276
1040
9.1277443948483121
1040
6.94791753778276
1070
     1
1040
9.1277443948483121
1040
6.94791753778276
1040
9.1277443948483121
1040
6.9361065141607403
1070
     1
1040
9.1277443948483121
1040
6.9361065141607403
1040
8.924988489336501
1040
6.8731143881764938
1070
     1
1040
8.924988489336501
1040
6.8731143881764938
1040
8.924988489336501
1040
6.8453114141900731
1070
     1
1040
8.924988489336501
1040
6.8453114141900731
1040
8.9367995129585474
1040
6.8453114141900731
1070
     4
1070
     3
1070
     1
1070
     0
1071
       35
1071
       31
1040
0.0
1040
0.0
1040
0.0
1040
0.0
1040
0.0000117668889661
1040
0.0000117668889661
1040
0.0000117668889661
1040
0.0000489391775587
1040
0.0000489391775587
1040
0.0000489391775587
1040
0.0000833025359388
1040
0.0000833025359388
1040
0.0000833025359388
1040
0.0001153647465382
1040
0.0001153647465382
1040
0.0001153647465382
1040
0.0001464856100123
1040
0.0001464856100123
1040
0.0001464856100123
1040
0.0001785549804985
1040
0.0001785549804985
1040
0.0001785549804985
1040
0.0002133498632192
1040
0.0002133498632192
1040
0.0002133498632192
1040
0.0002513281716004
1040
0.0002513281716004
1040
0.0002513281716004
1040
0.0002908595231176
1040
0.0002908595231176
1040
0.0002908595231176
1040
0.0003303042620621
1040
0.0003303042620621
1040
0.0003303042620621
1040
0.0003303042620621
1040
8.9367995129585474
1040
6.8453114141900731
1040
1.0
1040
8.9367995129585491
1040
6.845156993075018
1040
1.0
1040
8.9368072826718254
1040
6.8450023778940974
1040
1.0
1040
8.9368227624748364
1040
6.8448487346174476
1040
1.0
1040
8.9368711114670418
1040
6.844368851405644
1040
1.0
1040
8.9369969375123635
1040
6.843890572063775
1040
1.0
1040
8.9371933220809332
1040
6.8434500512093344
1040
1.0
1040
8.9373750534423753
1040
6.8430423997567917
1040
1.0
1040
8.9376216172915903
1040
6.8426574641269653
1040
1.0
1040
8.9379195281137545
1040
6.8423251162121757
1040
1.0
1040
8.9381976040334035
1040
6.842014896021503
1040
1.0
1040
8.9385270887029389
1040
6.8417435063164644
1040
1.0
1040
8.9388873906205326
1040
6.8415343525167431
1040
1.0
1040
8.9392369598421322
1040
6.8413314290034393
1040
1.0
1040
8.9396242777042936
1040
6.8411825175363452
1040
1.0
1040
8.9400204727659354
1040
6.8411024796322009
1040
1.0
1040
8.9404281472914278
1040
6.8410201226880503
1040
1.0
1040
8.9408563990617722
1040
6.8410088940455367
1040
1.0
1040
8.9412677824845161
1040
6.8410700893433951
1040
1.0
1040
8.9417132292591202
1040
6.8411363517315884
1040
1.0
1040
8.9421526362324393
1040
6.8412896954455169
1040
1.0
1040
8.9425448558746297
1040
6.8415110035687006
1040
1.0
1040
8.9429724677499838
1040
6.8417522815960403
1040
1.0
1040
8.9433585958155906
1040
6.8420818916207029
1040
1.0
1040
8.9436703340649721
1040
6.8424612150530697
1040
1.0
1040
8.9439950163795121
1040
6.842856288837571
1040
1.0
1040
8.9442502573374405
1040
6.843317607366985
1040
1.0
1040
8.9444185890479702
1040
6.8438004803687598
1040
1.0
1040
8.9445867203067966
1040
6.8442827783587923
1040
1.0
1040
8.9446735287065788
1040
6.8448006505741743
1040
1.0
1040
8.9446735287065806
1040
6.8453114141900731
1040
1.0
1070
     1
1040
8.9446735287065806
1040
6.8453114141900731
1040
9.0391617176825303
1040
6.8453114141934304
1070
     4
1070
     3
1070
     1
1070
     0
1071
        8
1071
        4
1040
0.0
1040
0.0
1040
0.0
1040
0.0
1040
0.0006000297640922
1040
0.0006000297640922
1040
0.0006000297640922
1040
0.0006000297640922
1040
9.0391617176825303
1040
6.8453114141934304
1040
1.0
1040
9.0421570361657544
1040
6.8380289460270793
1040
1.0
1040
9.0451037024926269
1040
6.8307253971460922
1040
1.0
1040
9.0479260618823467
1040
6.823374168481064
1040
1.0
1070
     1
1040
9.0479260618817765
1040
6.8233741684795248
1040
9.0568782531160288
1040
6.8233741684795248
1070
     1
1040
9.0568782531160288
1040
6.8233741684795248
1040
9.0568782531160288
1040
6.8475238369953821
1070
     1
1040
9.0568782531160288
1040
6.8475238369953821
1040
9.1395554184703585
1040
6.8475238369953821
1070
     1
1040
9.1395554184703585
1040
6.8475238369953821
1040
9.1395554184703585
1040
6.8210780995934979
1070
     1
1040
9.1395554184703585
1040
6.8210780995934979
1040
9.0352247098089435
1040
6.8210780995934979
1070
     1
1040
9.0352247098089435
1040
6.8210780995934979
1040
9.0352247098089418
1040
6.830121365857412
1070
     4
1070
     3
1070
     1
1070
     0
1071
       20
1071
       16
1040
0.0
1040
0.0
1040
0.0
1040
0.0
1040
0.0001041338840549
1040
0.0001041338840549
1040
0.0001041338840549
1040
0.0002089188571536
1040
0.0002089188571536
1040
0.0002089188571536
1040
0.0003062484196949
1040
0.0003062484196949
1040
0.0003062484196949
1040
0.0004008129992668
1040
0.0004008129992668
1040
0.0004008129992668
1040
0.0004955610584615
1040
0.0004955610584615
1040
0.0004955610584615
1040
0.0004955610584615
1040
9.0352247098089418
1040
6.830121365857833
1040
1.0
1040
9.0352247098089062
1040
6.8314879522627461
1040
1.0
1040
9.0350349262459986
1040
6.8328687430527992
1040
1.0
1040
9.0346542798878282
1040
6.8341812470536452
1040
1.0
1040
9.0342717492882674
1040
6.8355002480937577
1040
1.0
1040
9.0336867685001874
1040
6.8367785332331588
1040
1.0
1040
9.0329229199889571
1040
6.8379198609053908
1040
1.0
1040
9.0322131907646401
1040
6.8389803245858651
1040
1.0
1040
9.0313321883038569
1040
6.8399459809972507
1040
1.0
1040
9.0303308051159501
1040
6.840736885859064
1040
1.0
1040
9.0293583907600592
1040
6.8415049107780366
1040
1.0
1040
9.0282480635185411
1040
6.8421258668022036
1040
1.0
1040
9.0270805382916617
1040
6.8425410014794954
1040
1.0
1040
9.0259117503454291
1040
6.8429565851393681
1040
1.0
1040
9.0246541599035268
1040
6.8431759589715044
1040
1.0
1040
9.0234136861868954
1040
6.8431759589715044
1040
1.0
1070
     1
1040
9.0234136861868954
1040
6.8431759589715044
1040
8.9801065995727214
1040
6.8431759589715044
1070
     4
1070
     3
1070
     1
1070
     0
1071
       20
1071
       16
1040
0.0
1040
0.0
1040
0.0
1040
0.0
1040
0.0000253534807027
1040
0.0000253534807027
1040
0.0000253534807027
1040
0.0000942463113414
1040
0.0000942463113414
1040
0.0000942463113414
1040
0.0001703009784695
1040
0.0001703009784695
1040
0.0001703009784695
1040
0.0002518794201835
1040
0.0002518794201835
1040
0.0002518794201835
1040
0.0003331255170581
1040
0.0003331255170581
1040
0.0003331255170581
1040
0.0003331255170581
1040
8.9801065995727214
1040
6.8431759589715044
1040
1.0
1040
8.9797738767288529
1040
6.8431759589715044
1040
1.0
1040
8.9794403718490035
1040
6.843152906978573
1040
1.0
1040
8.9791108007967022
1040
6.8431072187709914
1040
1.0
1040
8.9782280869972162
1040
6.8429848487659077
1040
1.0
1040
8.9773553462301248
1040
6.8426925259414828
1040
1.0
1040
8.9765734972363571
1040
6.8422648926629153
1040
1.0
1040
8.9757118806197518
1040
6.8417936303840197
1040
1.0
1040
8.974931493195065
1040
6.8411427742468112
1040
1.0
1040
8.9743009452022413
1040
6.8403898595383144
1040
1.0
1040
8.9736247055642036
1040
6.8395823860774803
1040
1.0
1040
8.9730965350260306
1040
6.8386312823511686
1040
1.0
1040
8.9727513393192346
1040
6.8376362178497523
1040
1.0
1040
8.9724069431419782
1040
6.8366434580799966
1040
1.0
1040
8.9722325838246686
1040
6.8355775936613989
1040
1.0
1040
8.9722325838246881
1040
6.8345267936387959
1040
1.0
1070
     1
1040
8.9722325838246881
1040
6.8345267936389362
1040
8.9722325838246881
1040
6.7865002149480711
1070
     1
1040
8.9722325838246881
1040
6.7865002149480711
1040
9.0076656546908307
1040
6.7865002149480711
1070
     1
1040
9.0076656546908307
1040
6.7865002149480711
1040
9.0076656546908325
1040
6.7550041519560171
1070
     1
1040
9.0076656546908325
1040
6.7550041519560171
1040
8.9722325838246881
1040
6.7550041519560171
1070
     1
1040
8.9722325838246881
1040
6.7550041519560171
1040
8.9722325838246917
1040
6.7069775732652923
1070
     4
1070
     3
1070
     1
1070
     0
1071
       20
1071
       16
1040
0.0
1040
0.0
1040
0.0
1040
0.0
1040
0.0000677366405204
1040
0.0000677366405204
1040
0.0000677366405204
1040
0.0001377851167839
1040
0.0001377851167839
1040
0.0001377851167839
1040
0.0002028267520216
1040
0.0002028267520216
1040
0.0002028267520216
1040
0.0002659410679417
1040
0.0002659410679417
1040
0.0002659410679417
1040
0.0003291832100416
1040
0.0003291832100416
1040
0.0003291832100416
1040
0.0003291832100416
1040
8.9722325838246917
1040
6.7069775732652923
1040
1.0
1040
8.9722325838246864
1040
6.7060886409749951
1040
1.0
1040
8.9723564929259201
1040
6.7051907388636973
1040
1.0
1040
8.9726027145944602
1040
6.704336586941241
1040
1.0
1040
8.9728569174411899
1040
6.7034547480213149
1040
1.0
1040
8.9732480055998263
1040
6.7026003187333281
1040
1.0
1040
8.9737586595365535
1040
6.701837762817453
1040
1.0
1040
8.9742330153287035
1040
6.7011294106645272
1040
1.0
1040
8.9748218656530891
1040
6.7004845165960223
1040
1.0
1040
8.975491000581
1040
6.6999562793023948
1040
1.0
1040
8.9761399785166827
1040
6.6994439546066218
1040
1.0
1040
8.9768807713047263
1040
6.6990295643139026
1040
1.0
1040
8.9776597707554284
1040
6.6987524202885886
1040
1.0
1040
8.9784396507201034
1040
6.6984749630035854
1040
1.0
1040
8.9792788343256014
1040
6.6983284079327241
1040
1.0
1040
8.9801065995727214
1040
6.6983284079327241
1040
1.0
1070
     1
1040
8.9801065995727214
1040
6.6983284079325838
1040
9.0234136861868954
1040
6.6983284079325838
1070
     4
1070
     3
1070
     1
1070
     0
1071
       20
1071
       16
1040
0.0
1040
0.0
1040
0.0
1040
0.0
1040
0.0000362731700322
1040
0.0000362731700322
1040
0.0000362731700322
1040
0.0001391940632765
1040
0.0001391940632765
1040
0.0001391940632765
1040
0.0002534555532533
1040
0.0002534555532533
1040
0.0002534555532533
1040
0.0003779502142247
1040
0.0003779502142247
1040
0.0003779502142247
1040
0.0005018142927422
1040
0.0005018142927422
1040
0.0005018142927422
1040
0.0005018142927422
1040
9.0234136861868954
1040
6.6983284079325838
1040
1.0
1040
9.0238897120403365
1040
6.6983284079325838
1040
1.0
1040
9.0243667570236283
1040
6.6983598484824149
1040
1.0
1040
9.0248386791495712
1040
6.6984222193104266
1040
1.0
1040
9.0261583652003932
1040
6.6985966334927722
1040
1.0
1040
9.0274648713307304
1040
6.6990240481004149
1040
1.0
1040
9.0286373063442316
1040
6.699654435059986
1040
1.0
1040
9.0299363238690837
1040
6.7003528820514973
1040
1.0
1040
9.0311147248630324
1040
6.7013234656432967
1040
1.0
1040
9.0320674979777493
1040
6.7024492978340948
1040
1.0
1040
9.0331049956712182
1040
6.7036752437419649
1040
1.0
1040
9.0339128573952898
1040
6.7051260896887941
1040
1.0
1040
9.0344383419645524
1040
6.7066437229779643
1040
1.0
1040
9.0349622966586463
1040
6.7081569378891688
1040
1.0
1040
9.0352247098089453
1040
6.7097816429078101
1040
1.0
1040
9.0352247098089435
1040
6.7113830010466753
1040
1.0
1070
     1
1040
9.0352247098089435
1040
6.7113830010466753
1040
9.0352247098089435
1040
6.7204262673105903
1070
     1
1040
9.0352247098089435
1040
6.7204262673105903
1040
9.1395554184703602
1040
6.7204262673105903
1070
     1
1040
9.1395554184703602
1040
6.7204262673105903
1040
9.1395554184703602
1040
6.6939805299087061
1070
     1
1040
9.1395554184703602
1040
6.6939805299087061
1040
9.0568782531160288
1040
6.6939805299087061
1070
     1
1040
9.0568782531160288
1040
6.6939805299087061
1040
9.0568782531160288
1040
6.7181301984245634
1070
     1
1040
9.0568782531160288
1040
6.7181301984245634
1040
9.0479260618823467
1040
6.7181301984230251
1070
     4
1070
     3
1070
     1
1070
     0
1071
        8
1071
        4
1040
0.0
1040
0.0
1040
0.0
1040
0.0
1040
0.0006000297640922
1040
0.0006000297640922
1040
0.0006000297640922
1040
0.0006000297640922
1040
9.0479260618823467
1040
6.7181301984230251
1040
1.0
1040
9.0451037024926269
1040
6.710778969757996
1040
1.0
1040
9.0421570361657544
1040
6.703475420877008
1040
1.0
1040
9.0391617176825303
1040
6.6961929527106578
1040
1.0
1070
     1
1040
9.0391617176829584
1040
6.6961929527140152
1040
8.9446735287065806
1040
6.6961929527140152
1070
     4
1070
     3
1070
     1
1070
     0
1071
       35
1071
       31
1040
0.0
1040
0.0
1040
0.0
1040
0.0
1040
0.0000117668889661
1040
0.0000117668889661
1040
0.0000117668889661
1040
0.0000489391775587
1040
0.0000489391775587
1040
0.0000489391775587
1040
0.0000833025359388
1040
0.0000833025359388
1040
0.0000833025359388
1040
0.0001153647465382
1040
0.0001153647465382
1040
0.0001153647465382
1040
0.0001464856100123
1040
0.0001464856100123
1040
0.0001464856100123
1040
0.0001785549804985
1040
0.0001785549804985
1040
0.0001785549804985
1040
0.0002133498632192
1040
0.0002133498632192
1040
0.0002133498632192
1040
0.0002513281716004
1040
0.0002513281716004
1040
0.0002513281716004
1040
0.0002908595231176
1040
0.0002908595231176
1040
0.0002908595231176
1040
0.0003303042620621
1040
0.0003303042620621
1040
0.0003303042620621
1040
0.0003303042620621
1040
8.9446735287065806
1040
6.6961929527140152
1040
1.0
1040
8.9446735287065806
1040
6.6963473738290702
1040
1.0
1040
8.9446657589933043
1040
6.6965019890099899
1040
1.0
1040
8.9446502791902915
1040
6.6966556322866397
1040
1.0
1040
8.9446019301980861
1040
6.6971355154984433
1040
1.0
1040
8.9444761041527663
1040
6.697613794840314
1040
1.0
1040
8.9442797195841948
1040
6.698054315694753
1040
1.0
1040
8.9440979882227545
1040
6.6984619671472947
1040
1.0
1040
8.9438514243735394
1040
6.6988469027771229
1040
1.0
1040
8.9435535135513753
1040
6.6991792506919108
1040
1.0
1040
8.9432754376317263
1040
6.6994894708825852
1040
1.0
1040
8.9429459529621909
1040
6.6997608605876238
1040
1.0
1040
8.9425856510445971
1040
6.6999700143873451
1040
1.0
1040
8.942236081822994
1040
6.7001729379006481
1040
1.0
1040
8.9418487639608362
1040
6.7003218493677421
1040
1.0
1040
8.9414525688991926
1040
6.7004018872718856
1040
1.0
1040
8.9410448943737002
1040
6.7004842442160371
1040
1.0
1040
8.9406166426033522
1040
6.7004954728585497
1040
1.0
1040
8.94020525918061
1040
6.7004342775606931
1040
1.0
1040
8.9397598124060096
1040
6.7003680151724998
1040
1.0
1040
8.9393204054326905
1040
6.7002146714585713
1040
1.0
1040
8.9389281857904983
1040
6.6999933633353868
1040
1.0
1040
8.9385005739151442
1040
6.6997520853080479
1040
1.0
1040
8.9381144458495392
1040
6.6994224752833853
1040
1.0
1040
8.9378027076001558
1040
6.6990431518510176
1040
1.0
1040
8.9374780252856159
1040
6.6986480780665172
1040
1.0
1040
8.9372227843276892
1040
6.6981867595371041
1040
1.0
1040
8.937054452617156
1040
6.6977038865353284
1040
1.0
1040
8.9368863213583332
1040
6.697221588545295
1040
1.0
1040
8.9367995129585491
1040
6.696703716329913
1040
1.0
1040
8.9367995129585491
1040
6.6961929527140152
1040
1.0
1070
     1
1040
8.9367995129585491
1040
6.6961929527140152
1040
8.9249884893365028
1040
6.6961929527140152
1070
     1
1040
8.9249884893365028
1040
6.6961929527140152
1040
8.924988489336501
1040
6.6683899787275926
1070
     1
1040
8.924988489336501
1040
6.6683899787275926
1040
9.2202640798876825
1040
6.5935868291213291
1070
     1
1040
9.2202640798876825
1040
6.5935868291213291
1040
9.4564845523286252
1040
6.5935868291213291
1070
     1
1040
9.4564845523286252
1040
6.5935868291213291
1040
9.4564845523286252
1040
6.94791753778276
1070
     1
1040
9.4564845523286252
1040
6.94791753778276
1040
9.3777443948483086
1040
6.94791753778276
1070
     1
1040
9.3777443948483086
1040
6.94791753778276
1040
9.3501853397301762
1040
6.90067344329454
1070
     1
1040
9.3501853397301762
1040
6.90067344329454
1040
9.3501853397302011
1040
6.8475238369953821
1070
     1
1040
9.3501853397302011
1040
6.8475238369953821
1040
9.3344373082341381
1040
6.8475238369953821
1070
     1
1040
9.3344373082341381
1040
6.8475238369953821
1040
9.3344373082341381
1040
6.6939805299087061
1070
     1
1040
9.3344373082341381
1040
6.6939805299087061
1040
9.2517601428798084
1040
6.6939805299087061
1070
     1
1040
9.2517601428798084
1040
6.6939805299087061
1040
9.2517601428798084
1040
6.7018545456567189
1070
     1
1040
9.2517601428798084
1040
6.7018545456567189
1040
9.2497916389427992
1040
6.703823049593792
1070
     1
1040
9.2497916389427992
1040
6.703823049593792
1040
9.251760142879732
1040
6.7057915535307249
1070
     1
1040
9.251760142879732
1040
6.7057915535307249
1040
9.2517601428798084
1040
6.7176025771528849
1070
     1
1040
9.2517601428798084
1040
6.7176025771528849
1040
9.2497916389428738
1040
6.7195710810898186
1070
     1
1040
9.2497916389428738
1040
6.7195710810898186
1040
9.2517601428798066
1040
6.7215395850268917
1070
     1
1040
9.2517601428798066
1040
6.7215395850268917
1040
9.2517601428798084
1040
6.7333506086489123
1070
     1
1040
9.2517601428798084
1040
6.7333506086489123
1040
9.2497916389428738
1040
6.7353191125858451
1070
     1
1040
9.2497916389428738
1040
6.7353191125858451
1040
9.2517601428798084
1040
6.7372876165229183
1070
     1
1040
9.2517601428798084
1040
6.7372876165229183
1040
9.2517601428798084
1040
6.7490986401449371
1070
     1
1040
9.2517601428798084
1040
6.7490986401449371
1040
9.2497916389427992
1040
6.7510671440820111
1070
     1
1040
9.2497916389427992
1040
6.7510671440820111
1040
9.251760142879732
1040
6.753035648018944
1071
        0
1070
     0
1070
     1
1040
0.0
1040
1.0
1070
     0
1070
     1
1040
0.7853981633974483
1040
0.0
1040
0.0
1040
-0.0883883476483184
1040
0.0883883476483185
1070
     0
1071
        1
1040
0.0
1040
0.0
1040
0.0
1002
}
  0
INSERT
  5
242
  8
0
  6
CONTINUOUS
 62
     7
  2
*X54
 10
0.0
 20
0.0
 30
0.0
1001
ACAD
1000
HATCH
1002
{
1070
    19
1000
ANSI31
1040
1.0
1040
0.0
1000
R14_HATCH_DATA
1000
242
1011
1.0
1021
0.0
1031
0.0
1021
0.0
1031
0.0
1011
0.0
1021
0.0
1031
0.0
1021
1.0
1031
0.0
1011
0.0
1021
0.0
1031
0.0
1021
0.0
1031
1.0
1040
0.0
1010
0.0
1020
0.0
1030
1.0
1000
ANSI31
1070
     0
1070
     0
1071
        1
1071
        0
1071
       79
1070
     1
1040
9.2517601428799576
1040
3.7805947031365692
1040
9.251760142879883
1040
3.7924057267585889
1070
     1
1040
9.251760142879883
1040
3.7924057267585889
1040
9.2497916389429502
1040
3.7943742306955222
1070
     1
1040
9.2497916389429502
1040
3.7943742306955222
1040
9.2517601428799576
1040
3.7963427346325949
1070
     1
1040
9.2517601428799576
1040
3.7963427346325949
1040
9.2517601428799576
1040
3.808153758254615
1070
     1
1040
9.2517601428799576
1040
3.808153758254615
1040
9.2497916389430248
1040
3.8101222621916881
1070
     1
1040
9.2497916389430248
1040
3.8101222621916881
1040
9.2517601428799576
1040
3.812090766128621
1070
     1
1040
9.2517601428799576
1040
3.812090766128621
1040
9.2517601428799576
1040
3.8239017897506411
1070
     1
1040
9.2517601428799576
1040
3.8239017897506411
1040
9.2497916389430248
1040
3.8258702936877151
1070
     1
1040
9.2497916389430248
1040
3.8258702936877151
1040
9.2517601428799576
1040
3.827838797624648
1070
     1
1040
9.2517601428799576
1040
3.827838797624648
1040
9.251760142879883
1040
3.8396498212468071
1070
     1
1040
9.251760142879883
1040
3.8396498212468071
1040
9.2497916389429484
1040
3.8416183251837408
1070
     1
1040
9.2497916389429484
1040
3.8416183251837408
1040
9.2517601428799576
1040
3.843586829120814
1070
     1
1040
9.2517601428799576
1040
3.843586829120814
1040
9.2517601428799576
1040
3.8514608448688268
1070
     1
1040
9.2517601428799576
1040
3.8514608448688268
1040
9.3344373082342891
1040
3.8514608448688268
1070
     1
1040
9.3344373082342891
1040
3.8514608448688268
1040
9.3344373082342891
1040
3.6979175377821512
1070
     1
1040
9.3344373082342891
1040
3.6979175377821512
1040
9.350185339730352
1040
3.6979175377821512
1070
     1
1040
9.350185339730352
1040
3.6979175377821512
1040
9.3501853397303272
1040
3.6447679314829919
1070
     1
1040
9.3501853397303272
1040
3.6447679314829919
1040
9.3777443948484613
1040
3.5975238369947742
1070
     1
1040
9.3777443948484613
1040
3.5975238369947742
1040
9.4564845523287762
1040
3.5975238369947742
1070
     1
1040
9.4564845523287762
1040
3.5975238369947742
1040
9.4564845523287762
1040
3.9518545456562051
1070
     1
1040
9.4564845523287762
1040
3.9518545456562051
1040
9.2202640798878317
1040
3.9518545456562051
1070
     1
1040
9.2202640798878317
1040
3.9518545456562051
1040
8.924988489336652
1040
3.8770513960499402
1070
     1
1040
8.924988489336652
1040
3.8770513960499402
1040
8.924988489336652
1040
3.8492484220633778
1070
     1
1040
8.924988489336652
1040
3.8492484220633778
1040
8.9367995129586983
1040
3.8492484220633778
1070
     4
1070
     3
1070
     1
1070
     0
1071
       35
1071
       31
1040
0.0
1040
0.0
1040
0.0
1040
0.0
1040
0.0000117668889625
1040
0.0000117668889625
1040
0.0000117668889625
1040
0.0000489391775586
1040
0.0000489391775586
1040
0.0000489391775586
1040
0.0000833025359357
1040
0.0000833025359357
1040
0.0000833025359357
1040
0.0001153647465354
1040
0.0001153647465354
1040
0.0001153647465354
1040
0.0001464856100106
1040
0.0001464856100106
1040
0.0001464856100106
1040
0.0001785549804966
1040
0.0001785549804966
1040
0.0001785549804966
1040
0.0002133498632179
1040
0.0002133498632179
1040
0.0002133498632179
1040
0.0002513281715968
1040
0.0002513281715968
1040
0.0002513281715968
1040
0.0002908595231136
1040
0.0002908595231136
1040
0.0002908595231136
1040
0.000330304262058
1040
0.000330304262058
1040
0.000330304262058
1040
0.000330304262058
1040
8.9367995129586983
1040
3.8492484220633778
1040
1.0
1040
8.9367995129587001
1040
3.8490940009483232
1040
1.0
1040
8.9368072826719818
1040
3.848939385767542
1040
1.0
1040
8.9368227624749874
1040
3.8487857424908931
1040
1.0
1040
8.9368711114671928
1040
3.84830585927909
1040
1.0
1040
8.9369969375124878
1040
3.8478275799370798
1040
1.0
1040
8.9371933220810842
1040
3.84738705908264
1040
1.0
1040
8.9373750534425156
1040
3.8469794076302382
1040
1.0
1040
8.9376216172917697
1040
3.8465944720004099
1040
1.0
1040
8.9379195281139054
1040
3.8462621240856221
1040
1.0
1040
8.9381976040335491
1040
3.845951903894949
1040
1.0
1040
8.9385270887030899
1040
3.8456805141899091
1040
1.0
1040
8.9388873906206818
1040
3.8454713603901882
1040
1.0
1040
8.9392369598422956
1040
3.8452684368768839
1040
1.0
1040
8.939624277704425
1040
3.84511952540965
1040
1.0
1040
8.9400204727660828
1040
3.8450394875055069
1040
1.0
1040
8.9404281472915752
1040
3.844957130561355
1040
1.0
1040
8.9408563990619232
1040
3.8449459019189831
1040
1.0
1040
8.9412677824846654
1040
3.8450070972168411
1040
1.0
1040
8.9417132292592676
1040
3.845073359605033
1040
1.0
1040
8.9421526362325885
1040
3.845226703318962
1040
1.0
1040
8.9425448558747771
1040
3.8454480114421461
1040
1.0
1040
8.9429724677501028
1040
3.8456892894694841
1040
1.0
1040
8.9433585958157522
1040
3.8460188994940081
1040
1.0
1040
8.9436703340651214
1040
3.8463982229263749
1040
1.0
1040
8.9439950163796667
1040
3.8467932967108762
1040
1.0
1040
8.9442502573375826
1040
3.8472546152402902
1040
1.0
1040
8.9444185890481211
1040
3.8477374882420659
1040
1.0
1040
8.9445867203069547
1040
3.8482197862320979
1040
1.0
1040
8.9446735287067192
1040
3.8487376584474791
1040
1.0
1040
8.9446735287067298
1040
3.8492484220633778
1040
1.0
1070
     1
1040
8.9446735287067298
1040
3.8492484220633778
1040
9.0391617176831094
1040
3.8492484220633778
1070
     4
1070
     3
1070
     1
1070
     0
1071
        8
1071
        4
1040
0.0
1040
0.0
1040
0.0
1040
0.0
1040
0.0006000297640922
1040
0.0006000297640922
1040
0.0006000297640922
1040
0.0006000297640922
1040
9.0391617176826795
1040
3.8492484220667351
1040
1.0
1040
9.0421570361659018
1040
3.8419659539003841
1040
1.0
1040
9.0451037024927814
1040
3.8346624050193969
1040
1.0
1040
9.0479260618824977
1040
3.8273111763543688
1040
1.0
1070
     1
1040
9.0479260618824977
1040
3.8273111763543688
1040
9.0568782531161798
1040
3.82731117635283
1070
     1
1040
9.0568782531161798
1040
3.82731117635283
1040
9.0568782531161798
1040
3.8514608448688268
1070
     1
1040
9.0568782531161798
1040
3.8514608448688268
1040
9.1395554184705095
1040
3.8514608448688268
1070
     1
1040
9.1395554184705095
1040
3.8514608448688268
1040
9.1395554184705095
1040
3.825015107466943
1070
     1
1040
9.1395554184705095
1040
3.825015107466943
1040
9.0352247098090928
1040
3.825015107466943
1070
     1
1040
9.0352247098090928
1040
3.825015107466943
1040
9.0352247098090928
1040
3.834058373730858
1070
     4
1070
     3
1070
     1
1070
     0
1071
       20
1071
       16
1040
0.0
1040
0.0
1040
0.0
1040
0.0
1040
0.0001041338840549
1040
0.0001041338840549
1040
0.0001041338840549
1040
0.0002089188571535
1040
0.0002089188571535
1040
0.0002089188571535
1040
0.0003062484196946
1040
0.0003062484196946
1040
0.0003062484196946
1040
0.0004008129992662
1040
0.0004008129992662
1040
0.0004008129992662
1040
0.0004955610584604
1040
0.0004955610584604
1040
0.0004955610584604
1040
0.0004955610584604
1040
9.0352247098090928
1040
3.8340583737312781
1040
1.0
1040
9.0352247098090501
1040
3.8354249601361912
1040
1.0
1040
9.0350349262461513
1040
3.8368057509262439
1040
1.0
1040
9.0346542798879774
1040
3.8381182549270898
1040
1.0
1040
9.0342717492884095
1040
3.8394372559672041
1040
1.0
1040
9.0336867685003366
1040
3.8407155411066052
1040
1.0
1040
9.0329229199891046
1040
3.8418568687788359
1040
1.0
1040
9.0322131907647822
1040
3.8429173324593102
1040
1.0
1040
9.0313321883040061
1040
3.8438829888706958
1040
1.0
1040
9.0303308051160958
1040
3.8446738937325091
1040
1.0
1040
9.0293583907602049
1040
3.8454419186514821
1040
1.0
1040
9.0282480635186904
1040
3.84606287467565
1040
1.0
1040
9.0270805382918091
1040
3.84647800935294
1040
1.0
1040
9.0259117503455855
1040
3.8468935930128132
1040
1.0
1040
9.0246541599036671
1040
3.8471129668448092
1040
1.0
1040
9.0234136861870464
1040
3.8471129668448092
1040
1.0
1070
     1
1040
9.0234136861870464
1040
3.8471129668448092
1040
8.9801065995728724
1040
3.8471129668449491
1070
     4
1070
     3
1070
     1
1070
     0
1071
       20
1071
       16
1040
0.0
1040
0.0
1040
0.0
1040
0.0
1040
0.0000253534806999
1040
0.0000253534806999
1040
0.0000253534806999
1040
0.0000942463113379
1040
0.0000942463113379
1040
0.0000942463113379
1040
0.0001703009784665
1040
0.0001703009784665
1040
0.0001703009784665
1040
0.0002518794201779
1040
0.0002518794201779
1040
0.0002518794201779
1040
0.0003331255170526
1040
0.0003331255170526
1040
0.0003331255170526
1040
0.0003331255170526
1040
8.9801065995728724
1040
3.8471129668448092
1040
1.0
1040
8.9797738767290411
1040
3.8471129668448092
1040
1.0
1040
8.9794403718492397
1040
3.8470899148517388
1040
1.0
1040
8.9791108007969775
1040
3.8470442266441558
1040
1.0
1040
8.9782280869975004
1040
3.8469218566390739
1040
1.0
1040
8.9773553462303894
1040
3.8466295338147889
1040
1.0
1040
8.9765734972366236
1040
3.84620190053622
1040
1.0
1040
8.9757118806200076
1040
3.8457306382573249
1040
1.0
1040
8.9749314931953226
1040
3.8450797821201159
1040
1.0
1040
8.9743009452024847
1040
3.8443268674116191
1040
1.0
1040
8.9736247055644558
1040
3.843519393950785
1040
1.0
1040
8.9730965350262402
1040
3.8425682902246141
1040
1.0
1040
8.9727513393194336
1040
3.8415732257231969
1040
1.0
1040
8.9724069431421523
1040
3.840580465953443
1040
1.0
1040
8.9722325838248445
1040
3.839514601534844
1040
1.0
1040
8.9722325838248391
1040
3.838463801512241
1040
1.0
1070
     1
1040
8.9722325838248391
1040
3.838463801512241
1040
8.9722325838248391
1040
3.7904372228215149
1070
     1
1040
8.9722325838248391
1040
3.7904372228215149
1040
9.0076656546909817
1040
3.7904372228215149
1070
     1
1040
9.0076656546909817
1040
3.7904372228215149
1040
9.0076656546909817
1040
3.7589411598294631
1070
     1
1040
9.0076656546909817
1040
3.7589411598294631
1040
8.9722325838248391
1040
3.7589411598294631
1070
     1
1040
8.9722325838248391
1040
3.7589411598294631
1040
8.9722325838248391
1040
3.710914581138737
1070
     4
1070
     3
1070
     1
1070
     0
1071
       20
1071
       16
1040
0.0
1040
0.0
1040
0.0
1040
0.0
1040
0.0000677366405204
1040
0.0000677366405204
1040
0.0000677366405204
1040
0.0001377851167841
1040
0.0001377851167841
1040
0.0001377851167841
1040
0.0002028267520221
1040
0.0002028267520221
1040
0.0002028267520221
1040
0.0002659410679428
1040
0.0002659410679428
1040
0.0002659410679428
1040
0.0003291832100432
1040
0.0003291832100432
1040
0.0003291832100432
1040
0.0003291832100432
1040
8.9722325838248391
1040
3.710914581138737
1040
1.0
1040
8.9722325838248302
1040
3.7100256488484402
1040
1.0
1040
8.9723564929260782
1040
3.709127746737142
1040
1.0
1040
8.972602714594613
1040
3.708273594814687
1040
1.0
1040
8.9728569174413337
1040
3.70739175589476
1040
1.0
1040
8.9732480055999861
1040
3.706537326606774
1040
1.0
1040
8.9737586595367063
1040
3.705774770690899
1040
1.0
1040
8.9742330153288492
1040
3.7050664185379718
1040
1.0
1040
8.9748218656532472
1040
3.7044215244694669
1040
1.0
1040
8.9754910005811528
1040
3.7038932871758399
1040
1.0
1040
8.9761399785168301
1040
3.7033809624800669
1040
1.0
1040
8.976880771304879
1040
3.7029665721873481
1040
1.0
1040
8.9776597707555794
1040
3.7026894281620342
1040
1.0
1040
8.9784396507202615
1040
3.7024119708768901
1040
1.0
1040
8.9792788343257435
1040
3.7022654158060289
1040
1.0
1040
8.9801065995728724
1040
3.7022654158060289
1040
1.0
1070
     1
1040
8.9801065995728724
1040
3.7022654158060289
1040
9.0234136861870464
1040
3.7022654158060289
1070
     4
1070
     3
1070
     1
1070
     0
1071
       20
1071
       16
1040
0.0
1040
0.0
1040
0.0
1040
0.0
1040
0.0000362731700316
1040
0.0000362731700316
1040
0.0000362731700316
1040
0.0001391940632771
1040
0.0001391940632771
1040
0.0001391940632771
1040
0.0002534555532518
1040
0.0002534555532518
1040
0.0002534555532518
1040
0.0003779502142264
1040
0.0003779502142264
1040
0.0003779502142264
1040
0.0005018142927403
1040
0.0005018142927403
1040
0.0005018142927403
1040
0.0005018142927403
1040
9.0234136861870464
1040
3.7022654158061692
1040
1.0
1040
9.0238897120404786
1040
3.7022654158061692
1040
1.0
1040
9.0243667570237722
1040
3.70229685635586
1040
1.0
1040
9.0248386791497115
1040
3.702359227183873
1040
1.0
1040
9.0261583652005442
1040
3.7025336413662169
1040
1.0
1040
9.0274648713308565
1040
3.7029610559739998
1040
1.0
1040
9.0286373063443701
1040
3.703591442933571
1040
1.0
1040
9.0299363238691956
1040
3.7042898899250818
1040
1.0
1040
9.0311147248631904
1040
3.7052604735168821
1040
1.0
1040
9.0320674979778932
1040
3.7063863057075408
1040
1.0
1040
9.033104995671394
1040
3.70761225161541
1040
1.0
1040
9.0339128573954302
1040
3.7090630975622401
1040
1.0
1040
9.0344383419647016
1040
3.7105807308515488
1040
1.0
1040
9.0349622966587706
1040
3.7120939457626152
1040
1.0
1040
9.0352247098090874
1040
3.7137186507813951
1040
1.0
1040
9.0352247098090945
1040
3.7153200089201199
1040
1.0
1070
     1
1040
9.0352247098090945
1040
3.7153200089201199
1040
9.0352247098090945
1040
3.724363275184035
1070
     1
1040
9.0352247098090945
1040
3.724363275184035
1040
9.1395554184705112
1040
3.724363275184035
1070
     1
1040
9.1395554184705112
1040
3.724363275184035
1040
9.1395554184705112
1040
3.6979175377821512
1070
     1
1040
9.1395554184705112
1040
3.6979175377821512
1040
9.0568782531161798
1040
3.6979175377821512
1070
     1
1040
9.0568782531161798
1040
3.6979175377821512
1040
9.0568782531161798
1040
3.7220672062981479
1070
     1
1040
9.0568782531161798
1040
3.7220672062981479
1040
9.0479260618819275
1040
3.7220672062981479
1070
     4
1070
     3
1070
     1
1070
     0
1071
        8
1071
        4
1040
0.0
1040
0.0
1040
0.0
1040
0.0
1040
0.0006000297640922
1040
0.0006000297640922
1040
0.0006000297640922
1040
0.0006000297640922
1040
9.0479260618824977
1040
3.7220672062966091
1040
1.0
1040
9.0451037024927814
1040
3.714715977631581
1040
1.0
1040
9.0421570361659036
1040
3.7074124287505938
1040
1.0
1040
9.0391617176826813
1040
3.7001299605842428
1040
1.0
1070
     1
1040
9.0391617176826813
1040
3.7001299605842428
1040
8.9446735287067316
1040
3.7001299605876001
1070
     4
1070
     3
1070
     1
1070
     0
1071
       35
1071
       31
1040
0.0
1040
0.0
1040
0.0
1040
0.0
1040
0.0000117668889625
1040
0.0000117668889625
1040
0.0000117668889625
1040
0.0000489391775586
1040
0.0000489391775586
1040
0.0000489391775586
1040
0.0000833025359357
1040
0.0000833025359357
1040
0.0000833025359357
1040
0.0001153647465354
1040
0.0001153647465354
1040
0.0001153647465354
1040
0.0001464856100106
1040
0.0001464856100106
1040
0.0001464856100106
1040
0.0001785549804966
1040
0.0001785549804966
1040
0.0001785549804966
1040
0.0002133498632179
1040
0.0002133498632179
1040
0.0002133498632179
1040
0.0002513281715968
1040
0.0002513281715968
1040
0.0002513281715968
1040
0.0002908595231136
1040
0.0002908595231136
1040
0.0002908595231136
1040
0.000330304262058
1040
0.000330304262058
1040
0.000330304262058
1040
0.000330304262058
1040
8.9446735287067316
1040
3.7001299605876001
1040
1.0
1040
8.944673528706728
1040
3.7002843817026552
1040
1.0
1040
8.9446657589934482
1040
3.7004389968834359
1040
1.0
1040
8.9446502791904425
1040
3.7005926401600848
1040
1.0
1040
8.9446019301982371
1040
3.701072523371888
1040
1.0
1040
8.9444761041529421
1040
3.701550802713899
1040
1.0
1040
8.9442797195843458
1040
3.7019913235683388
1040
1.0
1040
8.9440979882229144
1040
3.7023989750207411
1040
1.0
1040
8.9438514243736602
1040
3.702783910650568
1040
1.0
1040
8.9435535135515263
1040
3.7031162585653572
1040
1.0
1040
8.9432754376318808
1040
3.7034264787560298
1040
1.0
1040
8.9429459529623401
1040
3.7036978684610689
1040
1.0
1040
8.9425856510447481
1040
3.703907022260791
1040
1.0
1040
8.9422360818231343
1040
3.704109945774094
1040
1.0
1040
8.9418487639610031
1040
3.704258857241328
1040
1.0
1040
8.9414525688993471
1040
3.704338895145471
1040
1.0
1040
8.9410448943738547
1040
3.7044212520896229
1040
1.0
1040
8.9406166426035067
1040
3.7044324807319962
1040
1.0
1040
8.9402052591807664
1040
3.7043712854341382
1040
1.0
1040
8.9397598124061624
1040
3.7043050230459449
1040
1.0
1040
8.9393204054328415
1040
3.7041516793320159
1040
1.0
1040
8.9389281857906528
1040
3.7039303712088318
1040
1.0
1040
8.9385005739153272
1040
3.703689093181493
1040
1.0
1040
8.9381144458496777
1040
3.7033594831569698
1040
1.0
1040
8.9378027076003086
1040
3.702980159724603
1040
1.0
1040
8.9374780252857633
1040
3.7025850859401022
1040
1.0
1040
8.9372227843278473
1040
3.702123767410689
1040
1.0
1040
8.9370544526173088
1040
3.7016408944089121
1040
1.0
1040
8.9368863213584753
1040
3.7011585964188809
1040
1.0
1040
8.936799512958709
1040
3.7006407242034989
1040
1.0
1040
8.9367995129587001
1040
3.7001299605876001
1040
1.0
1070
     1
1040
8.9367995129587001
1040
3.7001299605876001
1040
8.924988489336652
1040
3.7001299605876001
1070
     1
1040
8.924988489336652
1040
3.7001299605876001
1040
8.924988489336652
1040
3.6723269866010391
1070
     1
1040
8.924988489336652
1040
3.6723269866010391
1040
9.1277443948484631
1040
3.609334860616793
1070
     1
1040
9.1277443948484631
1040
3.609334860616793
1040
9.1277443948484631
1040
3.5975238369947742
1070
     1
1040
9.1277443948484631
1040
3.5975238369947742
1040
9.1572719539035798
1040
3.5975238369947742
1070
     1
1040
9.1572719539035798
1040
3.5975238369947742
1040
9.2438861271319261
1040
3.6447679314829919
1070
     1
1040
9.2438861271319261
1040
3.6447679314829919
1040
9.2438861271319261
1040
3.673147842419421
1070
     2
1040
9.2202640798878317
1040
3.6939805299081452
1040
0.031496062992126
1040
5.5604510593655716
1040
6.2831853071796004
1070
     1
1070
     1
1040
9.2517601428799594
1040
3.6939805299081452
1040
9.2517601428799594
1040
3.6979175377821512
1070
     1
1040
9.2517601428799594
1040
3.6979175377821512
1040
9.2497916389429502
1040
3.6998860417192239
1070
     1
1040
9.2497916389429502
1040
3.6998860417192239
1040
9.2517601428799594
1040
3.701854545656158
1070
     1
1040
9.2517601428799594
1040
3.701854545656158
1040
9.2517601428799594
1040
3.7136655692781768
1070
     1
1040
9.2517601428799594
1040
3.7136655692781768
1040
9.2497916389429502
1040
3.7156340732152509
1070
     1
1040
9.2497916389429502
1040
3.7156340732152509
1040
9.2517601428799594
1040
3.717602577152324
1070
     1
1040
9.2517601428799594
1040
3.717602577152324
1040
9.2517601428799594
1040
3.7294136007743441
1070
     1
1040
9.2517601428799594
1040
3.7294136007743441
1040
9.2497916389429502
1040
3.731382104711277
1070
     1
1040
9.2497916389429502
1040
3.731382104711277
1040
9.2517601428799576
1040
3.7333506086483501
1070
     1
1040
9.2517601428799576
1040
3.7333506086483501
1040
9.2517601428799576
1040
3.7451616322703698
1070
     1
1040
9.2517601428799576
1040
3.7451616322703698
1040
9.2497916389429502
1040
3.7471301362073031
1070
     1
1040
9.2497916389429502
1040
3.7471301362073031
1040
9.2517601428799576
1040
3.7490986401443771
1070
     1
1040
9.2517601428799576
1040
3.7490986401443771
1040
9.2517601428799576
1040
3.7609096637663959
1070
     1
1040
9.2517601428799576
1040
3.7609096637663959
1040
9.2497916389429502
1040
3.7628781677034691
1070
     1
1040
9.2497916389429502
1040
3.7628781677034691
1040
9.2517601428799576
1040
3.7648466716404032
1070
     1
1040
9.2517601428799576
1040
3.7648466716404032
1040
9.2517601428799576
1040
3.776657695262422
1070
     1
1040
9.2517601428799576
1040
3.776657695262422
1040
9.2497916389429502
1040
3.778626199199496
1070
     1
1040
9.2497916389429502
1040
3.778626199199496
1040
9.2517601428799576
1040
3.7805947031365692
1071
        0
1070
     0
1070
     1
1040
0.0
1040
1.0
1070
     0
1070
     1
1040
0.7853981633974483
1040
0.0
1040
0.0
1040
-0.0883883476483184
1040
0.0883883476483185
1070
     0
1071
        1
1040
0.0
1040
0.0
1040
0.0
1002
}
  0
INSERT
  5
248
  8
0
  6
CONTINUOUS
 62
     7
  2
SW_NOTE_4
 10
7.7529371269464518
 20
7.0453245417515324
 30
0.0
  0
POLYLINE
  8
0
  5
999
  62
7
  66
     1
 10
0.000000
 20
0.000000
 30
0.000000
  70
     8
  0
VERTEX
  8
0
  5
99A
 10
9.45648
 20
6.06876
 30
0.000000
  70
    32
  0
VERTEX
  8
0
  5
99B
 10
8.00294
 20
7.04532
 30
0.000000
  70
    32
  0
VERTEX
  8
0
  5
99C
 10
7.75294
 20
7.04532
 30
0.000000
  70
    32
  0
SEQEND
  8
0
  5
99D
  0
INSERT
  5
250
  8
0
  6
CONTINUOUS
 62
     7
  2
SW_NOTE_5
 10
7.6187375318290744
 20
3.7786239307535681
 30
0.0
  0
POLYLINE
  8
0
  5
99E
  62
7
  66
     1
 10
0.000000
 20
0.000000
 30
0.000000
  70
     8
  0
VERTEX
  8
0
  5
99F
 10
8.01544
 20
4.05970
 30
0.000000
  70
    32
  0
VERTEX
  8
0
  5
9A0
 10
7.86874
 20
3.77862
 30
0.000000
  70
    32
  0
VERTEX
  8
0
  5
9A1
 10
7.61874
 20
3.77862
 30
0.000000
  70
    32
  0
SEQEND
  8
0
  5
9A2
  0
INSERT
  5
257
  8
0
  6
CONTINUOUS
 62
     7
  2
SW_NOTE_6
 10
8.3493307114678394
 20
3.0899681262729159
 30
0.0
  0
POLYLINE
  8
0
  5
9A3
  62
7
  66
     1
 10
0.000000
 20
0.000000
 30
0.000000
  70
     8
  0
VERTEX
  8
0
  5
9A4
 10
8.98128
 20
3.65484
 30
0.000000
  70
    32
  0
VERTEX
  8
0
  5
9A5
 10
8.59933
 20
3.08997
 30
0.000000
  70
    32
  0
VERTEX
  8
0
  5
9A6
 10
8.34933
 20
3.08997
 30
0.000000
  70
    32
  0
SEQEND
  8
0
  5
9A7
  0
LINE
  5
4F0
  8
0
  6
CONTINUOUS
 62
     7
 10
2.1993541887297559
 20
6.2116567134388561
 30
0.0
 11
4.1678580887297576
 21
6.2116567134388561
 31
0.0
  0
LINE
  5
4F1
  8
0
  6
CONTINUOUS
 62
     7
 10
4.1678580887297576
 20
6.2116567134388561
 30
0.0
 11
4.1678580887297576
 21
2.790396935238959
 31
0.0
  0
LINE
  5
4F2
  8
0
  6
CONTINUOUS
 62
     7
 10
4.1678580887297576
 20
2.790396935238959
 30
0.0
 11
2.1993541887297559
 21
2.790396935238959
 31
0.0
  0
LINE
  5
4F3
  8
0
  6
CONTINUOUS
 62
     7
 10
2.1993541887297559
 20
2.790396935238959
 30
0.0
 11
2.1993541887297559
 21
6.2116567134388561
 31
0.0
  0
CIRCLE
  5
4F4
  8
0
  6
CONTINUOUS
 62
     7
 10
3.9836061236897531
 20
5.9892157727389304
 30
0.0
 40
0.0255905507
  0
CIRCLE
  5
4F5
  8
0
  6
CONTINUOUS
 62
     7
 10
3.7836061274497581
 20
5.9892157727389304
 30
0.0
 40
0.0255905507
  0
CIRCLE
  5
4F6
  8
0
  6
CONTINUOUS
 62
     7
 10
3.5836061312097618
 20
5.9892157727389304
 30
0.0
 40
0.0255905507
  0
CIRCLE
  5
4F7
  8
0
  6
CONTINUOUS
 62
     7
 10
3.3836061349697668
 20
5.9892157727389304
 30
0.0
 40
0.0255905507
  0
CIRCLE
  5
4F8
  8
0
  6
CONTINUOUS
 62
     7
 10
3.183606138729743
 20
5.9892157727389304
 30
0.0
 40
0.0255905507
  0
CIRCLE
  5
4F9
  8
0
  6
CONTINUOUS
 62
     7
 10
2.9836061424897471
 20
5.9892157727389304
 30
0.0
 40
0.0255905507
  0
CIRCLE
  5
4FA
  8
0
  6
CONTINUOUS
 62
     7
 10
2.7836061462497521
 20
5.9892157727389304
 30
0.0
 40
0.0255905507
  0
CIRCLE
  5
4FB
  8
0
  6
CONTINUOUS
 62
     7
 10
2.5836061500097571
 20
5.9892157727389304
 30
0.0
 40
0.0255905507
  0
CIRCLE
  5
4FC
  8
0
  6
CONTINUOUS
 62
     7
 10
2.3836061537697608
 20
5.9892157727389304
 30
0.0
 40
0.0255905507
  0
CIRCLE
  5
501
  8
0
  6
CONTINUOUS
 62
     7
 10
3.9836061236897531
 20
3.0128378759388852
 30
0.0
 40
0.0255905507
  0
CIRCLE
  5
502
  8
0
  6
CONTINUOUS
 62
     7
 10
3.7836061274497581
 20
3.0128378759388852
 30
0.0
 40
0.0255905507
  0
CIRCLE
  5
503
  8
0
  6
CONTINUOUS
 62
     7
 10
3.5836061312097618
 20
3.0128378759388852
 30
0.0
 40
0.0255905507
  0
CIRCLE
  5
504
  8
0
  6
CONTINUOUS
 62
     7
 10
3.3836061349697668
 20
3.0128378759388852
 30
0.0
 40
0.0255905507
  0
CIRCLE
  5
505
  8
0
  6
CONTINUOUS
 62
     7
 10
3.183606138729743
 20
3.0128378759388852
 30
0.0
 40
0.0255905507
  0
CIRCLE
  5
506
  8
0
  6
CONTINUOUS
 62
     7
 10
2.9836061424897471
 20
3.0128378759388852
 30
0.0
 40
0.0255905507
  0
CIRCLE
  5
507
  8
0
  6
CONTINUOUS
 62
     7
 10
2.7836061462497521
 20
3.0128378759388852
 30
0.0
 40
0.0255905507
  0
CIRCLE
  5
508
  8
0
  6
CONTINUOUS
 62
     7
 10
2.5836061500097571
 20
3.0128378759388852
 30
0.0
 40
0.0255905507
  0
CIRCLE
  5
509
  8
0
  6
CONTINUOUS
 62
     7
 10
2.3836061537697608
 20
3.0128378759388852
 30
0.0
 40
0.0255905507
  0
CIRCLE
  5
50E
  8
0
  6
CONTINUOUS
 62
     7
 10
3.9836061236897531
 20
3.601026841258999
 30
0.0
 40
0.0255905507
  0
CIRCLE
  5
50F
  8
0
  6
CONTINUOUS
 62
     7
 10
3.9836061236897531
 20
3.701026839378982
 30
0.0
 40
0.0255905507
  0
CIRCLE
  5
510
  8
0
  6
CONTINUOUS
 62
     7
 10
3.9836061236897531
 20
3.801026837498966
 30
0.0
 40
0.0255905507
  0
CIRCLE
  5
511
  8
0
  6
CONTINUOUS
 62
     7
 10
3.9836061236897531
 20
3.901026835618949
 30
0.0
 40
0.0255905507
  0
CIRCLE
  5
512
  8
0
  6
CONTINUOUS
 62
     7
 10
3.9836061236897531
 20
4.0010268337389334
 30
0.0
 40
0.0255905507
  0
CIRCLE
  5
513
  8
0
  6
CONTINUOUS
 62
     7
 10
3.9836061236897531
 20
4.101026831858916
 30
0.0
 40
0.0255905507
  0
CIRCLE
  5
514
  8
0
  6
CONTINUOUS
 62
     7
 10
3.9836061236897531
 20
4.2010268299789004
 30
0.0
 40
0.0255905507
  0
CIRCLE
  5
515
  8
0
  6
CONTINUOUS
 62
     7
 10
3.9836061236897531
 20
4.301026828098883
 30
0.0
 40
0.0255905507
  0
CIRCLE
  5
516
  8
0
  6
CONTINUOUS
 62
     7
 10
3.9836061236897531
 20
4.4010268262189811
 30
0.0
 40
0.0255905507
  0
CIRCLE
  5
517
  8
0
  6
CONTINUOUS
 62
     7
 10
3.9836061236897531
 20
4.5010268243389637
 30
0.0
 40
0.0255905507
  0
CIRCLE
  5
518
  8
0
  6
CONTINUOUS
 62
     7
 10
3.9836061236897531
 20
4.6010268224589481
 30
0.0
 40
0.0255905507
  0
CIRCLE
  5
519
  8
0
  6
CONTINUOUS
 62
     7
 10
3.9836061236897531
 20
4.7010268205789307
 30
0.0
 40
0.0255905507
  0
CIRCLE
  5
51A
  8
0
  6
CONTINUOUS
 62
     7
 10
3.9836061236897531
 20
4.8010268186989151
 30
0.0
 40
0.0255905507
  0
CIRCLE
  5
51B
  8
0
  6
CONTINUOUS
 62
     7
 10
3.9836061236897531
 20
4.9010268168188977
 30
0.0
 40
0.0255905507
  0
CIRCLE
  5
51C
  8
0
  6
CONTINUOUS
 62
     7
 10
3.9836061236897531
 20
5.0010268149388821
 30
0.0
 40
0.0255905507
  0
CIRCLE
  5
51D
  8
0
  6
CONTINUOUS
 62
     7
 10
3.9836061236897531
 20
5.1010268130588647
 30
0.0
 40
0.0255905507
  0
CIRCLE
  5
51E
  8
0
  6
CONTINUOUS
 62
     7
 10
3.9836061236897531
 20
5.2010268111789619
 30
0.0
 40
0.0255905507
  0
CIRCLE
  5
51F
  8
0
  6
CONTINUOUS
 62
     7
 10
3.9836061236897531
 20
5.3010268092989463
 30
0.0
 40
0.0255905507
  0
CIRCLE
  5
520
  8
0
  6
CONTINUOUS
 62
     7
 10
3.9836061236897531
 20
5.4010268074189289
 30
0.0
 40
0.0255905507
  0
CIRCLE
  5
521
  8
0
  6
CONTINUOUS
 62
     7
 10
3.7836061274497581
 20
3.3010268468989352
 30
0.0
 40
0.0255905507
  0
CIRCLE
  5
522
  8
0
  6
CONTINUOUS
 62
     7
 10
3.7836061274497581
 20
3.4010268450189178
 30
0.0
 40
0.0255905507
  0
CIRCLE
  5
523
  8
0
  6
CONTINUOUS
 62
     7
 10
3.7836061274497581
 20
3.5010268431389018
 30
0.0
 40
0.0255905507
  0
CIRCLE
  5
524
  8
0
  6
CONTINUOUS
 62
     7
 10
3.7836061274497581
 20
3.601026841258999
 30
0.0
 40
0.0255905507
  0
CIRCLE
  5
525
  8
0
  6
CONTINUOUS
 62
     7
 10
3.7836061274497581
 20
3.701026839378982
 30
0.0
 40
0.0255905507
  0
CIRCLE
  5
526
  8
0
  6
CONTINUOUS
 62
     7
 10
3.7836061274497581
 20
3.801026837498966
 30
0.0
 40
0.0255905507
  0
CIRCLE
  5
527
  8
0
  6
CONTINUOUS
 62
     7
 10
3.7836061274497581
 20
3.901026835618949
 30
0.0
 40
0.0255905507
  0
CIRCLE
  5
528
  8
0
  6
CONTINUOUS
 62
     7
 10
3.7836061274497581
 20
4.0010268337389334
 30
0.0
 40
0.0255905507
  0
CIRCLE
  5
529
  8
0
  6
CONTINUOUS
 62
     7
 10
3.7836061274497581
 20
4.101026831858916
 30
0.0
 40
0.0255905507
  0
CIRCLE
  5
52A
  8
0
  6
CONTINUOUS
 62
     7
 10
3.7836061274497581
 20
4.2010268299789004
 30
0.0
 40
0.0255905507
  0
CIRCLE
  5
52B
  8
0
  6
CONTINUOUS
 62
     7
 10
3.7836061274497581
 20
4.301026828098883
 30
0.0
 40
0.0255905507
  0
CIRCLE
  5
52C
  8
0
  6
CONTINUOUS
 62
     7
 10
3.7836061274497581
 20
4.4010268262189811
 30
0.0
 40
0.0255905507
  0
CIRCLE
  5
52D
  8
0
  6
CONTINUOUS
 62
     7
 10
3.7836061274497581
 20
4.5010268243389637
 30
0.0
 40
0.0255905507
  0
CIRCLE
  5
52E
  8
0
  6
CONTINUOUS
 62
     7
 10
3.7836061274497581
 20
4.6010268224589481
 30
0.0
 40
0.0255905507
  0
CIRCLE
  5
52F
  8
0
  6
CONTINUOUS
 62
     7
 10
3.7836061274497581
 20
4.7010268205789307
 30
0.0
 40
0.0255905507
  0
CIRCLE
  5
530
  8
0
  6
CONTINUOUS
 62
     7
 10
3.7836061274497581
 20
4.8010268186989151
 30
0.0
 40
0.0255905507
  0
CIRCLE
  5
531
  8
0
  6
CONTINUOUS
 62
     7
 10
3.7836061274497581
 20
4.9010268168188977
 30
0.0
 40
0.0255905507
  0
CIRCLE
  5
532
  8
0
  6
CONTINUOUS
 62
     7
 10
3.7836061274497581
 20
5.0010268149388821
 30
0.0
 40
0.0255905507
  0
CIRCLE
  5
533
  8
0
  6
CONTINUOUS
 62
     7
 10
3.7836061274497581
 20
5.1010268130588647
 30
0.0
 40
0.0255905507
  0
CIRCLE
  5
534
  8
0
  6
CONTINUOUS
 62
     7
 10
3.7836061274497581
 20
5.2010268111789619
 30
0.0
 40
0.0255905507
  0
CIRCLE
  5
535
  8
0
  6
CONTINUOUS
 62
     7
 10
3.7836061274497581
 20
5.3010268092989463
 30
0.0
 40
0.0255905507
  0
CIRCLE
  5
536
  8
0
  6
CONTINUOUS
 62
     7
 10
3.7836061274497581
 20
5.4010268074189289
 30
0.0
 40
0.0255905507
  0
CIRCLE
  5
537
  8
0
  6
CONTINUOUS
 62
     7
 10
3.7836061274497581
 20
5.5010268055389133
 30
0.0
 40
0.0255905507
  0
CIRCLE
  5
538
  8
0
  6
CONTINUOUS
 62
     7
 10
3.7836061274497581
 20
5.6010268036588959
 30
0.0
 40
0.0255905507
  0
CIRCLE
  5
539
  8
0
  6
CONTINUOUS
 62
     7
 10
3.7836061274497581
 20
5.7010268017788803
 30
0.0
 40
0.0255905507
  0
CIRCLE
  5
53A
  8
0
  6
CONTINUOUS
 62
     7
 10
3.5836061312097618
 20
3.3010268468989352
 30
0.0
 40
0.0255905507
  0
CIRCLE
  5
53B
  8
0
  6
CONTINUOUS
 62
     7
 10
3.5836061312097618
 20
3.4010268450189178
 30
0.0
 40
0.0255905507
  0
CIRCLE
  5
53C
  8
0
  6
CONTINUOUS
 62
     7
 10
3.5836061312097618
 20
3.5010268431389018
 30
0.0
 40
0.0255905507
  0
CIRCLE
  5
53D
  8
0
  6
CONTINUOUS
 62
     7
 10
3.5836061312097618
 20
3.601026841258999
 30
0.0
 40
0.0255905507
  0
CIRCLE
  5
53E
  8
0
  6
CONTINUOUS
 62
     7
 10
3.5836061312097618
 20
3.701026839378982
 30
0.0
 40
0.0255905507
  0
CIRCLE
  5
53F
  8
0
  6
CONTINUOUS
 62
     7
 10
3.5836061312097618
 20
3.801026837498966
 30
0.0
 40
0.0255905507
  0
CIRCLE
  5
540
  8
0
  6
CONTINUOUS
 62
     7
 10
3.5836061312097618
 20
3.901026835618949
 30
0.0
 40
0.0255905507
  0
CIRCLE
  5
541
  8
0
  6
CONTINUOUS
 62
     7
 10
3.5836061312097618
 20
4.0010268337389334
 30
0.0
 40
0.0255905507
  0
CIRCLE
  5
542
  8
0
  6
CONTINUOUS
 62
     7
 10
3.5836061312097618
 20
4.101026831858916
 30
0.0
 40
0.0255905507
  0
CIRCLE
  5
543
  8
0
  6
CONTINUOUS
 62
     7
 10
3.5836061312097618
 20
4.2010268299789004
 30
0.0
 40
0.0255905507
  0
CIRCLE
  5
544
  8
0
  6
CONTINUOUS
 62
     7
 10
3.5836061312097618
 20
4.301026828098883
 30
0.0
 40
0.0255905507
  0
CIRCLE
  5
545
  8
0
  6
CONTINUOUS
 62
     7
 10
3.5836061312097618
 20
4.4010268262189811
 30
0.0
 40
0.0255905507
  0
CIRCLE
  5
546
  8
0
  6
CONTINUOUS
 62
     7
 10
3.5836061312097618
 20
4.5010268243389637
 30
0.0
 40
0.0255905507
  0
CIRCLE
  5
547
  8
0
  6
CONTINUOUS
 62
     7
 10
3.5836061312097618
 20
4.6010268224589481
 30
0.0
 40
0.0255905507
  0
CIRCLE
  5
548
  8
0
  6
CONTINUOUS
 62
     7
 10
3.5836061312097618
 20
4.7010268205789307
 30
0.0
 40
0.0255905507
  0
CIRCLE
  5
549
  8
0
  6
CONTINUOUS
 62
     7
 10
3.5836061312097618
 20
4.8010268186989151
 30
0.0
 40
0.0255905507
  0
CIRCLE
  5
54A
  8
0
  6
CONTINUOUS
 62
     7
 10
3.5836061312097618
 20
4.9010268168188977
 30
0.0
 40
0.0255905507
  0
CIRCLE
  5
54B
  8
0
  6
CONTINUOUS
 62
     7
 10
3.5836061312097618
 20
5.0010268149388821
 30
0.0
 40
0.0255905507
  0
CIRCLE
  5
54C
  8
0
  6
CONTINUOUS
 62
     7
 10
3.5836061312097618
 20
5.1010268130588647
 30
0.0
 40
0.0255905507
  0
CIRCLE
  5
54D
  8
0
  6
CONTINUOUS
 62
     7
 10
3.5836061312097618
 20
5.2010268111789619
 30
0.0
 40
0.0255905507
  0
CIRCLE
  5
54E
  8
0
  6
CONTINUOUS
 62
     7
 10
3.5836061312097618
 20
5.3010268092989463
 30
0.0
 40
0.0255905507
  0
CIRCLE
  5
54F
  8
0
  6
CONTINUOUS
 62
     7
 10
3.5836061312097618
 20
5.4010268074189289
 30
0.0
 40
0.0255905507
  0
CIRCLE
  5
550
  8
0
  6
CONTINUOUS
 62
     7
 10
3.5836061312097618
 20
5.5010268055389133
 30
0.0
 40
0.0255905507
  0
CIRCLE
  5
551
  8
0
  6
CONTINUOUS
 62
     7
 10
3.5836061312097618
 20
5.6010268036588959
 30
0.0
 40
0.0255905507
  0
CIRCLE
  5
552
  8
0
  6
CONTINUOUS
 62
     7
 10
3.5836061312097618
 20
5.7010268017788803
 30
0.0
 40
0.0255905507
  0
CIRCLE
  5
553
  8
0
  6
CONTINUOUS
 62
     7
 10
3.88360612556977
 20
3.601026841258999
 30
0.0
 40
0.0255905507
  0
CIRCLE
  5
554
  8
0
  6
CONTINUOUS
 62
     7
 10
3.88360612556977
 20
3.701026839378982
 30
0.0
 40
0.0255905507
  0
CIRCLE
  5
555
  8
0
  6
CONTINUOUS
 62
     7
 10
3.88360612556977
 20
3.801026837498966
 30
0.0
 40
0.0255905507
  0
CIRCLE
  5
556
  8
0
  6
CONTINUOUS
 62
     7
 10
3.88360612556977
 20
3.901026835618949
 30
0.0
 40
0.0255905507
  0
CIRCLE
  5
557
  8
0
  6
CONTINUOUS
 62
     7
 10
3.88360612556977
 20
4.0010268337389334
 30
0.0
 40
0.0255905507
  0
CIRCLE
  5
558
  8
0
  6
CONTINUOUS
 62
     7
 10
3.88360612556977
 20
4.101026831858916
 30
0.0
 40
0.0255905507
  0
CIRCLE
  5
559
  8
0
  6
CONTINUOUS
 62
     7
 10
3.88360612556977
 20
4.2010268299789004
 30
0.0
 40
0.0255905507
  0
CIRCLE
  5
55A
  8
0
  6
CONTINUOUS
 62
     7
 10
3.88360612556977
 20
4.301026828098883
 30
0.0
 40
0.0255905507
  0
CIRCLE
  5
55B
  8
0
  6
CONTINUOUS
 62
     7
 10
3.88360612556977
 20
4.4010268262189811
 30
0.0
 40
0.0255905507
  0
CIRCLE
  5
55C
  8
0
  6
CONTINUOUS
 62
     7
 10
3.88360612556977
 20
4.5010268243389637
 30
0.0
 40
0.0255905507
  0
CIRCLE
  5
55D
  8
0
  6
CONTINUOUS
 62
     7
 10
3.88360612556977
 20
4.6010268224589481
 30
0.0
 40
0.0255905507
  0
CIRCLE
  5
55E
  8
0
  6
CONTINUOUS
 62
     7
 10
3.88360612556977
 20
4.7010268205789307
 30
0.0
 40
0.0255905507
  0
CIRCLE
  5
55F
  8
0
  6
CONTINUOUS
 62
     7
 10
3.88360612556977
 20
4.8010268186989151
 30
0.0
 40
0.0255905507
  0
CIRCLE
  5
560
  8
0
  6
CONTINUOUS
 62
     7
 10
3.88360612556977
 20
4.9010268168188977
 30
0.0
 40
0.0255905507
  0
CIRCLE
  5
561
  8
0
  6
CONTINUOUS
 62
     7
 10
3.88360612556977
 20
5.0010268149388821
 30
0.0
 40
0.0255905507
  0
CIRCLE
  5
562
  8
0
  6
CONTINUOUS
 62
     7
 10
3.88360612556977
 20
5.1010268130588647
 30
0.0
 40
0.0255905507
  0
CIRCLE
  5
563
  8
0
  6
CONTINUOUS
 62
     7
 10
3.88360612556977
 20
5.2010268111789619
 30
0.0
 40
0.0255905507
  0
CIRCLE
  5
564
  8
0
  6
CONTINUOUS
 62
     7
 10
3.88360612556977
 20
5.3010268092989463
 30
0.0
 40
0.0255905507
  0
CIRCLE
  5
565
  8
0
  6
CONTINUOUS
 62
     7
 10
3.88360612556977
 20
5.4010268074189289
 30
0.0
 40
0.0255905507
  0
CIRCLE
  5
566
  8
0
  6
CONTINUOUS
 62
     7
 10
3.6836061293297742
 20
3.3010268468989352
 30
0.0
 40
0.0255905507
  0
CIRCLE
  5
567
  8
0
  6
CONTINUOUS
 62
     7
 10
3.6836061293297742
 20
3.4010268450189178
 30
0.0
 40
0.0255905507
  0
CIRCLE
  5
568
  8
0
  6
CONTINUOUS
 62
     7
 10
3.6836061293297742
 20
3.5010268431389018
 30
0.0
 40
0.0255905507
  0
CIRCLE
  5
569
  8
0
  6
CONTINUOUS
 62
     7
 10
3.6836061293297742
 20
3.601026841258999
 30
0.0
 40
0.0255905507
  0
CIRCLE
  5
56A
  8
0
  6
CONTINUOUS
 62
     7
 10
3.6836061293297742
 20
3.701026839378982
 30
0.0
 40
0.0255905507
  0
CIRCLE
  5
56B
  8
0
  6
CONTINUOUS
 62
     7
 10
3.6836061293297742
 20
3.801026837498966
 30
0.0
 40
0.0255905507
  0
CIRCLE
  5
56C
  8
0
  6
CONTINUOUS
 62
     7
 10
3.6836061293297742
 20
3.901026835618949
 30
0.0
 40
0.0255905507
  0
CIRCLE
  5
56D
  8
0
  6
CONTINUOUS
 62
     7
 10
3.6836061293297742
 20
4.0010268337389334
 30
0.0
 40
0.0255905507
  0
CIRCLE
  5
56E
  8
0
  6
CONTINUOUS
 62
     7
 10
3.6836061293297742
 20
4.101026831858916
 30
0.0
 40
0.0255905507
  0
CIRCLE
  5
56F
  8
0
  6
CONTINUOUS
 62
     7
 10
3.6836061293297742
 20
4.2010268299789004
 30
0.0
 40
0.0255905507
  0
CIRCLE
  5
570
  8
0
  6
CONTINUOUS
 62
     7
 10
3.6836061293297742
 20
4.301026828098883
 30
0.0
 40
0.0255905507
  0
CIRCLE
  5
571
  8
0
  6
CONTINUOUS
 62
     7
 10
3.6836061293297742
 20
4.4010268262189811
 30
0.0
 40
0.0255905507
  0
CIRCLE
  5
572
  8
0
  6
CONTINUOUS
 62
     7
 10
3.6836061293297742
 20
4.5010268243389637
 30
0.0
 40
0.0255905507
  0
CIRCLE
  5
573
  8
0
  6
CONTINUOUS
 62
     7
 10
3.6836061293297742
 20
4.6010268224589481
 30
0.0
 40
0.0255905507
  0
CIRCLE
  5
574
  8
0
  6
CONTINUOUS
 62
     7
 10
3.6836061293297742
 20
4.7010268205789307
 30
0.0
 40
0.0255905507
  0
CIRCLE
  5
575
  8
0
  6
CONTINUOUS
 62
     7
 10
3.6836061293297742
 20
4.8010268186989151
 30
0.0
 40
0.0255905507
  0
CIRCLE
  5
576
  8
0
  6
CONTINUOUS
 62
     7
 10
3.6836061293297742
 20
4.9010268168188977
 30
0.0
 40
0.0255905507
  0
CIRCLE
  5
577
  8
0
  6
CONTINUOUS
 62
     7
 10
3.6836061293297742
 20
5.0010268149388821
 30
0.0
 40
0.0255905507
  0
CIRCLE
  5
578
  8
0
  6
CONTINUOUS
 62
     7
 10
3.6836061293297742
 20
5.1010268130588647
 30
0.0
 40
0.0255905507
  0
CIRCLE
  5
579
  8
0
  6
CONTINUOUS
 62
     7
 10
3.6836061293297742
 20
5.2010268111789619
 30
0.0
 40
0.0255905507
  0
CIRCLE
  5
57A
  8
0
  6
CONTINUOUS
 62
     7
 10
3.6836061293297742
 20
5.3010268092989463
 30
0.0
 40
0.0255905507
  0
CIRCLE
  5
57B
  8
0
  6
CONTINUOUS
 62
     7
 10
3.6836061293297742
 20
5.4010268074189289
 30
0.0
 40
0.0255905507
  0
CIRCLE
  5
57C
  8
0
  6
CONTINUOUS
 62
     7
 10
3.6836061293297742
 20
5.5010268055389133
 30
0.0
 40
0.0255905507
  0
CIRCLE
  5
57D
  8
0
  6
CONTINUOUS
 62
     7
 10
3.6836061293297742
 20
5.6010268036588959
 30
0.0
 40
0.0255905507
  0
CIRCLE
  5
57E
  8
0
  6
CONTINUOUS
 62
     7
 10
3.6836061293297742
 20
5.7010268017788803
 30
0.0
 40
0.0255905507
  0
CIRCLE
  5
57F
  8
0
  6
CONTINUOUS
 62
     7
 10
3.4836061330897499
 20
3.3010268468989352
 30
0.0
 40
0.0255905507
  0
CIRCLE
  5
580
  8
0
  6
CONTINUOUS
 62
     7
 10
3.4836061330897499
 20
3.4010268450189178
 30
0.0
 40
0.0255905507
  0
CIRCLE
  5
581
  8
0
  6
CONTINUOUS
 62
     7
 10
3.4836061330897499
 20
3.5010268431389018
 30
0.0
 40
0.0255905507
  0
CIRCLE
  5
582
  8
0
  6
CONTINUOUS
 62
     7
 10
3.4836061330897499
 20
3.601026841258999
 30
0.0
 40
0.0255905507
  0
CIRCLE
  5
583
  8
0
  6
CONTINUOUS
 62
     7
 10
3.4836061330897499
 20
3.701026839378982
 30
0.0
 40
0.0255905507
  0
CIRCLE
  5
584
  8
0
  6
CONTINUOUS
 62
     7
 10
3.4836061330897499
 20
3.801026837498966
 30
0.0
 40
0.0255905507
  0
CIRCLE
  5
585
  8
0
  6
CONTINUOUS
 62
     7
 10
3.4836061330897499
 20
3.901026835618949
 30
0.0
 40
0.0255905507
  0
CIRCLE
  5
586
  8
0
  6
CONTINUOUS
 62
     7
 10
3.4836061330897499
 20
4.0010268337389334
 30
0.0
 40
0.0255905507
  0
CIRCLE
  5
587
  8
0
  6
CONTINUOUS
 62
     7
 10
3.4836061330897499
 20
4.101026831858916
 30
0.0
 40
0.0255905507
  0
CIRCLE
  5
588
  8
0
  6
CONTINUOUS
 62
     7
 10
3.4836061330897499
 20
4.2010268299789004
 30
0.0
 40
0.0255905507
  0
CIRCLE
  5
589
  8
0
  6
CONTINUOUS
 62
     7
 10
3.4836061330897499
 20
4.301026828098883
 30
0.0
 40
0.0255905507
  0
CIRCLE
  5
58A
  8
0
  6
CONTINUOUS
 62
     7
 10
3.4836061330897499
 20
4.4010268262189811
 30
0.0
 40
0.0255905507
  0
CIRCLE
  5
58B
  8
0
  6
CONTINUOUS
 62
     7
 10
3.4836061330897499
 20
4.5010268243389637
 30
0.0
 40
0.0255905507
  0
CIRCLE
  5
58C
  8
0
  6
CONTINUOUS
 62
     7
 10
3.4836061330897499
 20
4.6010268224589481
 30
0.0
 40
0.0255905507
  0
CIRCLE
  5
58D
  8
0
  6
CONTINUOUS
 62
     7
 10
3.4836061330897499
 20
4.7010268205789307
 30
0.0
 40
0.0255905507
  0
CIRCLE
  5
58E
  8
0
  6
CONTINUOUS
 62
     7
 10
3.4836061330897499
 20
4.8010268186989151
 30
0.0
 40
0.0255905507
  0
CIRCLE
  5
58F
  8
0
  6
CONTINUOUS
 62
     7
 10
3.4836061330897499
 20
4.9010268168188977
 30
0.0
 40
0.0255905507
  0
CIRCLE
  5
590
  8
0
  6
CONTINUOUS
 62
     7
 10
3.4836061330897499
 20
5.0010268149388821
 30
0.0
 40
0.0255905507
  0
CIRCLE
  5
591
  8
0
  6
CONTINUOUS
 62
     7
 10
3.4836061330897499
 20
5.1010268130588647
 30
0.0
 40
0.0255905507
  0
CIRCLE
  5
592
  8
0
  6
CONTINUOUS
 62
     7
 10
3.4836061330897499
 20
5.2010268111789619
 30
0.0
 40
0.0255905507
  0
CIRCLE
  5
593
  8
0
  6
CONTINUOUS
 62
     7
 10
3.4836061330897499
 20
5.3010268092989463
 30
0.0
 40
0.0255905507
  0
CIRCLE
  5
594
  8
0
  6
CONTINUOUS
 62
     7
 10
3.4836061330897499
 20
5.4010268074189289
 30
0.0
 40
0.0255905507
  0
CIRCLE
  5
595
  8
0
  6
CONTINUOUS
 62
     7
 10
3.4836061330897499
 20
5.5010268055389133
 30
0.0
 40
0.0255905507
  0
CIRCLE
  5
596
  8
0
  6
CONTINUOUS
 62
     7
 10
3.4836061330897499
 20
5.6010268036588959
 30
0.0
 40
0.0255905507
  0
CIRCLE
  5
597
  8
0
  6
CONTINUOUS
 62
     7
 10
3.4836061330897499
 20
5.7010268017788803
 30
0.0
 40
0.0255905507
  0
CIRCLE
  5
598
  8
0
  6
CONTINUOUS
 62
     7
 10
3.3836061349697668
 20
3.3010268468989352
 30
0.0
 40
0.0255905507
  0
CIRCLE
  5
599
  8
0
  6
CONTINUOUS
 62
     7
 10
3.3836061349697668
 20
3.4010268450189178
 30
0.0
 40
0.0255905507
  0
CIRCLE
  5
59A
  8
0
  6
CONTINUOUS
 62
     7
 10
3.3836061349697668
 20
3.5010268431389018
 30
0.0
 40
0.0255905507
  0
CIRCLE
  5
59B
  8
0
  6
CONTINUOUS
 62
     7
 10
3.3836061349697668
 20
3.601026841258999
 30
0.0
 40
0.0255905507
  0
CIRCLE
  5
59C
  8
0
  6
CONTINUOUS
 62
     7
 10
3.3836061349697668
 20
3.701026839378982
 30
0.0
 40
0.0255905507
  0
CIRCLE
  5
59D
  8
0
  6
CONTINUOUS
 62
     7
 10
3.3836061349697668
 20
3.801026837498966
 30
0.0
 40
0.0255905507
  0
CIRCLE
  5
59E
  8
0
  6
CONTINUOUS
 62
     7
 10
3.3836061349697668
 20
3.901026835618949
 30
0.0
 40
0.0255905507
  0
CIRCLE
  5
59F
  8
0
  6
CONTINUOUS
 62
     7
 10
3.3836061349697668
 20
4.0010268337389334
 30
0.0
 40
0.0255905507
  0
CIRCLE
  5
5A0
  8
0
  6
CONTINUOUS
 62
     7
 10
3.3836061349697668
 20
4.101026831858916
 30
0.0
 40
0.0255905507
  0
CIRCLE
  5
5A1
  8
0
  6
CONTINUOUS
 62
     7
 10
3.3836061349697668
 20
4.2010268299789004
 30
0.0
 40
0.0255905507
  0
CIRCLE
  5
5A2
  8
0
  6
CONTINUOUS
 62
     7
 10
3.3836061349697668
 20
4.301026828098883
 30
0.0
 40
0.0255905507
  0
CIRCLE
  5
5A3
  8
0
  6
CONTINUOUS
 62
     7
 10
3.3836061349697668
 20
4.4010268262189811
 30
0.0
 40
0.0255905507
  0
CIRCLE
  5
5A4
  8
0
  6
CONTINUOUS
 62
     7
 10
3.3836061349697668
 20
4.5010268243389637
 30
0.0
 40
0.0255905507
  0
CIRCLE
  5
5A5
  8
0
  6
CONTINUOUS
 62
     7
 10
3.3836061349697668
 20
4.6010268224589481
 30
0.0
 40
0.0255905507
  0
CIRCLE
  5
5A6
  8
0
  6
CONTINUOUS
 62
     7
 10
3.3836061349697668
 20
4.7010268205789307
 30
0.0
 40
0.0255905507
  0
CIRCLE
  5
5A7
  8
0
  6
CONTINUOUS
 62
     7
 10
3.3836061349697668
 20
4.8010268186989151
 30
0.0
 40
0.0255905507
  0
CIRCLE
  5
5A8
  8
0
  6
CONTINUOUS
 62
     7
 10
3.3836061349697668
 20
4.9010268168188977
 30
0.0
 40
0.0255905507
  0
CIRCLE
  5
5A9
  8
0
  6
CONTINUOUS
 62
     7
 10
3.3836061349697668
 20
5.0010268149388821
 30
0.0
 40
0.0255905507
  0
CIRCLE
  5
5AA
  8
0
  6
CONTINUOUS
 62
     7
 10
3.3836061349697668
 20
5.1010268130588647
 30
0.0
 40
0.0255905507
  0
CIRCLE
  5
5AB
  8
0
  6
CONTINUOUS
 62
     7
 10
3.3836061349697668
 20
5.2010268111789619
 30
0.0
 40
0.0255905507
  0
CIRCLE
  5
5AC
  8
0
  6
CONTINUOUS
 62
     7
 10
3.3836061349697668
 20
5.3010268092989463
 30
0.0
 40
0.0255905507
  0
CIRCLE
  5
5AD
  8
0
  6
CONTINUOUS
 62
     7
 10
3.3836061349697668
 20
5.4010268074189289
 30
0.0
 40
0.0255905507
  0
CIRCLE
  5
5AE
  8
0
  6
CONTINUOUS
 62
     7
 10
3.3836061349697668
 20
5.5010268055389133
 30
0.0
 40
0.0255905507
  0
CIRCLE
  5
5AF
  8
0
  6
CONTINUOUS
 62
     7
 10
3.3836061349697668
 20
5.6010268036588959
 30
0.0
 40
0.0255905507
  0
CIRCLE
  5
5B0
  8
0
  6
CONTINUOUS
 62
     7
 10
3.3836061349697668
 20
5.7010268017788803
 30
0.0
 40
0.0255905507
  0
CIRCLE
  5
5B1
  8
0
  6
CONTINUOUS
 62
     7
 10
3.1836061387297709
 20
3.3010268468989352
 30
0.0
 40
0.0255905507
  0
CIRCLE
  5
5B2
  8
0
  6
CONTINUOUS
 62
     7
 10
3.1836061387297709
 20
3.4010268450189178
 30
0.0
 40
0.0255905507
  0
CIRCLE
  5
5B3
  8
0
  6
CONTINUOUS
 62
     7
 10
3.1836061387297709
 20
3.5010268431389018
 30
0.0
 40
0.0255905507
  0
CIRCLE
  5
5B4
  8
0
  6
CONTINUOUS
 62
     7
 10
3.1836061387297709
 20
3.601026841258999
 30
0.0
 40
0.0255905507
  0
CIRCLE
  5
5B5
  8
0
  6
CONTINUOUS
 62
     7
 10
3.1836061387297709
 20
3.701026839378982
 30
0.0
 40
0.0255905507
  0
CIRCLE
  5
5B6
  8
0
  6
CONTINUOUS
 62
     7
 10
3.1836061387297709
 20
3.801026837498966
 30
0.0
 40
0.0255905507
  0
CIRCLE
  5
5B7
  8
0
  6
CONTINUOUS
 62
     7
 10
3.1836061387297709
 20
3.901026835618949
 30
0.0
 40
0.0255905507
  0
CIRCLE
  5
5B8
  8
0
  6
CONTINUOUS
 62
     7
 10
3.1836061387297709
 20
4.0010268337389334
 30
0.0
 40
0.0255905507
  0
CIRCLE
  5
5B9
  8
0
  6
CONTINUOUS
 62
     7
 10
3.1836061387297709
 20
4.101026831858916
 30
0.0
 40
0.0255905507
  0
CIRCLE
  5
5BA
  8
0
  6
CONTINUOUS
 62
     7
 10
3.1836061387297709
 20
4.2010268299789004
 30
0.0
 40
0.0255905507
  0
CIRCLE
  5
5BB
  8
0
  6
CONTINUOUS
 62
     7
 10
3.1836061387297709
 20
4.301026828098883
 30
0.0
 40
0.0255905507
  0
CIRCLE
  5
5BC
  8
0
  6
CONTINUOUS
 62
     7
 10
3.1836061387297709
 20
4.4010268262189811
 30
0.0
 40
0.0255905507
  0
CIRCLE
  5
5BD
  8
0
  6
CONTINUOUS
 62
     7
 10
3.1836061387297709
 20
4.5010268243389637
 30
0.0
 40
0.0255905507
  0
CIRCLE
  5
5BE
  8
0
  6
CONTINUOUS
 62
     7
 10
3.1836061387297709
 20
4.6010268224589481
 30
0.0
 40
0.0255905507
  0
CIRCLE
  5
5BF
  8
0
  6
CONTINUOUS
 62
     7
 10
3.1836061387297709
 20
4.7010268205789307
 30
0.0
 40
0.0255905507
  0
CIRCLE
  5
5C0
  8
0
  6
CONTINUOUS
 62
     7
 10
3.1836061387297709
 20
4.8010268186989151
 30
0.0
 40
0.0255905507
  0
CIRCLE
  5
5C1
  8
0
  6
CONTINUOUS
 62
     7
 10
3.1836061387297709
 20
4.9010268168188977
 30
0.0
 40
0.0255905507
  0
CIRCLE
  5
5C2
  8
0
  6
CONTINUOUS
 62
     7
 10
3.1836061387297709
 20
5.0010268149388821
 30
0.0
 40
0.0255905507
  0
CIRCLE
  5
5C3
  8
0
  6
CONTINUOUS
 62
     7
 10
3.1836061387297709
 20
5.1010268130588647
 30
0.0
 40
0.0255905507
  0
CIRCLE
  5
5C4
  8
0
  6
CONTINUOUS
 62
     7
 10
3.1836061387297709
 20
5.2010268111789619
 30
0.0
 40
0.0255905507
  0
CIRCLE
  5
5C5
  8
0
  6
CONTINUOUS
 62
     7
 10
3.1836061387297709
 20
5.3010268092989463
 30
0.0
 40
0.0255905507
  0
CIRCLE
  5
5C6
  8
0
  6
CONTINUOUS
 62
     7
 10
3.1836061387297709
 20
5.4010268074189289
 30
0.0
 40
0.0255905507
  0
CIRCLE
  5
5C7
  8
0
  6
CONTINUOUS
 62
     7
 10
3.1836061387297709
 20
5.5010268055389133
 30
0.0
 40
0.0255905507
  0
CIRCLE
  5
5C8
  8
0
  6
CONTINUOUS
 62
     7
 10
3.1836061387297709
 20
5.6010268036588959
 30
0.0
 40
0.0255905507
  0
CIRCLE
  5
5C9
  8
0
  6
CONTINUOUS
 62
     7
 10
3.1836061387297709
 20
5.7010268017788803
 30
0.0
 40
0.0255905507
  0
CIRCLE
  5
5CA
  8
0
  6
CONTINUOUS
 62
     7
 10
2.9836061424897471
 20
3.3010268468989352
 30
0.0
 40
0.0255905507
  0
CIRCLE
  5
5CB
  8
0
  6
CONTINUOUS
 62
     7
 10
2.9836061424897471
 20
3.4010268450189178
 30
0.0
 40
0.0255905507
  0
CIRCLE
  5
5CC
  8
0
  6
CONTINUOUS
 62
     7
 10
2.9836061424897471
 20
3.5010268431389018
 30
0.0
 40
0.0255905507
  0
CIRCLE
  5
5CD
  8
0
  6
CONTINUOUS
 62
     7
 10
2.9836061424897471
 20
3.601026841258999
 30
0.0
 40
0.0255905507
  0
CIRCLE
  5
5CE
  8
0
  6
CONTINUOUS
 62
     7
 10
2.9836061424897471
 20
3.701026839378982
 30
0.0
 40
0.0255905507
  0
CIRCLE
  5
5CF
  8
0
  6
CONTINUOUS
 62
     7
 10
2.9836061424897471
 20
3.801026837498966
 30
0.0
 40
0.0255905507
  0
CIRCLE
  5
5D0
  8
0
  6
CONTINUOUS
 62
     7
 10
2.9836061424897471
 20
3.901026835618949
 30
0.0
 40
0.0255905507
  0
CIRCLE
  5
5D1
  8
0
  6
CONTINUOUS
 62
     7
 10
2.9836061424897471
 20
4.0010268337389334
 30
0.0
 40
0.0255905507
  0
CIRCLE
  5
5D2
  8
0
  6
CONTINUOUS
 62
     7
 10
2.9836061424897471
 20
4.101026831858916
 30
0.0
 40
0.0255905507
  0
CIRCLE
  5
5D3
  8
0
  6
CONTINUOUS
 62
     7
 10
2.9836061424897471
 20
4.2010268299789004
 30
0.0
 40
0.0255905507
  0
CIRCLE
  5
5D4
  8
0
  6
CONTINUOUS
 62
     7
 10
2.9836061424897471
 20
4.301026828098883
 30
0.0
 40
0.0255905507
  0
CIRCLE
  5
5D5
  8
0
  6
CONTINUOUS
 62
     7
 10
2.9836061424897471
 20
4.4010268262189811
 30
0.0
 40
0.0255905507
  0
CIRCLE
  5
5D6
  8
0
  6
CONTINUOUS
 62
     7
 10
2.9836061424897471
 20
4.5010268243389637
 30
0.0
 40
0.0255905507
  0
CIRCLE
  5
5D7
  8
0
  6
CONTINUOUS
 62
     7
 10
2.9836061424897471
 20
4.6010268224589481
 30
0.0
 40
0.0255905507
  0
CIRCLE
  5
5D8
  8
0
  6
CONTINUOUS
 62
     7
 10
2.9836061424897471
 20
4.7010268205789307
 30
0.0
 40
0.0255905507
  0
CIRCLE
  5
5D9
  8
0
  6
CONTINUOUS
 62
     7
 10
2.9836061424897471
 20
4.8010268186989151
 30
0.0
 40
0.0255905507
  0
CIRCLE
  5
5DA
  8
0
  6
CONTINUOUS
 62
     7
 10
2.9836061424897471
 20
4.9010268168188977
 30
0.0
 40
0.0255905507
  0
CIRCLE
  5
5DB
  8
0
  6
CONTINUOUS
 62
     7
 10
2.9836061424897471
 20
5.0010268149388821
 30
0.0
 40
0.0255905507
  0
CIRCLE
  5
5DC
  8
0
  6
CONTINUOUS
 62
     7
 10
2.9836061424897471
 20
5.1010268130588647
 30
0.0
 40
0.0255905507
  0
CIRCLE
  5
5DD
  8
0
  6
CONTINUOUS
 62
     7
 10
2.9836061424897471
 20
5.2010268111789619
 30
0.0
 40
0.0255905507
  0
CIRCLE
  5
5DE
  8
0
  6
CONTINUOUS
 62
     7
 10
2.9836061424897471
 20
5.3010268092989463
 30
0.0
 40
0.0255905507
  0
CIRCLE
  5
5DF
  8
0
  6
CONTINUOUS
 62
     7
 10
2.9836061424897471
 20
5.4010268074189289
 30
0.0
 40
0.0255905507
  0
CIRCLE
  5
5E0
  8
0
  6
CONTINUOUS
 62
     7
 10
2.9836061424897471
 20
5.5010268055389133
 30
0.0
 40
0.0255905507
  0
CIRCLE
  5
5E1
  8
0
  6
CONTINUOUS
 62
     7
 10
2.9836061424897471
 20
5.6010268036588959
 30
0.0
 40
0.0255905507
  0
CIRCLE
  5
5E2
  8
0
  6
CONTINUOUS
 62
     7
 10
2.9836061424897471
 20
5.7010268017788803
 30
0.0
 40
0.0255905507
  0
CIRCLE
  5
5E3
  8
0
  6
CONTINUOUS
 62
     7
 10
3.2836061368497549
 20
3.3010268468989352
 30
0.0
 40
0.0255905507
  0
CIRCLE
  5
5E4
  8
0
  6
CONTINUOUS
 62
     7
 10
3.2836061368497549
 20
3.4010268450189178
 30
0.0
 40
0.0255905507
  0
CIRCLE
  5
5E5
  8
0
  6
CONTINUOUS
 62
     7
 10
3.2836061368497549
 20
3.5010268431389018
 30
0.0
 40
0.0255905507
  0
CIRCLE
  5
5E6
  8
0
  6
CONTINUOUS
 62
     7
 10
3.2836061368497549
 20
3.601026841258999
 30
0.0
 40
0.0255905507
  0
CIRCLE
  5
5E7
  8
0
  6
CONTINUOUS
 62
     7
 10
3.2836061368497549
 20
3.701026839378982
 30
0.0
 40
0.0255905507
  0
CIRCLE
  5
5E8
  8
0
  6
CONTINUOUS
 62
     7
 10
3.2836061368497549
 20
3.801026837498966
 30
0.0
 40
0.0255905507
  0
CIRCLE
  5
5E9
  8
0
  6
CONTINUOUS
 62
     7
 10
3.2836061368497549
 20
3.901026835618949
 30
0.0
 40
0.0255905507
  0
CIRCLE
  5
5EA
  8
0
  6
CONTINUOUS
 62
     7
 10
3.2836061368497549
 20
4.0010268337389334
 30
0.0
 40
0.0255905507
  0
CIRCLE
  5
5EB
  8
0
  6
CONTINUOUS
 62
     7
 10
3.2836061368497549
 20
4.101026831858916
 30
0.0
 40
0.0255905507
  0
CIRCLE
  5
5EC
  8
0
  6
CONTINUOUS
 62
     7
 10
3.2836061368497549
 20
4.2010268299789004
 30
0.0
 40
0.0255905507
  0
CIRCLE
  5
5ED
  8
0
  6
CONTINUOUS
 62
     7
 10
3.2836061368497549
 20
4.301026828098883
 30
0.0
 40
0.0255905507
  0
CIRCLE
  5
5EE
  8
0
  6
CONTINUOUS
 62
     7
 10
3.2836061368497549
 20
4.4010268262189811
 30
0.0
 40
0.0255905507
  0
CIRCLE
  5
5EF
  8
0
  6
CONTINUOUS
 62
     7
 10
3.2836061368497549
 20
4.5010268243389637
 30
0.0
 40
0.0255905507
  0
CIRCLE
  5
5F0
  8
0
  6
CONTINUOUS
 62
     7
 10
3.2836061368497549
 20
4.6010268224589481
 30
0.0
 40
0.0255905507
  0
CIRCLE
  5
5F1
  8
0
  6
CONTINUOUS
 62
     7
 10
3.2836061368497549
 20
4.7010268205789307
 30
0.0
 40
0.0255905507
  0
CIRCLE
  5
5F2
  8
0
  6
CONTINUOUS
 62
     7
 10
3.2836061368497549
 20
4.8010268186989151
 30
0.0
 40
0.0255905507
  0
CIRCLE
  5
5F3
  8
0
  6
CONTINUOUS
 62
     7
 10
3.2836061368497549
 20
4.9010268168188977
 30
0.0
 40
0.0255905507
  0
CIRCLE
  5
5F4
  8
0
  6
CONTINUOUS
 62
     7
 10
3.2836061368497549
 20
5.0010268149388821
 30
0.0
 40
0.0255905507
  0
CIRCLE
  5
5F5
  8
0
  6
CONTINUOUS
 62
     7
 10
3.2836061368497549
 20
5.1010268130588647
 30
0.0
 40
0.0255905507
  0
CIRCLE
  5
5F6
  8
0
  6
CONTINUOUS
 62
     7
 10
3.2836061368497549
 20
5.2010268111789619
 30
0.0
 40
0.0255905507
  0
CIRCLE
  5
5F7
  8
0
  6
CONTINUOUS
 62
     7
 10
3.2836061368497549
 20
5.3010268092989463
 30
0.0
 40
0.0255905507
  0
CIRCLE
  5
5F8
  8
0
  6
CONTINUOUS
 62
     7
 10
3.2836061368497549
 20
5.4010268074189289
 30
0.0
 40
0.0255905507
  0
CIRCLE
  5
5F9
  8
0
  6
CONTINUOUS
 62
     7
 10
3.2836061368497549
 20
5.5010268055389133
 30
0.0
 40
0.0255905507
  0
CIRCLE
  5
5FA
  8
0
  6
CONTINUOUS
 62
     7
 10
3.2836061368497549
 20
5.6010268036588959
 30
0.0
 40
0.0255905507
  0
CIRCLE
  5
5FB
  8
0
  6
CONTINUOUS
 62
     7
 10
3.2836061368497549
 20
5.7010268017788803
 30
0.0
 40
0.0255905507
  0
CIRCLE
  5
5FC
  8
0
  6
CONTINUOUS
 62
     7
 10
3.083606140609759
 20
3.3010268468989352
 30
0.0
 40
0.0255905507
  0
CIRCLE
  5
5FD
  8
0
  6
CONTINUOUS
 62
     7
 10
3.083606140609759
 20
3.4010268450189178
 30
0.0
 40
0.0255905507
  0
CIRCLE
  5
5FE
  8
0
  6
CONTINUOUS
 62
     7
 10
3.083606140609759
 20
3.5010268431389018
 30
0.0
 40
0.0255905507
  0
CIRCLE
  5
5FF
  8
0
  6
CONTINUOUS
 62
     7
 10
3.083606140609759
 20
3.601026841258999
 30
0.0
 40
0.0255905507
  0
CIRCLE
  5
600
  8
0
  6
CONTINUOUS
 62
     7
 10
3.083606140609759
 20
3.701026839378982
 30
0.0
 40
0.0255905507
  0
CIRCLE
  5
601
  8
0
  6
CONTINUOUS
 62
     7
 10
3.083606140609759
 20
3.801026837498966
 30
0.0
 40
0.0255905507
  0
CIRCLE
  5
602
  8
0
  6
CONTINUOUS
 62
     7
 10
3.083606140609759
 20
3.901026835618949
 30
0.0
 40
0.0255905507
  0
CIRCLE
  5
603
  8
0
  6
CONTINUOUS
 62
     7
 10
3.083606140609759
 20
4.0010268337389334
 30
0.0
 40
0.0255905507
  0
CIRCLE
  5
604
  8
0
  6
CONTINUOUS
 62
     7
 10
3.083606140609759
 20
4.101026831858916
 30
0.0
 40
0.0255905507
  0
CIRCLE
  5
605
  8
0
  6
CONTINUOUS
 62
     7
 10
3.083606140609759
 20
4.2010268299789004
 30
0.0
 40
0.0255905507
  0
CIRCLE
  5
606
  8
0
  6
CONTINUOUS
 62
     7
 10
3.083606140609759
 20
4.301026828098883
 30
0.0
 40
0.0255905507
  0
CIRCLE
  5
607
  8
0
  6
CONTINUOUS
 62
     7
 10
3.083606140609759
 20
4.4010268262189811
 30
0.0
 40
0.0255905507
  0
CIRCLE
  5
608
  8
0
  6
CONTINUOUS
 62
     7
 10
3.083606140609759
 20
4.5010268243389637
 30
0.0
 40
0.0255905507
  0
CIRCLE
  5
609
  8
0
  6
CONTINUOUS
 62
     7
 10
3.083606140609759
 20
4.6010268224589481
 30
0.0
 40
0.0255905507
  0
CIRCLE
  5
60A
  8
0
  6
CONTINUOUS
 62
     7
 10
3.083606140609759
 20
4.7010268205789307
 30
0.0
 40
0.0255905507
  0
CIRCLE
  5
60B
  8
0
  6
CONTINUOUS
 62
     7
 10
3.083606140609759
 20
4.8010268186989151
 30
0.0
 40
0.0255905507
  0
CIRCLE
  5
60C
  8
0
  6
CONTINUOUS
 62
     7
 10
3.083606140609759
 20
4.9010268168188977
 30
0.0
 40
0.0255905507
  0
CIRCLE
  5
60D
  8
0
  6
CONTINUOUS
 62
     7
 10
3.083606140609759
 20
5.0010268149388821
 30
0.0
 40
0.0255905507
  0
CIRCLE
  5
60E
  8
0
  6
CONTINUOUS
 62
     7
 10
3.083606140609759
 20
5.1010268130588647
 30
0.0
 40
0.0255905507
  0
CIRCLE
  5
60F
  8
0
  6
CONTINUOUS
 62
     7
 10
3.083606140609759
 20
5.2010268111789619
 30
0.0
 40
0.0255905507
  0
CIRCLE
  5
610
  8
0
  6
CONTINUOUS
 62
     7
 10
3.083606140609759
 20
5.3010268092989463
 30
0.0
 40
0.0255905507
  0
CIRCLE
  5
611
  8
0
  6
CONTINUOUS
 62
     7
 10
3.083606140609759
 20
5.4010268074189289
 30
0.0
 40
0.0255905507
  0
CIRCLE
  5
612
  8
0
  6
CONTINUOUS
 62
     7
 10
3.083606140609759
 20
5.5010268055389133
 30
0.0
 40
0.0255905507
  0
CIRCLE
  5
613
  8
0
  6
CONTINUOUS
 62
     7
 10
3.083606140609759
 20
5.6010268036588959
 30
0.0
 40
0.0255905507
  0
CIRCLE
  5
614
  8
0
  6
CONTINUOUS
 62
     7
 10
3.083606140609759
 20
5.7010268017788803
 30
0.0
 40
0.0255905507
  0
CIRCLE
  5
615
  8
0
  6
CONTINUOUS
 62
     7
 10
2.8836061443697361
 20
3.3010268468989352
 30
0.0
 40
0.0255905507
  0
CIRCLE
  5
616
  8
0
  6
CONTINUOUS
 62
     7
 10
2.8836061443697361
 20
3.4010268450189178
 30
0.0
 40
0.0255905507
  0
CIRCLE
  5
617
  8
0
  6
CONTINUOUS
 62
     7
 10
2.8836061443697361
 20
3.5010268431389018
 30
0.0
 40
0.0255905507
  0
CIRCLE
  5
618
  8
0
  6
CONTINUOUS
 62
     7
 10
2.8836061443697361
 20
3.601026841258999
 30
0.0
 40
0.0255905507
  0
CIRCLE
  5
619
  8
0
  6
CONTINUOUS
 62
     7
 10
2.8836061443697361
 20
3.701026839378982
 30
0.0
 40
0.0255905507
  0
CIRCLE
  5
61A
  8
0
  6
CONTINUOUS
 62
     7
 10
2.8836061443697361
 20
3.801026837498966
 30
0.0
 40
0.0255905507
  0
CIRCLE
  5
61B
  8
0
  6
CONTINUOUS
 62
     7
 10
2.8836061443697361
 20
3.901026835618949
 30
0.0
 40
0.0255905507
  0
CIRCLE
  5
61C
  8
0
  6
CONTINUOUS
 62
     7
 10
2.8836061443697361
 20
4.0010268337389334
 30
0.0
 40
0.0255905507
  0
CIRCLE
  5
61D
  8
0
  6
CONTINUOUS
 62
     7
 10
2.8836061443697361
 20
4.101026831858916
 30
0.0
 40
0.0255905507
  0
CIRCLE
  5
61E
  8
0
  6
CONTINUOUS
 62
     7
 10
2.8836061443697361
 20
4.2010268299789004
 30
0.0
 40
0.0255905507
  0
CIRCLE
  5
61F
  8
0
  6
CONTINUOUS
 62
     7
 10
2.8836061443697361
 20
4.301026828098883
 30
0.0
 40
0.0255905507
  0
CIRCLE
  5
620
  8
0
  6
CONTINUOUS
 62
     7
 10
2.8836061443697361
 20
4.4010268262189811
 30
0.0
 40
0.0255905507
  0
CIRCLE
  5
621
  8
0
  6
CONTINUOUS
 62
     7
 10
2.8836061443697361
 20
4.5010268243389637
 30
0.0
 40
0.0255905507
  0
CIRCLE
  5
622
  8
0
  6
CONTINUOUS
 62
     7
 10
2.8836061443697361
 20
4.6010268224589481
 30
0.0
 40
0.0255905507
  0
CIRCLE
  5
623
  8
0
  6
CONTINUOUS
 62
     7
 10
2.8836061443697361
 20
4.7010268205789307
 30
0.0
 40
0.0255905507
  0
CIRCLE
  5
624
  8
0
  6
CONTINUOUS
 62
     7
 10
2.8836061443697361
 20
4.8010268186989151
 30
0.0
 40
0.0255905507
  0
CIRCLE
  5
625
  8
0
  6
CONTINUOUS
 62
     7
 10
2.8836061443697361
 20
4.9010268168188977
 30
0.0
 40
0.0255905507
  0
CIRCLE
  5
626
  8
0
  6
CONTINUOUS
 62
     7
 10
2.8836061443697361
 20
5.0010268149388821
 30
0.0
 40
0.0255905507
  0
CIRCLE
  5
627
  8
0
  6
CONTINUOUS
 62
     7
 10
2.8836061443697361
 20
5.1010268130588647
 30
0.0
 40
0.0255905507
  0
CIRCLE
  5
628
  8
0
  6
CONTINUOUS
 62
     7
 10
2.8836061443697361
 20
5.2010268111789619
 30
0.0
 40
0.0255905507
  0
CIRCLE
  5
629
  8
0
  6
CONTINUOUS
 62
     7
 10
2.8836061443697361
 20
5.3010268092989463
 30
0.0
 40
0.0255905507
  0
CIRCLE
  5
62A
  8
0
  6
CONTINUOUS
 62
     7
 10
2.8836061443697361
 20
5.4010268074189289
 30
0.0
 40
0.0255905507
  0
CIRCLE
  5
62B
  8
0
  6
CONTINUOUS
 62
     7
 10
2.8836061443697361
 20
5.5010268055389133
 30
0.0
 40
0.0255905507
  0
CIRCLE
  5
62C
  8
0
  6
CONTINUOUS
 62
     7
 10
2.8836061443697361
 20
5.6010268036588959
 30
0.0
 40
0.0255905507
  0
CIRCLE
  5
62D
  8
0
  6
CONTINUOUS
 62
     7
 10
2.8836061443697361
 20
5.7010268017788803
 30
0.0
 40
0.0255905507
  0
CIRCLE
  5
62E
  8
0
  6
CONTINUOUS
 62
     7
 10
2.7836061462497521
 20
3.3010268468989352
 30
0.0
 40
0.0255905507
  0
CIRCLE
  5
62F
  8
0
  6
CONTINUOUS
 62
     7
 10
2.7836061462497521
 20
3.4010268450189178
 30
0.0
 40
0.0255905507
  0
CIRCLE
  5
630
  8
0
  6
CONTINUOUS
 62
     7
 10
2.7836061462497521
 20
3.5010268431389018
 30
0.0
 40
0.0255905507
  0
CIRCLE
  5
631
  8
0
  6
CONTINUOUS
 62
     7
 10
2.7836061462497521
 20
3.601026841258999
 30
0.0
 40
0.0255905507
  0
CIRCLE
  5
632
  8
0
  6
CONTINUOUS
 62
     7
 10
2.7836061462497521
 20
3.701026839378982
 30
0.0
 40
0.0255905507
  0
CIRCLE
  5
633
  8
0
  6
CONTINUOUS
 62
     7
 10
2.7836061462497521
 20
3.801026837498966
 30
0.0
 40
0.0255905507
  0
CIRCLE
  5
634
  8
0
  6
CONTINUOUS
 62
     7
 10
2.7836061462497521
 20
3.901026835618949
 30
0.0
 40
0.0255905507
  0
CIRCLE
  5
635
  8
0
  6
CONTINUOUS
 62
     7
 10
2.7836061462497521
 20
4.0010268337389334
 30
0.0
 40
0.0255905507
  0
CIRCLE
  5
636
  8
0
  6
CONTINUOUS
 62
     7
 10
2.7836061462497521
 20
4.101026831858916
 30
0.0
 40
0.0255905507
  0
CIRCLE
  5
637
  8
0
  6
CONTINUOUS
 62
     7
 10
2.7836061462497521
 20
4.2010268299789004
 30
0.0
 40
0.0255905507
  0
CIRCLE
  5
638
  8
0
  6
CONTINUOUS
 62
     7
 10
2.7836061462497521
 20
4.301026828098883
 30
0.0
 40
0.0255905507
  0
CIRCLE
  5
639
  8
0
  6
CONTINUOUS
 62
     7
 10
2.7836061462497521
 20
4.4010268262189811
 30
0.0
 40
0.0255905507
  0
CIRCLE
  5
63A
  8
0
  6
CONTINUOUS
 62
     7
 10
2.7836061462497521
 20
4.5010268243389637
 30
0.0
 40
0.0255905507
  0
CIRCLE
  5
63B
  8
0
  6
CONTINUOUS
 62
     7
 10
2.7836061462497521
 20
4.6010268224589481
 30
0.0
 40
0.0255905507
  0
CIRCLE
  5
63C
  8
0
  6
CONTINUOUS
 62
     7
 10
2.7836061462497521
 20
4.7010268205789307
 30
0.0
 40
0.0255905507
  0
CIRCLE
  5
63D
  8
0
  6
CONTINUOUS
 62
     7
 10
2.7836061462497521
 20
4.8010268186989151
 30
0.0
 40
0.0255905507
  0
CIRCLE
  5
63E
  8
0
  6
CONTINUOUS
 62
     7
 10
2.7836061462497521
 20
4.9010268168188977
 30
0.0
 40
0.0255905507
  0
CIRCLE
  5
63F
  8
0
  6
CONTINUOUS
 62
     7
 10
2.7836061462497521
 20
5.0010268149388821
 30
0.0
 40
0.0255905507
  0
CIRCLE
  5
640
  8
0
  6
CONTINUOUS
 62
     7
 10
2.7836061462497521
 20
5.1010268130588647
 30
0.0
 40
0.0255905507
  0
CIRCLE
  5
641
  8
0
  6
CONTINUOUS
 62
     7
 10
2.7836061462497521
 20
5.2010268111789619
 30
0.0
 40
0.0255905507
  0
CIRCLE
  5
642
  8
0
  6
CONTINUOUS
 62
     7
 10
2.7836061462497521
 20
5.3010268092989463
 30
0.0
 40
0.0255905507
  0
CIRCLE
  5
643
  8
0
  6
CONTINUOUS
 62
     7
 10
2.7836061462497521
 20
5.4010268074189289
 30
0.0
 40
0.0255905507
  0
CIRCLE
  5
644
  8
0
  6
CONTINUOUS
 62
     7
 10
2.7836061462497521
 20
5.5010268055389133
 30
0.0
 40
0.0255905507
  0
CIRCLE
  5
645
  8
0
  6
CONTINUOUS
 62
     7
 10
2.7836061462497521
 20
5.6010268036588959
 30
0.0
 40
0.0255905507
  0
CIRCLE
  5
646
  8
0
  6
CONTINUOUS
 62
     7
 10
2.7836061462497521
 20
5.7010268017788803
 30
0.0
 40
0.0255905507
  0
CIRCLE
  5
647
  8
0
  6
CONTINUOUS
 62
     7
 10
2.5836061500097571
 20
3.3010268468989352
 30
0.0
 40
0.0255905507
  0
CIRCLE
  5
648
  8
0
  6
CONTINUOUS
 62
     7
 10
2.5836061500097571
 20
3.4010268450189178
 30
0.0
 40
0.0255905507
  0
CIRCLE
  5
649
  8
0
  6
CONTINUOUS
 62
     7
 10
2.5836061500097571
 20
3.5010268431389018
 30
0.0
 40
0.0255905507
  0
CIRCLE
  5
64A
  8
0
  6
CONTINUOUS
 62
     7
 10
2.5836061500097571
 20
3.601026841258999
 30
0.0
 40
0.0255905507
  0
CIRCLE
  5
64B
  8
0
  6
CONTINUOUS
 62
     7
 10
2.5836061500097571
 20
3.701026839378982
 30
0.0
 40
0.0255905507
  0
CIRCLE
  5
64C
  8
0
  6
CONTINUOUS
 62
     7
 10
2.5836061500097571
 20
3.801026837498966
 30
0.0
 40
0.0255905507
  0
CIRCLE
  5
64D
  8
0
  6
CONTINUOUS
 62
     7
 10
2.5836061500097571
 20
3.901026835618949
 30
0.0
 40
0.0255905507
  0
CIRCLE
  5
64E
  8
0
  6
CONTINUOUS
 62
     7
 10
2.5836061500097571
 20
4.0010268337389334
 30
0.0
 40
0.0255905507
  0
CIRCLE
  5
64F
  8
0
  6
CONTINUOUS
 62
     7
 10
2.5836061500097571
 20
4.101026831858916
 30
0.0
 40
0.0255905507
  0
CIRCLE
  5
650
  8
0
  6
CONTINUOUS
 62
     7
 10
2.5836061500097571
 20
4.2010268299789004
 30
0.0
 40
0.0255905507
  0
CIRCLE
  5
651
  8
0
  6
CONTINUOUS
 62
     7
 10
2.5836061500097571
 20
4.301026828098883
 30
0.0
 40
0.0255905507
  0
CIRCLE
  5
652
  8
0
  6
CONTINUOUS
 62
     7
 10
2.5836061500097571
 20
4.4010268262189811
 30
0.0
 40
0.0255905507
  0
CIRCLE
  5
653
  8
0
  6
CONTINUOUS
 62
     7
 10
2.5836061500097571
 20
4.5010268243389637
 30
0.0
 40
0.0255905507
  0
CIRCLE
  5
654
  8
0
  6
CONTINUOUS
 62
     7
 10
2.5836061500097571
 20
4.6010268224589481
 30
0.0
 40
0.0255905507
  0
CIRCLE
  5
655
  8
0
  6
CONTINUOUS
 62
     7
 10
2.5836061500097571
 20
4.7010268205789307
 30
0.0
 40
0.0255905507
  0
CIRCLE
  5
656
  8
0
  6
CONTINUOUS
 62
     7
 10
2.5836061500097571
 20
4.8010268186989151
 30
0.0
 40
0.0255905507
  0
CIRCLE
  5
657
  8
0
  6
CONTINUOUS
 62
     7
 10
2.5836061500097571
 20
4.9010268168188977
 30
0.0
 40
0.0255905507
  0
CIRCLE
  5
658
  8
0
  6
CONTINUOUS
 62
     7
 10
2.5836061500097571
 20
5.0010268149388821
 30
0.0
 40
0.0255905507
  0
CIRCLE
  5
659
  8
0
  6
CONTINUOUS
 62
     7
 10
2.5836061500097571
 20
5.1010268130588647
 30
0.0
 40
0.0255905507
  0
CIRCLE
  5
65A
  8
0
  6
CONTINUOUS
 62
     7
 10
2.5836061500097571
 20
5.2010268111789619
 30
0.0
 40
0.0255905507
  0
CIRCLE
  5
65B
  8
0
  6
CONTINUOUS
 62
     7
 10
2.5836061500097571
 20
5.3010268092989463
 30
0.0
 40
0.0255905507
  0
CIRCLE
  5
65C
  8
0
  6
CONTINUOUS
 62
     7
 10
2.5836061500097571
 20
5.4010268074189289
 30
0.0
 40
0.0255905507
  0
CIRCLE
  5
65D
  8
0
  6
CONTINUOUS
 62
     7
 10
2.5836061500097571
 20
5.5010268055389133
 30
0.0
 40
0.0255905507
  0
CIRCLE
  5
65E
  8
0
  6
CONTINUOUS
 62
     7
 10
2.5836061500097571
 20
5.6010268036588959
 30
0.0
 40
0.0255905507
  0
CIRCLE
  5
65F
  8
0
  6
CONTINUOUS
 62
     7
 10
2.5836061500097571
 20
5.7010268017788803
 30
0.0
 40
0.0255905507
  0
CIRCLE
  5
660
  8
0
  6
CONTINUOUS
 62
     7
 10
2.3836061537697608
 20
3.601026841258999
 30
0.0
 40
0.0255905507
  0
CIRCLE
  5
661
  8
0
  6
CONTINUOUS
 62
     7
 10
2.3836061537697608
 20
3.701026839378982
 30
0.0
 40
0.0255905507
  0
CIRCLE
  5
662
  8
0
  6
CONTINUOUS
 62
     7
 10
2.3836061537697608
 20
3.801026837498966
 30
0.0
 40
0.0255905507
  0
CIRCLE
  5
663
  8
0
  6
CONTINUOUS
 62
     7
 10
2.3836061537697608
 20
3.901026835618949
 30
0.0
 40
0.0255905507
  0
CIRCLE
  5
664
  8
0
  6
CONTINUOUS
 62
     7
 10
2.3836061537697608
 20
4.0010268337389334
 30
0.0
 40
0.0255905507
  0
CIRCLE
  5
665
  8
0
  6
CONTINUOUS
 62
     7
 10
2.3836061537697608
 20
4.101026831858916
 30
0.0
 40
0.0255905507
  0
CIRCLE
  5
666
  8
0
  6
CONTINUOUS
 62
     7
 10
2.3836061537697608
 20
4.2010268299789004
 30
0.0
 40
0.0255905507
  0
CIRCLE
  5
667
  8
0
  6
CONTINUOUS
 62
     7
 10
2.3836061537697608
 20
4.301026828098883
 30
0.0
 40
0.0255905507
  0
CIRCLE
  5
668
  8
0
  6
CONTINUOUS
 62
     7
 10
2.3836061537697608
 20
4.4010268262189811
 30
0.0
 40
0.0255905507
  0
CIRCLE
  5
669
  8
0
  6
CONTINUOUS
 62
     7
 10
2.3836061537697608
 20
4.5010268243389637
 30
0.0
 40
0.0255905507
  0
CIRCLE
  5
66A
  8
0
  6
CONTINUOUS
 62
     7
 10
2.3836061537697608
 20
4.6010268224589481
 30
0.0
 40
0.0255905507
  0
CIRCLE
  5
66B
  8
0
  6
CONTINUOUS
 62
     7
 10
2.3836061537697608
 20
4.7010268205789307
 30
0.0
 40
0.0255905507
  0
CIRCLE
  5
66C
  8
0
  6
CONTINUOUS
 62
     7
 10
2.3836061537697608
 20
4.8010268186989151
 30
0.0
 40
0.0255905507
  0
CIRCLE
  5
66D
  8
0
  6
CONTINUOUS
 62
     7
 10
2.3836061537697608
 20
4.9010268168188977
 30
0.0
 40
0.0255905507
  0
CIRCLE
  5
66E
  8
0
  6
CONTINUOUS
 62
     7
 10
2.3836061537697608
 20
5.0010268149388821
 30
0.0
 40
0.0255905507
  0
CIRCLE
  5
66F
  8
0
  6
CONTINUOUS
 62
     7
 10
2.3836061537697608
 20
5.1010268130588647
 30
0.0
 40
0.0255905507
  0
CIRCLE
  5
670
  8
0
  6
CONTINUOUS
 62
     7
 10
2.3836061537697608
 20
5.2010268111789619
 30
0.0
 40
0.0255905507
  0
CIRCLE
  5
671
  8
0
  6
CONTINUOUS
 62
     7
 10
2.3836061537697608
 20
5.3010268092989463
 30
0.0
 40
0.0255905507
  0
CIRCLE
  5
672
  8
0
  6
CONTINUOUS
 62
     7
 10
2.3836061537697608
 20
5.4010268074189289
 30
0.0
 40
0.0255905507
  0
CIRCLE
  5
673
  8
0
  6
CONTINUOUS
 62
     7
 10
2.6836061481297402
 20
3.3010268468989352
 30
0.0
 40
0.0255905507
  0
CIRCLE
  5
674
  8
0
  6
CONTINUOUS
 62
     7
 10
2.6836061481297402
 20
3.4010268450189178
 30
0.0
 40
0.0255905507
  0
CIRCLE
  5
675
  8
0
  6
CONTINUOUS
 62
     7
 10
2.6836061481297402
 20
3.5010268431389018
 30
0.0
 40
0.0255905507
  0
CIRCLE
  5
676
  8
0
  6
CONTINUOUS
 62
     7
 10
2.6836061481297402
 20
3.601026841258999
 30
0.0
 40
0.0255905507
  0
CIRCLE
  5
677
  8
0
  6
CONTINUOUS
 62
     7
 10
2.6836061481297402
 20
3.701026839378982
 30
0.0
 40
0.0255905507
  0
CIRCLE
  5
678
  8
0
  6
CONTINUOUS
 62
     7
 10
2.6836061481297402
 20
3.801026837498966
 30
0.0
 40
0.0255905507
  0
CIRCLE
  5
679
  8
0
  6
CONTINUOUS
 62
     7
 10
2.6836061481297402
 20
3.901026835618949
 30
0.0
 40
0.0255905507
  0
CIRCLE
  5
67A
  8
0
  6
CONTINUOUS
 62
     7
 10
2.6836061481297402
 20
4.0010268337389334
 30
0.0
 40
0.0255905507
  0
CIRCLE
  5
67B
  8
0
  6
CONTINUOUS
 62
     7
 10
2.6836061481297402
 20
4.101026831858916
 30
0.0
 40
0.0255905507
  0
CIRCLE
  5
67C
  8
0
  6
CONTINUOUS
 62
     7
 10
2.6836061481297402
 20
4.2010268299789004
 30
0.0
 40
0.0255905507
  0
CIRCLE
  5
67D
  8
0
  6
CONTINUOUS
 62
     7
 10
2.6836061481297402
 20
4.301026828098883
 30
0.0
 40
0.0255905507
  0
CIRCLE
  5
67E
  8
0
  6
CONTINUOUS
 62
     7
 10
2.6836061481297402
 20
4.4010268262189811
 30
0.0
 40
0.0255905507
  0
CIRCLE
  5
67F
  8
0
  6
CONTINUOUS
 62
     7
 10
2.6836061481297402
 20
4.5010268243389637
 30
0.0
 40
0.0255905507
  0
CIRCLE
  5
680
  8
0
  6
CONTINUOUS
 62
     7
 10
2.6836061481297402
 20
4.6010268224589481
 30
0.0
 40
0.0255905507
  0
CIRCLE
  5
681
  8
0
  6
CONTINUOUS
 62
     7
 10
2.6836061481297402
 20
4.7010268205789307
 30
0.0
 40
0.0255905507
  0
CIRCLE
  5
682
  8
0
  6
CONTINUOUS
 62
     7
 10
2.6836061481297402
 20
4.8010268186989151
 30
0.0
 40
0.0255905507
  0
CIRCLE
  5
683
  8
0
  6
CONTINUOUS
 62
     7
 10
2.6836061481297402
 20
4.9010268168188977
 30
0.0
 40
0.0255905507
  0
CIRCLE
  5
684
  8
0
  6
CONTINUOUS
 62
     7
 10
2.6836061481297402
 20
5.0010268149388821
 30
0.0
 40
0.0255905507
  0
CIRCLE
  5
685
  8
0
  6
CONTINUOUS
 62
     7
 10
2.6836061481297402
 20
5.1010268130588647
 30
0.0
 40
0.0255905507
  0
CIRCLE
  5
686
  8
0
  6
CONTINUOUS
 62
     7
 10
2.6836061481297402
 20
5.2010268111789619
 30
0.0
 40
0.0255905507
  0
CIRCLE
  5
687
  8
0
  6
CONTINUOUS
 62
     7
 10
2.6836061481297402
 20
5.3010268092989463
 30
0.0
 40
0.0255905507
  0
CIRCLE
  5
688
  8
0
  6
CONTINUOUS
 62
     7
 10
2.6836061481297402
 20
5.4010268074189289
 30
0.0
 40
0.0255905507
  0
CIRCLE
  5
689
  8
0
  6
CONTINUOUS
 62
     7
 10
2.6836061481297402
 20
5.5010268055389133
 30
0.0
 40
0.0255905507
  0
CIRCLE
  5
68A
  8
0
  6
CONTINUOUS
 62
     7
 10
2.6836061481297402
 20
5.6010268036588959
 30
0.0
 40
0.0255905507
  0
CIRCLE
  5
68B
  8
0
  6
CONTINUOUS
 62
     7
 10
2.6836061481297402
 20
5.7010268017788803
 30
0.0
 40
0.0255905507
  0
CIRCLE
  5
68C
  8
0
  6
CONTINUOUS
 62
     7
 10
2.4836061518897452
 20
3.601026841258999
 30
0.0
 40
0.0255905507
  0
CIRCLE
  5
68D
  8
0
  6
CONTINUOUS
 62
     7
 10
2.4836061518897452
 20
3.701026839378982
 30
0.0
 40
0.0255905507
  0
CIRCLE
  5
68E
  8
0
  6
CONTINUOUS
 62
     7
 10
2.4836061518897452
 20
3.801026837498966
 30
0.0
 40
0.0255905507
  0
CIRCLE
  5
68F
  8
0
  6
CONTINUOUS
 62
     7
 10
2.4836061518897452
 20
3.901026835618949
 30
0.0
 40
0.0255905507
  0
CIRCLE
  5
690
  8
0
  6
CONTINUOUS
 62
     7
 10
2.4836061518897452
 20
4.0010268337389334
 30
0.0
 40
0.0255905507
  0
CIRCLE
  5
691
  8
0
  6
CONTINUOUS
 62
     7
 10
2.4836061518897452
 20
4.101026831858916
 30
0.0
 40
0.0255905507
  0
CIRCLE
  5
692
  8
0
  6
CONTINUOUS
 62
     7
 10
2.4836061518897452
 20
4.2010268299789004
 30
0.0
 40
0.0255905507
  0
CIRCLE
  5
693
  8
0
  6
CONTINUOUS
 62
     7
 10
2.4836061518897452
 20
4.301026828098883
 30
0.0
 40
0.0255905507
  0
CIRCLE
  5
694
  8
0
  6
CONTINUOUS
 62
     7
 10
2.4836061518897452
 20
4.4010268262189811
 30
0.0
 40
0.0255905507
  0
CIRCLE
  5
695
  8
0
  6
CONTINUOUS
 62
     7
 10
2.4836061518897452
 20
4.5010268243389637
 30
0.0
 40
0.0255905507
  0
CIRCLE
  5
696
  8
0
  6
CONTINUOUS
 62
     7
 10
2.4836061518897452
 20
4.6010268224589481
 30
0.0
 40
0.0255905507
  0
CIRCLE
  5
697
  8
0
  6
CONTINUOUS
 62
     7
 10
2.4836061518897452
 20
4.7010268205789307
 30
0.0
 40
0.0255905507
  0
CIRCLE
  5
698
  8
0
  6
CONTINUOUS
 62
     7
 10
2.4836061518897452
 20
4.8010268186989151
 30
0.0
 40
0.0255905507
  0
CIRCLE
  5
699
  8
0
  6
CONTINUOUS
 62
     7
 10
2.4836061518897452
 20
4.9010268168188977
 30
0.0
 40
0.0255905507
  0
CIRCLE
  5
69A
  8
0
  6
CONTINUOUS
 62
     7
 10
2.4836061518897452
 20
5.0010268149388821
 30
0.0
 40
0.0255905507
  0
CIRCLE
  5
69B
  8
0
  6
CONTINUOUS
 62
     7
 10
2.4836061518897452
 20
5.1010268130588647
 30
0.0
 40
0.0255905507
  0
CIRCLE
  5
69C
  8
0
  6
CONTINUOUS
 62
     7
 10
2.4836061518897452
 20
5.2010268111789619
 30
0.0
 40
0.0255905507
  0
CIRCLE
  5
69D
  8
0
  6
CONTINUOUS
 62
     7
 10
2.4836061518897452
 20
5.3010268092989463
 30
0.0
 40
0.0255905507
  0
CIRCLE
  5
69E
  8
0
  6
CONTINUOUS
 62
     7
 10
2.4836061518897452
 20
5.4010268074189289
 30
0.0
 40
0.0255905507
  0
CIRCLE
  5
69F
  8
0
  6
CONTINUOUS
 62
     7
 10
3.9710076987297489
 20
5.6211055434389428
 30
0.0
 40
0.059055117
  0
CIRCLE
  5
6A0
  8
0
  6
CONTINUOUS
 62
     7
 10
2.3964578293059731
 20
5.6211055434389428
 30
0.0
 40
0.059055117
  0
CIRCLE
  5
6A1
  8
0
  6
CONTINUOUS
 62
     7
 10
2.396204578729765
 20
3.380948105238871
 30
0.0
 40
0.059055117
  0
CIRCLE
  5
6A2
  8
0
  6
CONTINUOUS
 62
     7
 10
3.9710076987297489
 20
3.380948105238871
 30
0.0
 40
0.059055117
  0
ENDSEC
  0
EOF
