  0
SECTION
  2
HEADER
  9
$ACADVER
  1
AC1009
  9
$INSBASE
 10
0.0
 20
0.0
 30
0.0
  9
$EXTMIN
 10
0.3837784662525792
 20
0.4726383725512733
 30
-0.0000000349181948
  9
$EXTMAX
 10
13.28789445040297
 20
10.27000607399804
 30
0.0000000814935746
  9
$LIMMIN
 10
0.0
 20
0.0
  9
$LIMMAX
 10
13.75
 20
10.625
  9
$ORTHOMODE
 70
     0
  9
$REGENMODE
 70
     1
  9
$FILLMODE
 70
     1
  9
$QTEXTMODE
 70
     0
  9
$MIRRTEXT
 70
     1
  9
$DRAGMODE
 70
     2
  9
$LTSCALE
 40
1.25
  9
$OSMODE
 70
   229
  9
$ATTMODE
 70
     1
  9
$TEXTSIZE
 40
0.2
  9
$TRACEWID
 40
0.05
  9
$TEXTSTYLE
  7
STANDARD
  9
$CLAYER
  8
0
  9
$CELTYPE
  6
BYLAYER
  9
$CECOLOR
 62
   256
  9
$DIMSCALE
 40
1.0
  9
$DIMASZ
 40
0.18
  9
$DIMEXO
 40
0.0625
  9
$DIMDLI
 40
0.38
  9
$DIMRND
 40
0.0
  9
$DIMDLE
 40
0.0
  9
$DIMEXE
 40
0.18
  9
$DIMTP
 40
0.0
  9
$DIMTM
 40
0.0
  9
$DIMTXT
 40
0.18
  9
$DIMCEN
 40
0.09
  9
$DIMTSZ
 40
0.0
  9
$DIMTOL
 70
     0
  9
$DIMLIM
 70
     0
  9
$DIMTIH
 70
     1
  9
$DIMTOH
 70
     1
  9
$DIMSE1
 70
     0
  9
$DIMSE2
 70
     0
  9
$DIMTAD
 70
     0
  9
$DIMZIN
 70
     0
  9
$DIMBLK
  1

  9
$DIMASO
 70
     1
  9
$DIMSHO
 70
     1
  9
$DIMPOST
  1

  9
$DIMAPOST
  1

  9
$DIMALT
 70
     0
  9
$DIMALTD
 70
     2
  9
$DIMALTF
 40
25.399999999999999
  9
$DIMLFAC
 40
1.0
  9
$DIMTOFL
 70
     0
  9
$DIMTVP
 40
0.0
  9
$DIMTIX
 70
     0
  9
$DIMSOXD
 70
     0
  9
$DIMSAH
 70
     0
  9
$DIMBLK1
  1

  9
$DIMBLK2
  1

  9
$DIMSTYLE
  2
STANDARD
  9
$DIMCLRD
 70
     0
  9
$DIMCLRE
 70
     0
  9
$DIMCLRT
 70
     0
  9
$DIMTFAC
 40
1.0
  9
$DIMGAP
 40
0.09
  9
$LUNITS
 70
     2
  9
$LUPREC
 70
     2
  9
$SKETCHINC
 40
0.1
  9
$FILLETRAD
 40
0.5
  9
$AUNITS
 70
     0
  9
$AUPREC
 70
     2
  9
$MENU
  1
.
  9
$ELEVATION
 40
0.0
  9
$PELEVATION
 40
0.0
  9
$THICKNESS
 40
0.0
  9
$LIMCHECK
 70
     0
  9
$BLIPMODE
 70
     0
  9
$CHAMFERA
 40
0.5
  9
$CHAMFERB
 40
0.5
  9
$SKPOLY
 70
     0
  9
$TDCREATE
 40
2456161.5970497448
  9
$TDUPDATE
 40
2456161.4329785071
  9
$TDINDWG
 40
0.001384375
  9
$TDUSRTIMER
 40
0.001384375
  9
$USRTIMER
 70
     1
  9
$ANGBASE
 50
0.0
  9
$ANGDIR
 70
     0
  9
$PDMODE
 70
     0
  9
$PDSIZE
 40
-1.0
  9
$PLINEWID
 40
0.0
  9
$COORDS
 70
     2
  9
$SPLFRAME
 70
     0
  9
$SPLINETYPE
 70
     6
  9
$SPLINESEGS
 70
     8
  9
$ATTDIA
 70
     0
  9
$ATTREQ
 70
     1
  9
$HANDLING
 70
  4097
  9
$HANDSEED
  5
1292
  9
$SURFTAB1
 70
     6
  9
$SURFTAB2
 70
     6
  9
$SURFTYPE
 70
     6
  9
$SURFU
 70
     6
  9
$SURFV
 70
     6
  9
$UCSNAME
  2

  9
$UCSORG
 10
0.0
 20
0.0
 30
0.0
  9
$UCSXDIR
 10
1.0
 20
0.0
 30
0.0
  9
$UCSYDIR
 10
0.0
 20
1.0
 30
0.0
  9
$PUCSNAME
  2

  9
$PUCSORG
 10
0.0
 20
0.0
 30
0.0
  9
$PUCSXDIR
 10
1.0
 20
0.0
 30
0.0
  9
$PUCSYDIR
 10
0.0
 20
1.0
 30
0.0
  9
$USERI1
 70
     0
  9
$USERI2
 70
     0
  9
$USERI3
 70
     0
  9
$USERI4
 70
     0
  9
$USERI5
 70
     0
  9
$USERR1
 40
0.0
  9
$USERR2
 40
0.0
  9
$USERR3
 40
0.0
  9
$USERR4
 40
0.0
  9
$USERR5
 40
0.0
  9
$WORLDVIEW
 70
     1
  9
$SHADEDGE
 70
     3
  9
$SHADEDIF
 70
    70
  9
$TILEMODE
 70
     1
  9
$MAXACTVP
 70
    64
  9
$PLIMCHECK
 70
     0
  9
$PEXTMIN
 10
1.0000000000000000E+020
 20
1.0000000000000000E+020
 30
1.0000000000000000E+020
  9
$PEXTMAX
 10
-1.0000000000000000E+020
 20
-1.0000000000000000E+020
 30
-1.0000000000000000E+020
  9
$PLIMMIN
 10
0.0
 20
0.0
  9
$PLIMMAX
 10
12.0
 20
9.0
  9
$UNITMODE
 70
     0
  9
$VISRETAIN
 70
     1
  9
$PLINEGEN
 70
     0
  9
$PSLTSCALE
 70
     1
  0
ENDSEC
  0
SECTION
  2
TABLES
  0
TABLE
  2
VPORT
 70
     2
  0
VPORT
  2
*ACTIVE
 70
     0
 10
0.0
 20
0.0
 11
1.0
 21
1.0
 12
6.8358364583277753
 22
5.3713222232746611
 13
0.0
 23
0.0
 14
0.5
 24
0.5
 15
0.5
 25
0.5
 16
0.0
 26
0.0
 36
1.0
 17
0.0
 27
0.0
 37
0.0
 40
9.8959989199177159
 41
1.8369747899159661
 42
50.0
 43
0.0
 44
0.0
 50
0.0
 51
0.0
 71
     0
 72
  2000
 73
     1
 74
     3
 75
     0
 76
     0
 77
     0
 78
     0
  0
ENDTAB
  0
TABLE
  2
LTYPE
 70
     7
  0
LTYPE
  2
CONTINUOUS
 70
     0
  3
Solid line
 72
    65
 73
     0
 40
0.0
  0
ENDTAB
  0
TABLE
  2
LAYER
 70
     4
  0
LAYER
  2
0
 70
     0
 62
     7
  6
CONTINUOUS
  0
ENDTAB
  0
TABLE
  2
STYLE
 70
     2
  0
STYLE
  2
STANDARD
 70
     0
 40
0.0
 41
1.0
 50
0.0
 71
     0
 42
0.2
  3
txt
  4

  0
STYLE
  2
SLDTEXTSTYLE0
 70
     0
 40
0.0
 41
0.75
 50
0.0
 71
     0
 42
0.2
  3
TXT
  4

  0
ENDTAB
  0
TABLE
  2
VIEW
 70
     0
  0
ENDTAB
  0
TABLE
  2
UCS
 70
     0
  0
ENDTAB
  0
TABLE
  2
APPID
 70
     4
  0
APPID
  2
ACAD
 70
     0
  0
APPID
  2
ADE
 70
     0
  0
APPID
  2
ACAD_PSEXT
 70
     0
  0
APPID
  2
ACAD_DSTYLE_DIMRADIAL_EXTE
 70
     0
  0
ENDTAB
  0
TABLE
  2
DIMSTYLE
 70
     3
  0
DIMSTYLE
  2
STANDARD
 70
     0
  3

  4

  5

  6

  7

 40
1.0
 41
0.18
 42
0.0625
 43
0.38
 44
0.18
 45
0.0
 46
0.0
 47
0.0
 48
0.0
140
0.18
141
0.09
142
0.0
143
25.399999999999999
144
1.0
145
0.0
146
1.0
147
0.09
 71
     0
 72
     0
 73
     1
 74
     1
 75
     0
 76
     0
 77
     0
 78
     0
170
     0
171
     2
172
     0
173
     0
174
     0
175
     0
176
     0
177
     0
178
     0
  0
DIMSTYLE
  2
SLDDIMSTYLE0
 70
     0
  3

  4

  5

  6

  7

 40
1.0
 41
0.1625
 42
0.0625
 43
0.38
 44
0.0
 45
0.000000001
 46
0.0
 47
0.0
 48
0.0
140
0.18
141
0.09
142
0.0
143
25.399999999999999
144
1.0
145
0.0
146
0.1625
147
0.0
 71
     0
 72
     0
 73
     1
 74
     1
 75
     0
 76
     0
 77
     0
 78
     0
170
     0
171
     2
172
     0
173
     1
174
     0
175
     0
176
     0
177
     0
178
     0
  0
ENDTAB
  0
ENDSEC
  0
SECTION
  2
BLOCKS
  0
BLOCK
  8
0
  2
$MODEL_SPACE
 70
     0
 10
0.0
 20
0.0
 30
0.0
  3
$MODEL_SPACE
  1

  0
ENDBLK
  5
21
  8
0
  0
BLOCK
 67
     1
  8
0
  2
$PAPER_SPACE
 70
     0
 10
0.0
 20
0.0
 30
0.0
  3
$PAPER_SPACE
  1

  0
ENDBLK
  5
1D
 67
     1
  8
0
  0
BLOCK
  8
0
  2
SW_NOTE_0
 70
     0
 10
0.0
 20
0.0
 30
0.0
  3
SW_NOTE_0
  1

  0
TEXT
  5
57
  8
0
 62
     0
 10
0.0
 20
0.0451668343393693
 30
0.0
 40
0.15625
  1
NOTES:
 41
0.75
  7
SLDTEXTSTYLE0
  0
TEXT
  5
58
  8
0
 62
     0
 10
0.1171875000000001
 20
-0.1602957588058882
 30
0.0
 40
0.15625
  1
DIMENSIONS IN MM.
 41
0.75
  7
SLDTEXTSTYLE0
  0
TEXT
  5
59
  8
0
 62
     0
 10
0.1171875000000001
 20
-0.5712209450964039
 30
0.0
 40
0.15625
  1
DESIGNED TO FIT CIRCUIT BOARD
 41
0.75
  7
SLDTEXTSTYLE0
  0
TEXT
  5
5A
  8
0
 62
     0
 10
0.2929687500000002
 20
-0.7766835382416617
 30
0.0
 40
0.15625
  1
"A" LOCATION OF THE DIN RAIL
 41
0.75
  7
SLDTEXTSTYLE0
  0
TEXT
  5
5B
  8
0
 62
     0
 10
0.2929687500000002
 20
-0.9821461313869196
 30
0.0
 40
0.15625
  1
MOUNT MULT-BOARD BOX.
 41
0.75
  7
SLDTEXTSTYLE0
  0
TEXT
  5
5C
  8
0
 62
     0
 10
0.1171875000000001
 20
-1.393071317677435
 30
0.0
 40
0.15625
  1
PRE PLATED HOLES FOR EASY
 41
0.75
  7
SLDTEXTSTYLE0
  0
TEXT
  5
5D
  8
0
 62
     0
 10
0.2929687500000002
 20
-1.598533910822693
 30
0.0
 40
0.15625
  1
SOLDERING.
 41
0.75
  7
SLDTEXTSTYLE0
  0
TEXT
  5
5E
  8
0
 62
     0
 10
0.1171875000000001
 20
-2.0094590971132078
 30
0.0
 40
0.15625
  1
TERMINALS CAN BE USED IN
 41
0.75
  7
SLDTEXTSTYLE0
  0
TEXT
  5
5F
  8
0
 62
     0
 10
0.2343750000000001
 20
-2.2149216902584659
 30
0.0
 40
0.15625
  1
MULTIPLES OF (3)
 41
0.75
  7
SLDTEXTSTYLE0
  0
ENDBLK
  5
56
  8
0
  0
BLOCK
  8
0
  2
SW_NOTE_1
 70
     0
 10
0.0
 20
0.0
 30
0.0
  3
SW_NOTE_1
  1

  0
TEXT
  5
64
  8
0
 62
     0
 10
0.0219726562500001
 20
0.04516683433937
 30
0.0
 40
0.15625
  1
PART
 41
0.75
  7
SLDTEXTSTYLE0
  0
TEXT
  5
65
  8
0
 62
     0
 10
0.0187717023210263
 20
-0.1602957588058879
 30
0.0
 40
0.15625
  1
NAME
 41
0.75
  7
SLDTEXTSTYLE0
  0
ENDBLK
  5
63
  8
0
  0
BLOCK
  8
0
  2
SW_NOTE_2
 70
     0
 10
0.0
 20
0.0
 30
0.0
  3
SW_NOTE_2
  1

  0
TEXT
  5
6A
  8
0
 62
     0
 10
0.0219726562500006
 20
0.04516683433937
 30
0.0
 40
0.15625
  1
PART
 41
0.75
  7
SLDTEXTSTYLE0
  0
TEXT
  5
6B
  8
0
 62
     0
 10
0.1258680414349785
 20
-0.1602957588058879
 30
0.0
 40
0.15625
  1
No.
 41
0.75
  7
SLDTEXTSTYLE0
  0
ENDBLK
  5
69
  8
0
  0
BLOCK
  8
0
  2
SW_NOTE_3
 70
     0
 10
0.0
 20
0.0
 30
0.0
  3
SW_NOTE_3
  1

  0
TEXT
  5
70
  8
0
 62
     0
 10
0.0195312500000006
 20
0.04516683433937
 30
0.0
 40
0.15625
  1
REV.
 41
0.75
  7
SLDTEXTSTYLE0
  0
TEXT
  5
71
  8
0
 62
     0
 10
-0.0018988718374041
 20
-0.1602957588058879
 30
0.0
 40
0.15625
  1
DATE
 41
0.75
  7
SLDTEXTSTYLE0
  0
ENDBLK
  5
6F
  8
0
  0
BLOCK
  8
0
  2
SW_NOTE_4
 70
     0
 10
0.0
 20
0.0
 30
0.0
  3
SW_NOTE_4
  1

  0
TEXT
  5
217
  8
0
 62
     0
 10
-1.4514917479255669
 20
-0.0346976262284931
 30
0.0
 40
0.15625
  1
CIRCUIT BOARD
 41
0.75
  7
SLDTEXTSTYLE0
  0
TEXT
  5
218
  8
0
 62
     0
 10
-1.304790443258224
 20
-0.240160219373751
 30
0.0
 40
0.15625
  1
"A" LOCATION
 41
0.75
  7
SLDTEXTSTYLE0
  0
ENDBLK
  5
216
  8
0
  0
BLOCK
  8
0
  2
SW_NOTE_5
 70
     0
 10
0.0
 20
0.0
 30
0.0
  3
SW_NOTE_5
  1

  0
TEXT
  5
21F
  8
0
 62
     0
 10
-1.5740165072693819
 20
-0.0346668330244282
 30
0.0
 40
0.15625
  1
DIN RAIL MOUNT
 41
0.75
  7
SLDTEXTSTYLE0
  0
TEXT
  5
220
  8
0
 62
     0
 10
-1.544394126082991
 20
-0.2401294261696861
 30
0.0
 40
0.15625
  1
BOX #DMB-4773
 41
0.75
  7
SLDTEXTSTYLE0
  0
ENDBLK
  5
21E
  8
0
  0
BLOCK
  8
0
  2
SW_NOTE_6
 70
     0
 10
0.0
 20
0.0
 30
0.0
  3
SW_NOTE_6
  1

  0
TEXT
  5
226
  8
0
 62
     0
 10
-1.940823364003851
 20
-0.0345942326847193
 30
0.0
 40
0.15625
  1
OPTIONAL TERMINAL
 41
0.75
  7
SLDTEXTSTYLE0
  0
TEXT
  5
227
  8
0
 62
     0
 10
-2.5991348787597239
 20
-0.2400568258299772
 30
0.0
 40
0.15625
  1
CONNECTOR #DMB-4770-T3
 41
0.75
  7
SLDTEXTSTYLE0
  0
ENDBLK
  5
225
  8
0
  0
BLOCK
  8
0
  2
*X45
 70
     1
 10
0.0
 20
0.0
 30
0.0
  3
*X45
  1

  0
LINE
  5
11E9
  8
0
 62
     0
 10
12.794614304054161
 20
4.8396630157055043
 30
0.0
 11
12.853669422164399
 21
4.8987181338157386
 31
0.0
  0
LINE
  5
11EA
  8
0
 62
     0
 10
12.65982001514257
 20
4.7048687267939133
 30
0.0
 11
12.784377470132901
 21
4.829426181784247
 31
0.0
  0
LINE
  5
11EB
  8
0
 62
     0
 10
12.794614304054161
 20
5.0606338848262968
 30
0.0
 11
12.853669422164391
 21
5.1196890029365338
 31
0.0
  0
LINE
  5
11EC
  8
0
 62
     0
 10
12.50435148290201
 20
4.7703710636741476
 30
0.0
 11
12.56340660101211
 21
4.8294261817842461
 31
0.0
  0
LINE
  5
11ED
  8
0
 62
     0
 10
12.794614304054161
 20
5.2816047539470938
 30
0.0
 11
12.853669422164399
 21
5.3406598720573308
 31
0.0
  0
LINE
  5
11EE
  8
0
 62
     0
 10
12.794614304054161
 20
5.5025756230678882
 30
0.0
 11
12.853669422164391
 21
5.5616307411781261
 31
0.0
  0
LINE
  5
11EF
  8
0
 62
     0
 10
12.778446749555039
 20
5.7073789376895654
 30
0.0
 11
12.853669422164399
 21
5.7826016102989231
 31
0.0
  0
LINE
  5
11F0
  8
0
 62
     0
 10
12.57807887098329
 20
5.7279819282386129
 30
0.0
 11
12.656819028463611
 21
5.8067220857189277
 31
0.0
  0
LINE
  5
11F1
  8
0
 62
     0
 10
12.57807887098329
 20
5.9489527973594098
 30
0.0
 11
12.656819028463611
 21
6.0276929548397273
 31
0.0
  0
LINE
  5
11F2
  8
0
 62
     0
 10
12.57807887098329
 20
6.1699236664802051
 30
0.0
 11
12.656819028463611
 21
6.2486638239605243
 31
0.0
  0
LINE
  5
11F3
  8
0
 62
     0
 10
12.57807887098329
 20
6.3908945356010021
 30
0.0
 11
12.656819028463611
 21
6.4696346930813187
 31
0.0
  0
LINE
  5
11F4
  8
0
 62
     0
 10
12.57807887098329
 20
6.6118654047217982
 30
0.0
 11
12.656819028463611
 21
6.6906055622021157
 31
0.0
  0
LINE
  5
11F5
  8
0
 62
     0
 10
12.57807887098329
 20
6.8328362738425952
 30
0.0
 11
12.656819028463611
 21
6.9115764313229109
 31
0.0
  0
LINE
  5
11F6
  8
0
 62
     0
 10
12.57807887098329
 20
7.0538071429633904
 30
0.0
 11
12.656819028463611
 21
7.1325473004437079
 31
0.0
  0
LINE
  5
11F7
  8
0
 62
     0
 10
12.78539690467948
 20
7.4820960457803771
 30
0.0
 11
12.853669422164399
 21
7.5503685632652919
 31
0.0
  0
LINE
  5
11F8
  8
0
 62
     0
 10
12.57807887098329
 20
7.2747780120841874
 30
0.0
 11
12.656819028463611
 21
7.3535181695645031
 31
0.0
  0
LINE
  5
11F9
  8
0
 62
     0
 10
12.57807887098329
 20
7.4957488812049817
 30
0.0
 11
12.656819028463611
 21
7.5744890386853001
 31
0.0
  0
LINE
  5
11FA
  8
0
 62
     0
 10
12.57807887098329
 20
7.7167197503257787
 30
0.0
 11
12.656819028463611
 21
7.7954599078060962
 31
0.0
  0
LINE
  5
11FB
  8
0
 62
     0
 10
12.81146067526989
 20
8.1710724237331753
 30
0.0
 11
12.853669422164391
 21
8.2132811706276811
 31
0.0
  0
LINE
  5
11FC
  8
0
 62
     0
 10
12.57807887098329
 20
7.9376906194465739
 30
0.0
 11
12.656819028463611
 21
8.0164307769268923
 31
0.0
  0
LINE
  5
11FD
  8
0
 62
     0
 10
12.548056162625301
 20
8.1286387802093785
 30
0.0
 11
12.672394135527711
 21
8.2529767531117937
 31
0.0
  0
ENDBLK
  5
11FF
  8
0
  0
BLOCK
  8
0
  2
*X46
 70
     1
 10
0.0
 20
0.0
 30
0.0
  3
*X46
  1

  0
LINE
  5
1201
  8
0
 62
     0
 10
10.591858398542341
 20
5.7304992778848263
 30
0.0
 11
10.67059855602265
 21
5.809239435365142
 31
0.0
  0
LINE
  5
1202
  8
0
 62
     0
 10
10.591858398542341
 20
5.9514701470056206
 30
0.0
 11
10.67059855602265
 21
6.0302103044859381
 31
0.0
  0
LINE
  5
1203
  8
0
 62
     0
 10
10.591858398542341
 20
6.1724410161264176
 30
0.0
 11
10.67059855602265
 21
6.2511811736067351
 31
0.0
  0
LINE
  5
1204
  8
0
 62
     0
 10
10.591858398542341
 20
6.3934118852472128
 30
0.0
 11
10.67059855602265
 21
6.4721520427275303
 31
0.0
  0
LINE
  5
1205
  8
0
 62
     0
 10
10.591858398542341
 20
6.6143827543680098
 30
0.0
 11
10.67059855602265
 21
6.6931229118483273
 31
0.0
  0
LINE
  5
1206
  8
0
 62
     0
 10
10.591858398542341
 20
6.835353623488805
 30
0.0
 11
10.67059855602265
 21
6.9140937809691216
 31
0.0
  0
LINE
  5
1207
  8
0
 62
     0
 10
10.591858398542341
 20
7.056324492609602
 30
0.0
 11
10.67059855602265
 21
7.1350646500899186
 31
0.0
  0
LINE
  5
1208
  8
0
 62
     0
 10
10.5820158788573
 20
7.2674528420453592
 30
0.0
 11
10.62036717135188
 21
7.3058041345399412
 31
0.0
  0
ENDBLK
  5
120A
  8
0
  0
BLOCK
  8
0
  2
*X47
 70
     1
 10
0.0
 20
0.0
 30
0.0
  3
*X47
  1

  0
LINE
  5
120C
  8
0
 62
     0
 10
11.613511941849429
 20
4.9843858682255533
 30
0.0
 11
11.633196981219511
 21
5.004070907595632
 31
0.0
  0
ENDBLK
  5
120E
  8
0
  0
BLOCK
  8
0
  2
*X48
 70
     1
 10
0.0
 20
0.0
 30
0.0
  3
*X48
  1

  0
LINE
  5
1210
  8
0
 62
     0
 10
11.83712739651461
 20
5.2080013228907296
 30
0.0
 11
11.886339994939689
 21
5.2572139213158131
 31
0.0
  0
LINE
  5
1211
  8
0
 62
     0
 10
11.593826902479361
 20
5.1856716979762716
 30
0.0
 11
11.66391934849589
 21
5.2557641439928027
 31
0.0
  0
ENDBLK
  5
1213
  8
0
  0
BLOCK
  8
0
  2
*X49
 70
     1
 10
0.0
 20
0.0
 30
0.0
  3
*X49
  1

  0
LINE
  5
1215
  8
0
 62
     0
 10
12.23675890449401
 20
4.7237493543869444
 30
0.0
 11
12.268254967485991
 21
4.7552454173789238
 31
0.0
  0
LINE
  5
1216
  8
0
 62
     0
 10
12.00351750582035
 20
4.7114788248340798
 30
0.0
 11
12.047284098365189
 21
4.7552454173789229
 31
0.0
  0
LINE
  5
1217
  8
0
 62
     0
 10
11.78146171428763
 20
4.7103939024221608
 30
0.0
 11
11.8263132292444
 21
4.7552454173789238
 31
0.0
  0
LINE
  5
1218
  8
0
 62
     0
 10
11.57414186310927
 20
4.7240449203645998
 30
0.0
 11
11.633196981219511
 21
4.7831000384748368
 31
0.0
  0
ENDBLK
  5
121A
  8
0
  0
BLOCK
  8
0
  2
*X50
 70
     1
 10
0.0
 20
0.0
 30
0.0
  3
*X50
  1

  0
LINE
  5
121C
  8
0
 62
     0
 10
12.390077419488639
 20
8.1916309061935166
 30
0.0
 11
12.451969001313589
 21
8.2535224880184632
 31
0.0
  0
ENDBLK
  5
121E
  8
0
  0
BLOCK
  8
0
  2
*X51
 70
     1
 10
0.0
 20
0.0
 30
0.0
  3
*X51
  1

  0
LINE
  5
1220
  8
0
 62
     0
 10
11.6681282909933
 20
5.259973086490211
 30
0.0
 11
11.72667473078708
 21
5.318519526283997
 31
0.0
  0
LINE
  5
1221
  8
0
 62
     0
 10
11.44906912227626
 20
5.2618847868939671
 30
0.0
 11
11.50761556207013
 21
5.3204312266878464
 31
0.0
  0
LINE
  5
1222
  8
0
 62
     0
 10
11.230009953559209
 20
5.2637964872977223
 30
0.0
 11
11.28855639335319
 21
5.3223429270916949
 31
0.0
  0
LINE
  5
1223
  8
0
 62
     0
 10
11.010950784842169
 20
5.2657081877014749
 30
0.0
 11
11.06949722463624
 21
5.3242546274955433
 31
0.0
  0
LINE
  5
1224
  8
0
 62
     0
 10
10.96390564263683
 20
5.4396339146169339
 30
0.0
 11
11.02296076074707
 21
5.49868903272717
 31
0.0
  0
LINE
  5
1225
  8
0
 62
     0
 10
10.8912352414147
 20
5.5879343825156003
 30
0.0
 11
10.94978168120922
 21
5.6464808223101199
 31
0.0
  0
LINE
  5
1226
  8
0
 62
     0
 10
10.67217607269794
 20
5.5898460829196361
 30
0.0
 11
10.73949619381793
 21
5.65716620403962
 31
0.0
  0
ENDBLK
  5
1228
  8
0
  0
BLOCK
  8
0
  2
*X52
 70
     1
 10
0.0
 20
0.0
 30
0.0
  3
*X52
  1

  0
LINE
  5
122A
  8
0
 62
     0
 10
11.616055722422679
 20
7.6385800782483511
 30
0.0
 11
11.67563301238952
 21
7.6981573682151909
 31
0.0
  0
LINE
  5
122B
  8
0
 62
     0
 10
11.39313949283787
 20
7.6366347177843421
 30
0.0
 11
11.452716782804711
 21
7.696212007751182
 31
0.0
  0
LINE
  5
122C
  8
0
 62
     0
 10
10.96390564263681
 20
7.4283717367040722
 30
0.0
 11
11.02296076074707
 21
7.4874268548143323
 31
0.0
  0
LINE
  5
122D
  8
0
 62
     0
 10
11.170223263253069
 20
7.6346893573203332
 30
0.0
 11
11.22980055321991
 21
7.694266647287173
 31
0.0
  0
LINE
  5
122E
  8
0
 62
     0
 10
10.846214226128261
 20
7.3106803201955239
 30
0.0
 11
10.905791516095
 21
7.3702576101622643
 31
0.0
  0
LINE
  5
122F
  8
0
 62
     0
 10
10.96390564263673
 20
7.649342605824792
 30
0.0
 11
11.0068843236351
 21
7.6923212868231641
 31
0.0
  0
LINE
  5
1230
  8
0
 62
     0
 10
10.62430417922627
 20
7.3097411424143299
 30
0.0
 11
10.682875286510219
 21
7.3683122496982874
 31
0.0
  0
ENDBLK
  5
1232
  8
0
  0
BLOCK
  8
0
  2
*X53
 70
     1
 10
0.0
 20
0.0
 30
0.0
  3
*X53
  1

  0
LINE
  5
1234
  8
0
 62
     0
 10
12.438639189107411
 20
4.704658769879547
 30
0.0
 11
12.500414475028141
 21
4.7664340558002793
 31
0.0
  0
ENDBLK
  5
1236
  8
0
  0
BLOCK
  8
0
  2
*X54
 70
     1
 10
0.0
 20
0.0
 30
0.0
  3
*X54
  1

  0
ENDBLK
  5
1239
  8
0
  0
BLOCK
  8
0
  2
*X55
 70
     1
 10
0.0
 20
0.0
 30
0.0
  3
*X55
  1

  0
LINE
  5
123B
  8
0
 62
     0
 10
11.89794455570815
 20
7.6994980424130297
 30
0.0
 11
11.94715715413372
 21
7.7487106408386026
 31
0.0
  0
LINE
  5
123C
  8
0
 62
     0
 10
11.67829798346415
 20
7.7008223392898261
 30
0.0
 11
11.726186285012581
 21
7.7487106408382562
 31
0.0
  0
LINE
  5
123D
  8
0
 62
     0
 10
11.593826902479361
 20
7.8373221274258249
 30
0.0
 11
11.633196981219511
 21
7.8766922061659832
 31
0.0
  0
ENDBLK
  5
123F
  8
0
  0
BLOCK
  8
0
  2
*X56
 70
     1
 10
0.0
 20
0.0
 30
0.0
  3
*X56
  1

  0
LINE
  5
1241
  8
0
 62
     0
 10
12.17894219052407
 20
8.2014665463497423
 30
0.0
 11
12.210438253516751
 21
8.2329626093424224
 31
0.0
  0
LINE
  5
1242
  8
0
 62
     0
 10
11.957971321403271
 20
8.2014665463497423
 30
0.0
 11
12.001753309853431
 21
8.2452485347998987
 31
0.0
  0
LINE
  5
1243
  8
0
 62
     0
 10
11.73700045228248
 20
8.2014665463497423
 30
0.0
 11
11.781855402908199
 21
8.2463214969754635
 31
0.0
  0
LINE
  5
1244
  8
0
 62
     0
 10
11.59382690247935
 20
8.0582929965466192
 30
0.0
 11
11.633196981219511
 21
8.0976630752867784
 31
0.0
  0
ENDBLK
  5
1246
  8
0
  0
BLOCK
  8
0
  2
*X57
 70
     1
 10
0.0
 20
0.0
 30
0.0
  3
*X57
  1

  0
LINE
  5
1248
  8
0
 62
     0
 10
12.41666154814865
 20
4.9036519980415827
 30
0.0
 11
12.4796536741329
 21
4.9666441240258328
 31
0.0
  0
LINE
  5
1249
  8
0
 62
     0
 10
12.41666154814865
 20
5.1246228671623779
 30
0.0
 11
12.4796536741329
 21
5.187614993146628
 31
0.0
  0
LINE
  5
124A
  8
0
 62
     0
 10
12.41666154814865
 20
5.3455937362831749
 30
0.0
 11
12.4796536741329
 21
5.408585862267425
 31
0.0
  0
LINE
  5
124B
  8
0
 62
     0
 10
12.41666154814865
 20
5.566564605403971
 30
0.0
 11
12.4796536741329
 21
5.6295567313882211
 31
0.0
  0
LINE
  5
124C
  8
0
 62
     0
 10
12.41666154814865
 20
5.787535474524768
 30
0.0
 11
12.4796536741329
 21
5.8505276005090181
 31
0.0
  0
LINE
  5
124D
  8
0
 62
     0
 10
12.41666154814865
 20
6.0085063436455632
 30
0.0
 11
12.4796536741329
 21
6.0714984696298133
 31
0.0
  0
LINE
  5
124E
  8
0
 62
     0
 10
12.41666154814865
 20
6.2294772127663602
 30
0.0
 11
12.4796536741329
 21
6.2924693387506103
 31
0.0
  0
LINE
  5
124F
  8
0
 62
     0
 10
12.41666154814865
 20
6.4504480818871546
 30
0.0
 11
12.4796536741329
 21
6.5134402078714047
 31
0.0
  0
LINE
  5
1250
  8
0
 62
     0
 10
12.41666154814865
 20
6.6714189510079516
 30
0.0
 11
12.4796536741329
 21
6.7344110769922017
 31
0.0
  0
LINE
  5
1251
  8
0
 62
     0
 10
12.41666154814865
 20
6.8923898201287486
 30
0.0
 11
12.4796536741329
 21
6.9553819461129969
 31
0.0
  0
LINE
  5
1252
  8
0
 62
     0
 10
12.41666154814865
 20
7.1133606892495438
 30
0.0
 11
12.4796536741329
 21
7.1763528152337939
 31
0.0
  0
LINE
  5
1253
  8
0
 62
     0
 10
12.41666154814865
 20
7.3343315583703408
 30
0.0
 11
12.4796536741329
 21
7.3973236843545891
 31
0.0
  0
LINE
  5
1254
  8
0
 62
     0
 10
12.41666154814865
 20
7.555302427491136
 30
0.0
 11
12.4796536741329
 21
7.6182945534753861
 31
0.0
  0
LINE
  5
1255
  8
0
 62
     0
 10
12.41666154814865
 20
7.776273296611933
 30
0.0
 11
12.4796536741329
 21
7.8392654225961822
 31
0.0
  0
LINE
  5
1256
  8
0
 62
     0
 10
12.41666154814865
 20
7.9972441657327291
 30
0.0
 11
12.4796536741329
 21
8.0602362917169792
 31
0.0
  0
ENDBLK
  5
1258
  8
0
  0
BLOCK
  8
0
  2
*X58
 70
     1
 10
0.0
 20
0.0
 30
0.0
  3
*X58
  1

  0
LINE
  5
125A
  8
0
 62
     0
 10
12.32966508433697
 20
4.8166555342299029
 30
0.0
 11
12.41666154814865
 21
4.9036519980415827
 31
0.0
  0
LINE
  5
125B
  8
0
 62
     0
 10
12.09454054721952
 20
4.802501866233249
 30
0.0
 11
12.41666154814865
 21
5.1246228671623779
 31
0.0
  0
LINE
  5
125C
  8
0
 62
     0
 10
12.099732414290379
 20
5.0286646024249073
 30
0.0
 11
12.22790038676019
 21
5.1568325748947164
 31
0.0
  0
LINE
  5
125D
  8
0
 62
     0
 10
11.933390346508331
 20
4.8623225346428596
 30
0.0
 11
12.01705524893605
 21
4.9459874370705768
 31
0.0
  0
LINE
  5
125E
  8
0
 62
     0
 10
11.88516548515652
 20
5.035068542411846
 30
0.0
 11
11.948059524723391
 21
5.0979625819787149
 31
0.0
  0
ENDBLK
  5
1260
  8
0
  0
BLOCK
  8
0
  2
*X59
 70
     1
 10
0.0
 20
0.0
 30
0.0
  3
*X59
  1

  0
ENDBLK
  5
1263
  8
0
  0
BLOCK
  8
0
  2
*X60
 70
     1
 10
0.0
 20
0.0
 30
0.0
  3
*X60
  1

  0
LINE
  5
1265
  8
0
 62
     0
 10
12.220649769514299
 20
7.8012323870983842
 30
0.0
 11
12.41666154814865
 21
7.9972441657327291
 31
0.0
  0
LINE
  5
1266
  8
0
 62
     0
 10
12.03621593582934
 20
7.837769422534218
 30
0.0
 11
12.35400960905497
 21
8.1555630957598488
 31
0.0
  0
LINE
  5
1267
  8
0
 62
     0
 10
11.99412584120345
 20
8.0166501970291222
 30
0.0
 11
12.01705524893605
 21
8.0395796047617214
 31
0.0
  0
LINE
  5
1268
  8
0
 62
     0
 10
12.032645039146731
 20
8.0551693949724026
 30
0.0
 11
12.12832725414474
 21
8.1508516099704131
 31
0.0
  0
LINE
  5
1269
  8
0
 62
     0
 10
11.88516548515652
 20
7.9076898409821927
 30
0.0
 11
11.91762093000955
 21
7.9401452858352251
 31
0.0
  0
ENDBLK
  5
126B
  8
0
  0
BLOCK
  8
0
  2
*X61
 70
     1
 10
0.0
 20
0.0
 30
0.0
  3
*X61
  1

  0
LINE
  5
126D
  8
0
 62
     0
 10
11.96784265051085
 20
7.990367006336526
 30
0.0
 11
11.98786894514444
 21
8.0103933009701151
 31
0.0
  0
LINE
  5
126E
  8
0
 62
     0
 10
11.93331610712435
 20
7.955840462950019
 30
0.0
 11
11.94012535410736
 21
7.9626497099330367
 31
0.0
  0
ENDBLK
  5
1270
  8
0
  0
BLOCK
  8
0
  2
*U62
 70
     1
 10
0.0
 20
0.0
 30
0.0
  3
*U62
  1

  0
TEXT
  5
1272
  8
0
 62
     1
 10
374.21454252096328
 20
-474.54506807928658
 30
0.0
 40
2.5
  1
102,8
  0
TEXT
  5
1273
  8
0
 62
     1
 10
384.21454252096328
 20
-472.87840141261989
 30
0.0
 40
2.5
  1
 0
  0
TEXT
  5
1274
  8
0
 62
     1
 10
384.21454252096328
 20
-476.62840141261989
 30
0.0
 40
2.5
  1
-0,1
  0
ENDBLK
  5
1276
  8
0
  0
BLOCK
  8
0
  2
*U63
 70
     1
 10
0.0
 20
0.0
 30
0.0
  3
*U63
  1

  0
TEXT
  5
1278
  8
0
 62
     1
 10
461.169497889485
 20
-548.45805812035451
 30
0.0
 40
2.5
  1
86,9
 50
90.0
  0
TEXT
  5
1279
  8
0
 62
     1
 10
459.5028312228182
 20
-539.70805812035451
 30
0.0
 40
2.5
  1
 0
 50
90.0
  0
TEXT
  5
127A
  8
0
 62
     1
 10
463.25283122281832
 20
-539.70805812035451
 30
0.0
 40
2.5
  1
-0,1
 50
90.0
  0
ENDBLK
  5
127C
  8
0
  0
BLOCK
  8
0
  2
*U64
 70
     1
 10
0.0
 20
0.0
 30
0.0
  3
*U64
  1

  0
TEXT
  5
127E
  8
0
 62
     1
 10
319.29877935449332
 20
-545.71118142199873
 30
0.0
 40
2.5
  1
\U+22051,3
 50
311.90993069105321
  0
TEXT
  5
127F
  8
0
 62
     1
 10
325.82713461424839
 20
-550.4894621265322
 30
0.0
 40
2.5
  1
+0,2
 50
311.90993069105321
  0
TEXT
  5
1280
  8
0
 62
     1
 10
323.346482000452
 20
-552.71600063299832
 30
0.0
 40
2.5
  1
-0
 50
311.90993069105321
  0
ENDBLK
  5
1282
  8
0
  0
ENDSEC
  0
SECTION
  2
ENTITIES
  0
LINE
  5
44
  8
0
  6
CONTINUOUS
 62
     7
 10
0.4899087499999981
 20
10.16259146341463
 30
0.0
 11
0.4899087499999975
 21
0.5675914634146303
 31
0.0
  0
LINE
  5
45
  8
0
  6
CONTINUOUS
 62
     7
 10
0.4124087499999982
 20
10.240091463414631
 30
0.0
 11
0.4124087499999982
 21
0.4900914634146317
 31
0.0
  0
LINE
  5
46
  8
0
  6
CONTINUOUS
 62
     7
 10
13.287408750000001
 20
0.4900914634146302
 30
0.0
 11
0.4124087499999982
 21
0.4900914634146317
 31
0.0
  0
LINE
  5
47
  8
0
  6
CONTINUOUS
 62
     7
 10
13.287408750000001
 20
0.4900914634146302
 30
0.0
 11
13.287408750000001
 21
10.240091463414631
 31
0.0
  0
LINE
  5
48
  8
0
  6
CONTINUOUS
 62
     7
 10
13.20990875
 20
0.5675914634146303
 30
0.0
 11
0.4899087499999975
 21
0.5675914634146303
 31
0.0
  0
LINE
  5
49
  8
0
  6
CONTINUOUS
 62
     7
 10
13.20990875
 20
0.5675914634146303
 30
0.0
 11
13.20990875
 21
10.16259146341463
 31
0.0
  0
LINE
  5
4A
  8
0
  6
CONTINUOUS
 62
     7
 10
0.4899087499999981
 20
10.16259146341463
 30
0.0
 11
13.20990875
 21
10.16259146341463
 31
0.0
  0
LINE
  5
4B
  8
0
  6
CONTINUOUS
 62
     7
 10
0.4899087499999981
 20
9.6550914634146334
 30
0.0
 11
13.20990875
 21
9.6550914634146334
 31
0.0
  0
LINE
  5
4C
  8
0
  6
CONTINUOUS
 62
     7
 10
1.192408749999998
 20
10.16259146341463
 30
0.0
 11
1.192408749999998
 21
9.6550914634146334
 31
0.0
  0
LINE
  5
4D
  8
0
  6
CONTINUOUS
 62
     7
 10
11.27614520384769
 20
10.16259146341463
 30
0.0
 11
11.27614520384769
 21
9.6550914634146334
 31
0.0
  0
LINE
  5
4E
  8
0
  6
CONTINUOUS
 62
     7
 10
11.978645203847689
 20
10.16259146341463
 30
0.0
 11
11.978645203847689
 21
9.6550914634146334
 31
0.0
  0
LINE
  5
4F
  8
0
  6
CONTINUOUS
 62
     7
 10
6.8174087499999976
 20
10.16259146341463
 30
0.0
 11
6.8174087499999976
 21
9.6550914634146334
 31
0.0
  0
LINE
  5
50
  8
0
  6
CONTINUOUS
 62
     7
 10
7.519908749999999
 20
10.16259146341463
 30
0.0
 11
7.519908749999999
 21
9.6550914634146334
 31
0.0
  0
LINE
  5
51
  8
0
  6
CONTINUOUS
 62
     7
 10
0.4124087499999982
 20
10.240091463414631
 30
0.0
 11
13.287408750000001
 21
10.240091463414631
 31
0.0
  0
TEXT
  5
53
  8
0
 62
     7
 10
3.326877545824853
 20
1.428531936459186
 30
0.0
 40
0.15625
  1
PCB THICKNESS: 1.6mm
 41
0.75
  7
SLDTEXTSTYLE0
  0
INSERT
  5
60
  8
0
  6
CONTINUOUS
 62
     7
  2
SW_NOTE_0
 10
8.3814345723014281
 20
3.021204916400591
 30
0.0
  0
INSERT
  5
66
  8
0
  6
CONTINUOUS
 62
     7
  2
SW_NOTE_1
 10
0.587516359222146
 20
9.8925398629032415
 30
0.0
  0
INSERT
  5
6C
  8
0
  6
CONTINUOUS
 62
     7
  2
SW_NOTE_2
 10
6.9242351930650168
 20
9.8919640086834946
 30
0.0
  0
INSERT
  5
72
  8
0
  6
CONTINUOUS
 62
     7
  2
SW_NOTE_3
 10
11.41131148338858
 20
9.8999661541698583
 30
0.0
  0
TEXT
  5
73
  8
0
 62
     7
 10
1.737168621575174
 20
9.8041413032101463
 30
0.0
 40
0.234375
  1
PCB FOR DIN RAIL MOUNT BOX
 41
0.75
  7
SLDTEXTSTYLE0
  0
TEXT
  5
74
  8
0
 62
     7
 10
8.4873271954000966
 20
9.7978998838212803
 30
0.0
 40
0.234375
  1
DMB-4773-CB
 41
0.75
  7
SLDTEXTSTYLE0
  0
TEXT
  5
75
  8
0
 62
     7
 10
12.10006113091794
 20
9.7942532452506956
 30
0.0
 40
0.234375
  1
8-2-12
 41
0.75
  7
SLDTEXTSTYLE0
  0
LINE
  5
76
  8
0
  6
CONTINUOUS
 62
     7
 10
12.099732358390661
 20
8.0374297000165953
 30
0.0
 11
12.017055260150221
 21
8.0374297000165953
 31
0.0
  0
LINE
  5
77
  8
0
  6
CONTINUOUS
 62
     7
 10
12.017055260150221
 20
7.9193843436866249
 30
0.0
 11
12.099732358390661
 21
7.9193843436866249
 31
0.0
  0
LINE
  5
78
  8
0
  6
CONTINUOUS
 62
     7
 10
12.099732358390661
 20
5.0386871684128787
 30
0.0
 11
12.017055260150221
 21
5.0386871684128787
 31
0.0
  0
LINE
  5
79
  8
0
  6
CONTINUOUS
 62
     7
 10
12.017055260150221
 20
4.9206418120829092
 30
0.0
 11
12.099732358390661
 21
4.9206418120829092
 31
0.0
  0
LINE
  5
7A
  8
0
  6
CONTINUOUS
 62
     7
 10
11.633196947847541
 20
8.0321732274064814
 30
0.0
 11
11.613511868584579
 21
8.0321732274064814
 31
0.0
  0
LINE
  5
7B
  8
0
  6
CONTINUOUS
 62
     7
 10
11.613511868584579
 20
7.9141278710765111
 30
0.0
 11
11.633196947847541
 21
7.9141278710765111
 31
0.0
  0
LINE
  5
7C
  8
0
  6
CONTINUOUS
 62
     7
 10
10.71508617394154
 20
5.7604759502472787
 30
0.0
 11
10.7670552569236
 21
5.7781977721899471
 31
0.0
  0
LINE
  5
7D
  8
0
  6
CONTINUOUS
 62
     7
 10
10.7670552569236
 20
7.1798737399095574
 30
0.0
 11
10.71508617394154
 21
7.197595561852224
 31
0.0
  0
LINE
  5
7E
  8
0
  6
CONTINUOUS
 62
     7
 10
10.94028356577539
 20
7.2998715003518564
 30
0.0
 11
10.7394962119547
 21
7.2998715003518564
 31
0.0
  0
LINE
  5
7F
  8
0
  6
CONTINUOUS
 62
     7
 10
10.7670552569236
 20
7.1738663426408573
 30
0.0
 11
10.94028356577539
 21
7.1738663426408573
 31
0.0
  0
LINE
  5
80
  8
0
  6
CONTINUOUS
 62
     7
 10
11.200126084052449
 20
7.6166115213441046
 30
0.0
 11
11.02296073734831
 21
7.6166115213441046
 31
0.0
  0
LINE
  5
81
  8
0
  6
CONTINUOUS
 62
     7
 10
11.02296073734831
 20
7.5063757814634462
 30
0.0
 11
11.200126084052449
 21
7.5063757814634462
 31
0.0
  0
LINE
  5
82
  8
0
  6
CONTINUOUS
 62
     7
 10
11.200126084052449
 20
5.4512451758409064
 30
0.0
 11
11.02296073734831
 21
5.4512451758409064
 31
0.0
  0
LINE
  5
83
  8
0
  6
CONTINUOUS
 62
     7
 10
11.02296073734831
 20
5.3410094359602471
 30
0.0
 11
11.200126084052449
 21
5.3410094359602471
 31
0.0
  0
LINE
  5
84
  8
0
  6
CONTINUOUS
 62
     7
 10
10.94028356577539
 20
5.784205169458648
 30
0.0
 11
10.7670552569236
 21
5.784205169458648
 31
0.0
  0
LINE
  5
85
  8
0
  6
CONTINUOUS
 62
     7
 10
10.7394962119547
 20
5.6582000117476481
 30
0.0
 11
10.747370214326891
 21
5.6582000117476481
 31
0.0
  0
LINE
  5
86
  8
0
  6
CONTINUOUS
 62
     7
 10
10.780834761074919
 20
5.6582000117476481
 30
0.0
 11
10.94028356577539
 21
5.6582000117476481
 31
0.0
  0
LINE
  5
87
  8
0
  6
CONTINUOUS
 62
     7
 10
11.633196947847541
 20
5.0425919766375351
 30
0.0
 11
11.613511868584579
 21
5.0425919766375351
 31
0.0
  0
LINE
  5
88
  8
0
  6
CONTINUOUS
 62
     7
 10
11.613511868584579
 20
4.9245466203075638
 30
0.0
 11
11.633196947847541
 21
4.9245466203075638
 31
0.0
  0
LINE
  5
89
  8
0
  6
CONTINUOUS
 62
     7
 10
12.81429935698505
 20
7.4746867608710481
 30
0.0
 11
12.65681901621139
 21
7.4746867608710481
 31
0.0
  0
LINE
  5
8A
  8
0
  6
CONTINUOUS
 62
     7
 10
12.65681901621139
 20
7.332912185329711
 30
0.0
 11
12.66863009310215
 21
7.332912185329711
 31
0.0
  0
LINE
  5
8B
  8
0
  6
CONTINUOUS
 62
     7
 10
12.66863009310215
 20
7.2372443838256508
 30
0.0
 11
12.833984436248
 21
7.2372443838256508
 31
0.0
  0
LINE
  5
8C
  8
0
  6
CONTINUOUS
 62
     7
 10
12.66863009310215
 20
7.321347945587461
 30
0.0
 11
12.833984436248
 21
7.321347945587461
 31
0.0
  0
LINE
  5
8D
  8
0
  6
CONTINUOUS
 62
     7
 10
12.66863009310215
 20
7.321347945587461
 30
0.0
 11
12.66863009310215
 21
7.2372443838256508
 31
0.0
  0
LINE
  5
8E
  8
0
  6
CONTINUOUS
 62
     7
 10
12.833984436248
 20
7.2372443838256508
 30
0.0
 11
12.833984436248
 21
7.321347945587461
 31
0.0
  0
LINE
  5
8F
  8
0
  6
CONTINUOUS
 62
     7
 10
12.66863009310215
 20
7.4820458225252082
 30
0.0
 11
12.66863009310215
 21
7.4746867608710481
 31
0.0
  0
LINE
  5
90
  8
0
  6
CONTINUOUS
 62
     7
 10
12.66863009310215
 20
7.332912185329711
 30
0.0
 11
12.66863009310215
 21
7.321347945587461
 31
0.0
  0
LINE
  5
91
  8
0
  6
CONTINUOUS
 62
     7
 10
12.833984436248
 20
7.321347945587461
 30
0.0
 11
12.833984436248
 21
7.4820458225252082
 31
0.0
  0
LINE
  5
92
  8
0
  6
CONTINUOUS
 62
     7
 10
12.73949611445183
 20
7.2096103563896259
 30
0.0
 11
12.73949611445183
 21
7.2088594317310388
 31
0.0
  0
LINE
  5
93
  8
0
  6
CONTINUOUS
 62
     7
 10
12.66863009310215
 20
7.2096103563896259
 30
0.0
 11
12.73949611445183
 21
7.2096103563896259
 31
0.0
  0
LINE
  5
94
  8
0
  6
CONTINUOUS
 62
     7
 10
12.66863009310215
 20
7.2096103563896259
 30
0.0
 11
12.66863009310215
 21
7.229735137239774
 31
0.0
  0
LINE
  5
95
  8
0
  6
CONTINUOUS
 62
     7
 10
12.833984436248
 20
7.2088594317310388
 30
0.0
 11
12.833984436248
 21
7.229735137239774
 31
0.0
  0
LINE
  5
96
  8
0
  6
CONTINUOUS
 62
     7
 10
12.66863009310215
 20
7.2372443838256508
 30
0.0
 11
12.66863009310215
 21
7.229735137239774
 31
0.0
  0
LINE
  5
97
  8
0
  6
CONTINUOUS
 62
     7
 10
12.833984436248
 20
7.229735137239774
 30
0.0
 11
12.833984436248
 21
7.2372443838256508
 31
0.0
  0
LINE
  5
98
  8
0
  6
CONTINUOUS
 62
     7
 10
12.77393451661646
 20
7.1474337946585731
 30
0.0
 11
12.833984436248
 21
7.1825770686804731
 31
0.0
  0
LINE
  5
99
  8
0
  6
CONTINUOUS
 62
     7
 10
12.73949611445183
 20
7.2088594317310388
 30
0.0
 11
12.73949611445183
 21
7.1474337946585731
 31
0.0
  0
LINE
  5
9A
  8
0
  6
CONTINUOUS
 62
     7
 10
12.833984436248
 20
7.1825770686804731
 30
0.0
 11
12.833984436248
 21
7.2088594317310388
 31
0.0
  0
LINE
  5
9B
  8
0
  6
CONTINUOUS
 62
     7
 10
12.73949611445183
 20
7.1387230686189582
 30
0.0
 11
12.759181193714779
 21
7.1387230686189582
 31
0.0
  0
ARC
  5
9C
  8
0
  6
CONTINUOUS
 62
     7
 10
13.460044026648101
 20
5.9685235932471494
 30
0.0
 40
1.3640291502558799
 50
120.1988160653701
 51
120.9184861862099
  0
LINE
  5
9D
  8
0
  6
CONTINUOUS
 62
     7
 10
12.73949611445183
 20
7.1387230686189582
 30
0.0
 11
12.73949611445183
 21
7.1474337946585731
 31
0.0
  0
LINE
  5
9E
  8
0
  6
CONTINUOUS
 62
     7
 10
12.66863009310215
 20
7.2057055481649721
 30
0.0
 11
12.66863009310215
 21
7.2096103563896259
 31
0.0
  0
LINE
  5
9F
  8
0
  6
CONTINUOUS
 62
     7
 10
12.65681901621139
 20
7.2057055481649721
 30
0.0
 11
12.66863009310215
 21
7.2057055481649721
 31
0.0
  0
LINE
  5
A0
  8
0
  6
CONTINUOUS
 62
     7
 10
12.66863009310215
 20
7.2569186098806453
 30
0.0
 11
12.65681901621139
 21
7.2569186098806453
 31
0.0
  0
LINE
  5
A1
  8
0
  6
CONTINUOUS
 62
     7
 10
12.688315025700129
 20
8.4576471389622156
 30
0.0
 11
12.62925993457625
 21
8.4576471389622156
 31
0.0
  0
ARC
  5
A2
  8
0
  6
CONTINUOUS
 62
     7
 10
12.68831509145574
 20
8.3789199950541065
 30
0.0
 40
0.0787401574803131
 50
0.0000000001272381
 51
90.000000000001293
  0
LINE
  5
A3
  8
0
  6
CONTINUOUS
 62
     7
 10
12.76705534275194
 20
8.2512930427823434
 30
0.0
 11
12.76705534275194
 21
8.3789502347422342
 31
0.0
  0
LINE
  5
A4
  8
0
  6
CONTINUOUS
 62
     7
 10
12.62925993457625
 20
8.2536960016898231
 30
0.0
 11
12.62925993457625
 21
8.4576471389622156
 31
0.0
  0
LINE
  5
A5
  8
0
  6
CONTINUOUS
 62
     7
 10
12.65681901621139
 20
7.304076678439948
 30
0.0
 11
12.66863009310215
 21
7.304076678439948
 31
0.0
  0
POLYLINE
  5
A6
  8
0
  6
CONTINUOUS
 62
     7
 66
     1
 10
0.0
 20
0.0
 30
0.0
 70
   128
  0
VERTEX
  5
116F
  8
0
  6
CONTINUOUS
 62
     7
 10
11.98359071340219
 20
8.0123488164197703
 30
0.0
  0
VERTEX
  5
1170
  8
0
  6
CONTINUOUS
 62
     7
 10
11.985395425887329
 20
8.0120484465563351
 30
0.0
  0
VERTEX
  5
1171
  8
0
  6
CONTINUOUS
 62
     7
 10
11.9870024339897
 20
8.0111473369660295
 30
0.0
  0
VERTEX
  5
1172
  8
0
  6
CONTINUOUS
 62
     7
 10
11.98918246213916
 20
8.0088945629902657
 30
0.0
  0
VERTEX
  5
1173
  8
0
  6
CONTINUOUS
 62
     7
 10
11.99172783273483
 20
8.0037882753118712
 30
0.0
  0
VERTEX
  5
1174
  8
0
  6
CONTINUOUS
 62
     7
 10
11.994451107941989
 20
7.9868173780277907
 30
0.0
  0
VERTEX
  5
1175
  8
0
  6
CONTINUOUS
 62
     7
 10
11.994574599848731
 20
7.9730003643097787
 30
0.0
  0
VERTEX
  5
1176
  8
0
  6
CONTINUOUS
 62
     7
 10
11.9939423271528
 20
7.9635387136115749
 30
0.0
  0
VERTEX
  5
1177
  8
0
  6
CONTINUOUS
 62
     7
 10
11.99199886960379
 20
7.9537766930499361
 30
0.0
  0
VERTEX
  5
1178
  8
0
  6
CONTINUOUS
 62
     7
 10
11.9901152513635
 20
7.9494213300301286
 30
0.0
  0
VERTEX
  5
1179
  8
0
  6
CONTINUOUS
 62
     7
 10
11.987795744825309
 20
7.946267446464061
 30
0.0
  0
VERTEX
  5
117A
  8
0
  6
CONTINUOUS
 62
     7
 10
11.98598193911188
 20
7.9450659670103203
 30
0.0
  0
VERTEX
  5
117B
  8
0
  6
CONTINUOUS
 62
     7
 10
11.984222546103201
 20
7.9444652272834499
 30
0.0
  0
VERTEX
  5
117C
  8
0
  6
CONTINUOUS
 62
     7
 10
11.98359071340219
 20
7.9444652272834499
 30
0.0
  0
SEQEND
  5
117D
  8
0
  6
CONTINUOUS
 62
     7
  0
LINE
  5
A7
  8
0
  6
CONTINUOUS
 62
     7
 10
11.99540164362798
 20
7.9401098642636434
 30
0.0
 11
11.99540164362798
 21
8.0167041794395786
 31
0.0
  0
LINE
  5
A8
  8
0
  6
CONTINUOUS
 62
     7
 10
11.932409624650489
 20
7.9941764396819499
 30
0.0
 11
11.932409624650489
 21
8.0167041794395786
 31
0.0
  0
POLYLINE
  5
A9
  8
0
  6
CONTINUOUS
 62
     7
 66
     1
 10
0.0
 20
0.0
 30
0.0
 70
   128
  0
VERTEX
  5
117E
  8
0
  6
CONTINUOUS
 62
     7
 10
11.93264868855548
 20
7.9941764396819499
 30
0.0
  0
VERTEX
  5
117F
  8
0
  6
CONTINUOUS
 62
     7
 10
11.935044460879309
 20
8.0073927136730916
 30
0.0
  0
VERTEX
  5
1180
  8
0
  6
CONTINUOUS
 62
     7
 10
11.936143421517359
 20
8.0094953027171378
 30
0.0
  0
VERTEX
  5
1181
  8
0
  6
CONTINUOUS
 62
     7
 10
11.93770584346812
 20
8.0112975218977471
 30
0.0
  0
VERTEX
  5
1182
  8
0
  6
CONTINUOUS
 62
     7
 10
11.93888385652628
 20
8.0120484465563351
 30
0.0
  0
VERTEX
  5
1183
  8
0
  6
CONTINUOUS
 62
     7
 10
11.94028362702268
 20
8.0123488164197703
 30
0.0
  0
SEQEND
  5
1184
  8
0
  6
CONTINUOUS
 62
     7
  0
LINE
  5
AA
  8
0
  6
CONTINUOUS
 62
     7
 10
11.93264868855548
 20
7.9941764396819499
 30
0.0
 11
11.932409624650489
 21
7.9941764396819499
 31
0.0
  0
LINE
  5
AB
  8
0
  6
CONTINUOUS
 62
     7
 10
11.932409624650489
 20
7.9401098642636434
 30
0.0
 11
11.932409624650489
 21
7.9626376040212712
 31
0.0
  0
LINE
  5
AC
  8
0
  6
CONTINUOUS
 62
     7
 10
11.932409624650489
 20
7.9626376040212712
 30
0.0
 11
11.93264868855548
 21
7.9626376040212712
 31
0.0
  0
POLYLINE
  5
AD
  8
0
  6
CONTINUOUS
 62
     7
 66
     1
 10
0.0
 20
0.0
 30
0.0
 70
   128
  0
VERTEX
  5
1185
  8
0
  6
CONTINUOUS
 62
     7
 10
11.94028362702268
 20
7.9444652272834499
 30
0.0
  0
VERTEX
  5
1186
  8
0
  6
CONTINUOUS
 62
     7
 10
11.939073934330491
 20
7.944765597146886
 30
0.0
  0
VERTEX
  5
1187
  8
0
  6
CONTINUOUS
 62
     7
 10
11.937775949324919
 20
7.9455165218054731
 30
0.0
  0
VERTEX
  5
1188
  8
0
  6
CONTINUOUS
 62
     7
 10
11.93623054051095
 20
7.9471685560543657
 30
0.0
  0
VERTEX
  5
1189
  8
0
  6
CONTINUOUS
 62
     7
 10
11.93437229531089
 20
7.9512235492107388
 30
0.0
  0
VERTEX
  5
118A
  8
0
  6
CONTINUOUS
 62
     7
 10
11.93264868855548
 20
7.9626376040212712
 30
0.0
  0
SEQEND
  5
118B
  8
0
  6
CONTINUOUS
 62
     7
  0
POLYLINE
  5
AE
  8
0
  6
CONTINUOUS
 62
     7
 66
     1
 10
0.0
 20
0.0
 30
0.0
 70
   128
  0
VERTEX
  5
118C
  8
0
  6
CONTINUOUS
 62
     7
 10
11.89697654064317
 20
7.9401098642636434
 30
0.0
  0
VERTEX
  5
118D
  8
0
  6
CONTINUOUS
 62
     7
 10
11.89802094191149
 20
7.9461172615323443
 30
0.0
  0
VERTEX
  5
118E
  8
0
  6
CONTINUOUS
 62
     7
 10
11.89904979669274
 20
7.9480696656446712
 30
0.0
  0
VERTEX
  5
118F
  8
0
  6
CONTINUOUS
 62
     7
 10
11.89959011045099
 20
7.9488205903032583
 30
0.0
  0
VERTEX
  5
1190
  8
0
  6
CONTINUOUS
 62
     7
 10
11.90027576919687
 20
7.949271145098411
 30
0.0
  0
VERTEX
  5
1191
  8
0
  6
CONTINUOUS
 62
     7
 10
11.900791149909811
 20
7.9494213300301286
 30
0.0
  0
VERTEX
  5
1192
  8
0
  6
CONTINUOUS
 62
     7
 10
11.901322517104751
 20
7.949271145098411
 30
0.0
  0
VERTEX
  5
1193
  8
0
  6
CONTINUOUS
 62
     7
 10
11.901895977146751
 20
7.9489707752349759
 30
0.0
  0
VERTEX
  5
1194
  8
0
  6
CONTINUOUS
 62
     7
 10
11.902634581947661
 20
7.9483700355081073
 30
0.0
  0
VERTEX
  5
1195
  8
0
  6
CONTINUOUS
 62
     7
 10
11.90367531659167
 20
7.9464176313957777
 30
0.0
  0
VERTEX
  5
1196
  8
0
  6
CONTINUOUS
 62
     7
 10
11.904772810580001
 20
7.9417618985125351
 30
0.0
  0
VERTEX
  5
1197
  8
0
  6
CONTINUOUS
 62
     7
 10
11.90485054301536
 20
7.9401098642636434
 30
0.0
  0
SEQEND
  5
1198
  8
0
  6
CONTINUOUS
 62
     7
  0
LINE
  5
AF
  8
0
  6
CONTINUOUS
 62
     7
 10
11.89697654064317
 20
8.0167041794395786
 30
0.0
 11
11.89697654064317
 21
7.9401098642636434
 31
0.0
  0
POLYLINE
  5
B0
  8
0
  6
CONTINUOUS
 62
     7
 66
     1
 10
0.0
 20
0.0
 30
0.0
 70
   128
  0
VERTEX
  5
1199
  8
0
  6
CONTINUOUS
 62
     7
 10
11.90485054301536
 20
8.0167041794395786
 30
0.0
  0
VERTEX
  5
119A
  8
0
  6
CONTINUOUS
 62
     7
 10
11.90380599508206
 20
8.0106967821708785
 30
0.0
  0
VERTEX
  5
119B
  8
0
  6
CONTINUOUS
 62
     7
 10
11.90277728696579
 20
8.0085941931268323
 30
0.0
  0
VERTEX
  5
119C
  8
0
  6
CONTINUOUS
 62
     7
 10
11.90223682654257
 20
8.0079934533999602
 30
0.0
  0
VERTEX
  5
119D
  8
0
  6
CONTINUOUS
 62
     7
 10
11.90155116779669
 20
8.0075428986048092
 30
0.0
  0
VERTEX
  5
119E
  8
0
  6
CONTINUOUS
 62
     7
 10
11.901035933748719
 20
8.0073927136730916
 30
0.0
  0
VERTEX
  5
119F
  8
0
  6
CONTINUOUS
 62
     7
 10
11.90050456655378
 20
8.0075428986048092
 30
0.0
  0
VERTEX
  5
11A0
  8
0
  6
CONTINUOUS
 62
     7
 10
11.899931106511779
 20
8.0076930835365268
 30
0.0
  0
VERTEX
  5
11A1
  8
0
  6
CONTINUOUS
 62
     7
 10
11.89919250171087
 20
8.0084440081951147
 30
0.0
  0
VERTEX
  5
11A2
  8
0
  6
CONTINUOUS
 62
     7
 10
11.89815162040188
 20
8.0102462273757258
 30
0.0
  0
VERTEX
  5
11A3
  8
0
  6
CONTINUOUS
 62
     7
 10
11.897054273078529
 20
8.0150521451906851
 30
0.0
  0
VERTEX
  5
11A4
  8
0
  6
CONTINUOUS
 62
     7
 10
11.89697654064317
 20
8.0167041794395786
 30
0.0
  0
SEQEND
  5
11A5
  8
0
  6
CONTINUOUS
 62
     7
  0
LINE
  5
B1
  8
0
  6
CONTINUOUS
 62
     7
 10
11.90485054301536
 20
7.9401098642636434
 30
0.0
 11
11.90485054301536
 21
8.0167041794395786
 31
0.0
  0
POLYLINE
  5
B2
  8
0
  6
CONTINUOUS
 62
     7
 66
     1
 10
0.0
 20
0.0
 30
0.0
 70
   128
  0
VERTEX
  5
11A6
  8
0
  6
CONTINUOUS
 62
     7
 10
11.999338718146561
 20
7.9401098642636434
 30
0.0
  0
VERTEX
  5
11A7
  8
0
  6
CONTINUOUS
 62
     7
 10
12.00362485529941
 20
7.9797586862370684
 30
0.0
  0
VERTEX
  5
11A8
  8
0
  6
CONTINUOUS
 62
     7
 10
11.999338718146561
 20
8.0167041794395786
 30
0.0
  0
SEQEND
  5
11A9
  8
0
  6
CONTINUOUS
 62
     7
  0
LINE
  5
B3
  8
0
  6
CONTINUOUS
 62
     7
 10
11.90485054301536
 20
8.0167041794395786
 30
0.0
 11
11.999338718146561
 21
8.0167041794395786
 31
0.0
  0
LINE
  5
B4
  8
0
  6
CONTINUOUS
 62
     7
 10
11.999338718146561
 20
7.9401098642636434
 30
0.0
 11
11.90485054301536
 21
7.9401098642636434
 31
0.0
  0
LINE
  5
B5
  8
0
  6
CONTINUOUS
 62
     7
 10
11.88516546375241
 20
7.9401098642636434
 30
0.0
 11
11.88516546375241
 21
8.0167041794395786
 31
0.0
  0
LINE
  5
B6
  8
0
  6
CONTINUOUS
 62
     7
 10
11.88516546375241
 20
8.0167041794395786
 30
0.0
 11
11.89697654064317
 21
8.0167041794395786
 31
0.0
  0
LINE
  5
B7
  8
0
  6
CONTINUOUS
 62
     7
 10
11.89697654064317
 20
7.9401098642636434
 30
0.0
 11
11.88516546375241
 21
7.9401098642636434
 31
0.0
  0
LINE
  5
B8
  8
0
  6
CONTINUOUS
 62
     7
 10
11.94028362702268
 20
8.0123488164197703
 30
0.0
 11
11.98359071340219
 21
8.0123488164197703
 31
0.0
  0
LINE
  5
B9
  8
0
  6
CONTINUOUS
 62
     7
 10
11.98359071340219
 20
7.9444652272834499
 30
0.0
 11
11.94028362702268
 21
7.9444652272834499
 31
0.0
  0
LINE
  5
BA
  8
0
  6
CONTINUOUS
 62
     7
 10
12.11744890039432
 20
8.155625241278285
 30
0.0
 11
12.126086733942669
 21
8.1508193234633222
 31
0.0
  0
LINE
  5
BB
  8
0
  6
CONTINUOUS
 62
     7
 10
12.335173051893021
 20
8.1508193234633222
 30
0.0
 11
12.33792140681045
 21
8.155625241278285
 31
0.0
  0
LINE
  5
BC
  8
0
  6
CONTINUOUS
 62
     7
 10
12.41666157719728
 20
8.155625241278285
 30
0.0
 11
12.41666157719728
 21
7.801188802424937
 31
0.0
  0
LINE
  5
BD
  8
0
  6
CONTINUOUS
 62
     7
 10
12.41666157719728
 20
7.801188802424937
 30
0.0
 11
12.18044106603679
 21
7.801188802424937
 31
0.0
  0
LINE
  5
BE
  8
0
  6
CONTINUOUS
 62
     7
 10
11.88516546375241
 20
8.0808331452829592
 30
0.0
 11
12.08792142816487
 21
8.143760631672599
 31
0.0
  0
LINE
  5
BF
  8
0
  6
CONTINUOUS
 62
     7
 10
12.08792142816487
 20
8.143760631672599
 30
0.0
 11
12.08792142816487
 21
8.155625241278285
 31
0.0
  0
LINE
  5
C0
  8
0
  6
CONTINUOUS
 62
     7
 10
12.33792140681045
 20
8.155625241278285
 30
0.0
 11
12.41666157719728
 21
8.155625241278285
 31
0.0
  0
LINE
  5
C1
  8
0
  6
CONTINUOUS
 62
     7
 10
12.08792142816487
 20
8.155625241278285
 30
0.0
 11
12.11744890039432
 21
8.155625241278285
 31
0.0
  0
LINE
  5
C2
  8
0
  6
CONTINUOUS
 62
     7
 10
12.126086733942669
 20
8.1508193234633222
 30
0.0
 11
12.335173051893021
 21
8.1508193234633222
 31
0.0
  0
LINE
  5
C3
  8
0
  6
CONTINUOUS
 62
     7
 10
12.18044106603679
 20
7.801188802424937
 30
0.0
 11
11.88516546375241
 21
7.8759808984202611
 31
0.0
  0
LINE
  5
C4
  8
0
  6
CONTINUOUS
 62
     7
 10
11.88516546375241
 20
8.0167041794395786
 30
0.0
 11
11.88516546375241
 21
8.0808331452829592
 31
0.0
  0
LINE
  5
C5
  8
0
  6
CONTINUOUS
 62
     7
 10
11.88516546375241
 20
7.8759808984202611
 30
0.0
 11
11.88516546375241
 21
7.9401098642636434
 31
0.0
  0
LINE
  5
C6
  8
0
  6
CONTINUOUS
 62
     7
 10
12.017055260150221
 20
8.0551515219592602
 30
0.0
 11
12.017055260150221
 21
7.9016625217439582
 31
0.0
  0
LINE
  5
C7
  8
0
  6
CONTINUOUS
 62
     7
 10
12.099732358390661
 20
7.9016625217439582
 30
0.0
 11
12.099732358390661
 21
8.0551515219592602
 31
0.0
  0
LINE
  5
C8
  8
0
  6
CONTINUOUS
 62
     7
 10
12.017055260150221
 20
7.9016625217439582
 30
0.0
 11
12.099732358390661
 21
7.9016625217439582
 31
0.0
  0
LINE
  5
C9
  8
0
  6
CONTINUOUS
 62
     7
 10
12.099732358390661
 20
8.0551515219592602
 30
0.0
 11
12.017055260150221
 21
8.0551515219592602
 31
0.0
  0
LINE
  5
CA
  8
0
  6
CONTINUOUS
 62
     7
 10
11.96784270865782
 20
7.9626376040212712
 30
0.0
 11
11.96784270865782
 21
7.9941764396819499
 31
0.0
  0
LINE
  5
CB
  8
0
  6
CONTINUOUS
 62
     7
 10
11.93264868855548
 20
7.9626376040212712
 30
0.0
 11
11.96784270865782
 21
7.9626376040212712
 31
0.0
  0
LINE
  5
CC
  8
0
  6
CONTINUOUS
 62
     7
 10
11.96784270865782
 20
7.9941764396819499
 30
0.0
 11
11.93264868855548
 21
7.9941764396819499
 31
0.0
  0
LINE
  5
CD
  8
0
  6
CONTINUOUS
 62
     7
 10
12.47965374283975
 20
7.9941764396819499
 30
0.0
 11
12.554456838708001
 21
7.9941764396819499
 31
0.0
  0
LINE
  5
CE
  8
0
  6
CONTINUOUS
 62
     7
 10
12.554456838708001
 20
7.9941764396819499
 30
0.0
 11
12.554456838708001
 21
7.9626376040212712
 31
0.0
  0
LINE
  5
CF
  8
0
  6
CONTINUOUS
 62
     7
 10
12.47965374283975
 20
7.9626376040212712
 30
0.0
 11
12.554456838708001
 21
7.9626376040212712
 31
0.0
  0
LINE
  5
D0
  8
0
  6
CONTINUOUS
 62
     7
 10
12.11744890039432
 20
8.155625241278285
 30
0.0
 11
12.33792140681045
 21
8.155625241278285
 31
0.0
  0
POLYLINE
  5
D1
  8
0
  6
CONTINUOUS
 62
     7
 66
     1
 10
0.0
 20
0.0
 30
0.0
 70
   128
  0
VERTEX
  5
11AA
  8
0
  6
CONTINUOUS
 62
     7
 10
11.99540164362798
 20
4.9631441477589666
 30
0.0
  0
VERTEX
  5
11AB
  8
0
  6
CONTINUOUS
 62
     7
 10
11.99442822820629
 20
4.9493271340409546
 30
0.0
  0
VERTEX
  5
11AC
  8
0
  6
CONTINUOUS
 62
     7
 10
11.99265666200491
 20
4.9430193669088203
 30
0.0
  0
VERTEX
  5
11AD
  8
0
  6
CONTINUOUS
 62
     7
 10
11.98992341357963
 20
4.9383636340255759
 30
0.0
  0
VERTEX
  5
11AE
  8
0
  6
CONTINUOUS
 62
     7
 10
11.987612266944859
 20
4.9362610449815314
 30
0.0
  0
VERTEX
  5
11AF
  8
0
  6
CONTINUOUS
 62
     7
 10
11.98526078744268
 20
4.9352097504595092
 30
0.0
  0
VERTEX
  5
11B0
  8
0
  6
CONTINUOUS
 62
     7
 10
11.98359071340219
 20
4.9350595655277907
 30
0.0
  0
SEQEND
  5
11B1
  8
0
  6
CONTINUOUS
 62
     7
  0
LINE
  5
D2
  8
0
  6
CONTINUOUS
 62
     7
 10
11.99540164362798
 20
4.9961848327368212
 30
0.0
 11
11.99540164362798
 21
5.0277236683975
 31
0.0
  0
LINE
  5
D3
  8
0
  6
CONTINUOUS
 62
     7
 10
11.99540164362798
 20
4.931605312098287
 30
0.0
 11
11.99540164362798
 21
4.9631441477589666
 31
0.0
  0
POLYLINE
  5
D4
  8
0
  6
CONTINUOUS
 62
     7
 66
     1
 10
0.0
 20
0.0
 30
0.0
 70
   128
  0
VERTEX
  5
11B2
  8
0
  6
CONTINUOUS
 62
     7
 10
11.98359071340219
 20
5.0242694149679981
 30
0.0
  0
VERTEX
  5
11B3
  8
0
  6
CONTINUOUS
 62
     7
 10
11.98627145576736
 20
5.0238188601728462
 30
0.0
  0
VERTEX
  5
11B4
  8
0
  6
CONTINUOUS
 62
     7
 10
11.988579375772741
 20
5.0223170108556703
 30
0.0
  0
VERTEX
  5
11B5
  8
0
  6
CONTINUOUS
 62
     7
 10
11.991215531986301
 20
5.0191631272896009
 30
0.0
  0
VERTEX
  5
11B6
  8
0
  6
CONTINUOUS
 62
     7
 10
11.99385168819987
 20
5.0127051752257481
 30
0.0
  0
VERTEX
  5
11B7
  8
0
  6
CONTINUOUS
 62
     7
 10
11.99540164362798
 20
4.9961848327368212
 30
0.0
  0
SEQEND
  5
11B8
  8
0
  6
CONTINUOUS
 62
     7
  0
LINE
  5
D5
  8
0
  6
CONTINUOUS
 62
     7
 10
11.932409624650489
 20
4.931605312098287
 30
0.0
 11
11.932409624650489
 21
4.9511293532215648
 31
0.0
  0
POLYLINE
  5
D6
  8
0
  6
CONTINUOUS
 62
     7
 66
     1
 10
0.0
 20
0.0
 30
0.0
 70
   128
  0
VERTEX
  5
11B9
  8
0
  6
CONTINUOUS
 62
     7
 10
11.94028362702268
 20
4.9350595655277907
 30
0.0
  0
VERTEX
  5
11BA
  8
0
  6
CONTINUOUS
 62
     7
 10
11.9384828744918
 20
4.935359935391225
 30
0.0
  0
VERTEX
  5
11BB
  8
0
  6
CONTINUOUS
 62
     7
 10
11.936933505723569
 20
4.9364112299132481
 30
0.0
  0
VERTEX
  5
11BC
  8
0
  6
CONTINUOUS
 62
     7
 10
11.93512571327401
 20
4.9385138189572944
 30
0.0
  0
VERTEX
  5
11BD
  8
0
  6
CONTINUOUS
 62
     7
 10
11.933309560921019
 20
4.9430193669088203
 30
0.0
  0
VERTEX
  5
11BE
  8
0
  6
CONTINUOUS
 62
     7
 10
11.932409624650489
 20
4.9511293532215648
 30
0.0
  0
SEQEND
  5
11BF
  8
0
  6
CONTINUOUS
 62
     7
  0
POLYLINE
  5
D7
  8
0
  6
CONTINUOUS
 62
     7
 66
     1
 10
0.0
 20
0.0
 30
0.0
 70
   128
  0
VERTEX
  5
11C0
  8
0
  6
CONTINUOUS
 62
     7
 10
11.932409624650489
 20
5.0081996272742231
 30
0.0
  0
VERTEX
  5
11C1
  8
0
  6
CONTINUOUS
 62
     7
 10
11.933555958074621
 20
5.017210723177274
 30
0.0
  0
VERTEX
  5
11C2
  8
0
  6
CONTINUOUS
 62
     7
 10
11.93468791833145
 20
5.0200642368799082
 30
0.0
  0
VERTEX
  5
11C3
  8
0
  6
CONTINUOUS
 62
     7
 10
11.93645537791361
 20
5.0226173807191046
 30
0.0
  0
VERTEX
  5
11C4
  8
0
  6
CONTINUOUS
 62
     7
 10
11.937996826773331
 20
5.0236686752411268
 30
0.0
  0
VERTEX
  5
11C5
  8
0
  6
CONTINUOUS
 62
     7
 10
11.939552648800341
 20
5.0242694149679981
 30
0.0
  0
VERTEX
  5
11C6
  8
0
  6
CONTINUOUS
 62
     7
 10
11.94028362702268
 20
5.0242694149679981
 30
0.0
  0
SEQEND
  5
11C7
  8
0
  6
CONTINUOUS
 62
     7
  0
LINE
  5
D8
  8
0
  6
CONTINUOUS
 62
     7
 10
11.932409624650489
 20
5.0081996272742231
 30
0.0
 11
11.932409624650489
 21
5.0277236683975
 31
0.0
  0
POLYLINE
  5
D9
  8
0
  6
CONTINUOUS
 62
     7
 66
     1
 10
0.0
 20
0.0
 30
0.0
 70
   128
  0
VERTEX
  5
11C8
  8
0
  6
CONTINUOUS
 62
     7
 10
11.89697654064317
 20
4.931605312098287
 30
0.0
  0
VERTEX
  5
11C9
  8
0
  6
CONTINUOUS
 62
     7
 10
11.89762025320695
 20
4.935359935391225
 30
0.0
  0
VERTEX
  5
11CA
  8
0
  6
CONTINUOUS
 62
     7
 10
11.898407844108631
 20
4.9368617847084
 30
0.0
  0
VERTEX
  5
11CB
  8
0
  6
CONTINUOUS
 62
     7
 10
11.89935808646468
 20
4.9379130792304231
 30
0.0
  0
VERTEX
  5
11CC
  8
0
  6
CONTINUOUS
 62
     7
 10
11.90011370440239
 20
4.9383636340255759
 30
0.0
  0
VERTEX
  5
11CD
  8
0
  6
CONTINUOUS
 62
     7
 10
11.90084028267556
 20
4.9385138189572944
 30
0.0
  0
VERTEX
  5
11CE
  8
0
  6
CONTINUOUS
 62
     7
 10
11.90157683416686
 20
4.9385138189572944
 30
0.0
  0
VERTEX
  5
11CF
  8
0
  6
CONTINUOUS
 62
     7
 10
11.902369411677601
 20
4.9380632641621407
 30
0.0
  0
VERTEX
  5
11D0
  8
0
  6
CONTINUOUS
 62
     7
 10
11.903300440922269
 20
4.937162154571836
 30
0.0
  0
VERTEX
  5
11D1
  8
0
  6
CONTINUOUS
 62
     7
 10
11.904322109119869
 20
4.9350595655277907
 30
0.0
  0
VERTEX
  5
11D2
  8
0
  6
CONTINUOUS
 62
     7
 10
11.90485054301536
 20
4.931605312098287
 30
0.0
  0
SEQEND
  5
11D3
  8
0
  6
CONTINUOUS
 62
     7
  0
LINE
  5
DA
  8
0
  6
CONTINUOUS
 62
     7
 10
11.89697654064317
 20
5.0277236683975
 30
0.0
 11
11.89697654064317
 21
4.931605312098287
 31
0.0
  0
POLYLINE
  5
DB
  8
0
  6
CONTINUOUS
 62
     7
 66
     1
 10
0.0
 20
0.0
 30
0.0
 70
   128
  0
VERTEX
  5
11D4
  8
0
  6
CONTINUOUS
 62
     7
 10
11.90485054301536
 20
5.0277236683975
 30
0.0
  0
VERTEX
  5
11D5
  8
0
  6
CONTINUOUS
 62
     7
 10
11.90420683045158
 20
5.023969045104562
 30
0.0
  0
VERTEX
  5
11D6
  8
0
  6
CONTINUOUS
 62
     7
 10
11.903419239549899
 20
5.0224671957873861
 30
0.0
  0
VERTEX
  5
11D7
  8
0
  6
CONTINUOUS
 62
     7
 10
11.90246899719385
 20
5.0214159012653639
 30
0.0
  0
VERTEX
  5
11D8
  8
0
  6
CONTINUOUS
 62
     7
 10
11.90171323259117
 20
5.0209653464702111
 30
0.0
  0
VERTEX
  5
11D9
  8
0
  6
CONTINUOUS
 62
     7
 10
11.90098665431799
 20
5.0208151615384953
 30
0.0
  0
VERTEX
  5
11DA
  8
0
  6
CONTINUOUS
 62
     7
 10
11.90025024949167
 20
5.0208151615384953
 30
0.0
  0
VERTEX
  5
11DB
  8
0
  6
CONTINUOUS
 62
     7
 10
11.89945752531596
 20
5.021265716333648
 30
0.0
  0
VERTEX
  5
11DC
  8
0
  6
CONTINUOUS
 62
     7
 10
11.898526642736259
 20
5.0223170108556703
 30
0.0
  0
VERTEX
  5
11DD
  8
0
  6
CONTINUOUS
 62
     7
 10
11.897504827873689
 20
5.0242694149679981
 30
0.0
  0
VERTEX
  5
11DE
  8
0
  6
CONTINUOUS
 62
     7
 10
11.89697654064317
 20
5.0277236683975
 30
0.0
  0
SEQEND
  5
11DF
  8
0
  6
CONTINUOUS
 62
     7
  0
LINE
  5
DC
  8
0
  6
CONTINUOUS
 62
     7
 10
11.90485054301536
 20
4.931605312098287
 30
0.0
 11
11.90485054301536
 21
5.0277236683975
 31
0.0
  0
LINE
  5
DD
  8
0
  6
CONTINUOUS
 62
     7
 10
11.96784270865782
 20
4.9954339080782342
 30
0.0
 11
11.932409624650489
 21
4.9954339080782342
 31
0.0
  0
LINE
  5
DE
  8
0
  6
CONTINUOUS
 62
     7
 10
11.932409624650489
 20
4.9954339080782342
 30
0.0
 11
11.932409624650489
 21
5.0081996272742231
 31
0.0
  0
LINE
  5
DF
  8
0
  6
CONTINUOUS
 62
     7
 10
11.94028362702268
 20
5.0242694149679981
 30
0.0
 11
11.98359071340219
 21
5.0242694149679981
 31
0.0
  0
LINE
  5
E0
  8
0
  6
CONTINUOUS
 62
     7
 10
11.99540164362798
 20
4.9961848327368212
 30
0.0
 11
11.99540164362798
 21
4.9631441477589666
 31
0.0
  0
LINE
  5
E1
  8
0
  6
CONTINUOUS
 62
     7
 10
11.98359071340219
 20
4.9350595655277907
 30
0.0
 11
11.94028362702268
 21
4.9350595655277907
 31
0.0
  0
LINE
  5
E2
  8
0
  6
CONTINUOUS
 62
     7
 10
11.932409624650489
 20
4.9511293532215648
 30
0.0
 11
11.932409624650489
 21
4.9638950724175537
 31
0.0
  0
LINE
  5
E3
  8
0
  6
CONTINUOUS
 62
     7
 10
11.932409624650489
 20
4.9638950724175537
 30
0.0
 11
11.96784270865782
 21
4.9638950724175537
 31
0.0
  0
LINE
  5
E4
  8
0
  6
CONTINUOUS
 62
     7
 10
11.96784270865782
 20
4.9638950724175537
 30
0.0
 11
11.96784270865782
 21
4.9954339080782342
 31
0.0
  0
LINE
  5
E5
  8
0
  6
CONTINUOUS
 62
     7
 10
11.88516546375241
 20
4.8772383668165462
 30
0.0
 11
11.88516546375241
 21
4.931605312098287
 31
0.0
  0
LINE
  5
E6
  8
0
  6
CONTINUOUS
 62
     7
 10
11.89697654064317
 20
4.931605312098287
 30
0.0
 11
11.88516546375241
 21
4.931605312098287
 31
0.0
  0
LINE
  5
E7
  8
0
  6
CONTINUOUS
 62
     7
 10
11.999338718146561
 20
4.931605312098287
 30
0.0
 11
11.90485054301536
 21
4.931605312098287
 31
0.0
  0
ARC
  5
E8
  8
0
  6
CONTINUOUS
 62
     7
 10
11.835041131455201
 20
4.9796644902478944
 30
0.0
 40
0.1711823051516132
 50
343.69511644379787
 51
16.304883556202611
  0
LINE
  5
E9
  8
0
  6
CONTINUOUS
 62
     7
 10
11.90485054301536
 20
5.0277236683975
 30
0.0
 11
11.999338718146561
 21
5.0277236683975
 31
0.0
  0
LINE
  5
EA
  8
0
  6
CONTINUOUS
 62
     7
 10
11.88516546375241
 20
5.0277236683975
 30
0.0
 11
11.89697654064317
 21
5.0277236683975
 31
0.0
  0
LINE
  5
EB
  8
0
  6
CONTINUOUS
 62
     7
 10
11.88516546375241
 20
5.0277236683975
 30
0.0
 11
11.88516546375241
 21
5.0820906136792434
 31
0.0
  0
LINE
  5
EC
  8
0
  6
CONTINUOUS
 62
     7
 10
11.88516546375241
 20
5.0820906136792434
 30
0.0
 11
12.18044106603679
 21
5.1568827096745684
 31
0.0
  0
LINE
  5
ED
  8
0
  6
CONTINUOUS
 62
     7
 10
12.18044106603679
 20
5.1568827096745684
 30
0.0
 11
12.41666157719728
 21
5.1568827096745684
 31
0.0
  0
LINE
  5
EE
  8
0
  6
CONTINUOUS
 62
     7
 10
12.41666157719728
 20
5.1568827096745684
 30
0.0
 11
12.41666157719728
 21
4.8024462708212212
 31
0.0
  0
LINE
  5
EF
  8
0
  6
CONTINUOUS
 62
     7
 10
12.41666157719728
 20
4.8024462708212212
 30
0.0
 11
12.33792140681045
 21
4.8024462708212212
 31
0.0
  0
LINE
  5
F0
  8
0
  6
CONTINUOUS
 62
     7
 10
12.33792140681045
 20
4.8024462708212212
 30
0.0
 11
12.32550035029956
 21
4.8237725311251092
 31
0.0
  0
LINE
  5
F1
  8
0
  6
CONTINUOUS
 62
     7
 10
12.32550035029956
 20
4.8237725311251092
 30
0.0
 11
12.156486569427839
 21
4.8237725311251092
 31
0.0
  0
LINE
  5
F2
  8
0
  6
CONTINUOUS
 62
     7
 10
12.156486569427839
 20
4.8237725311251092
 30
0.0
 11
12.11744890039432
 21
4.8024462708212212
 31
0.0
  0
LINE
  5
F3
  8
0
  6
CONTINUOUS
 62
     7
 10
12.11744890039432
 20
4.8024462708212212
 30
0.0
 11
12.08792142816487
 21
4.8024462708212212
 31
0.0
  0
LINE
  5
F4
  8
0
  6
CONTINUOUS
 62
     7
 10
12.08792142816487
 20
4.8024462708212212
 30
0.0
 11
12.08792142816487
 21
4.8143108804269046
 31
0.0
  0
LINE
  5
F5
  8
0
  6
CONTINUOUS
 62
     7
 10
12.08792142816487
 20
4.8143108804269046
 30
0.0
 11
11.88516546375241
 21
4.8772383668165462
 31
0.0
  0
LINE
  5
F6
  8
0
  6
CONTINUOUS
 62
     7
 10
12.099732358390661
 20
5.0564089903555471
 30
0.0
 11
12.017055260150221
 21
5.0564089903555471
 31
0.0
  0
LINE
  5
F7
  8
0
  6
CONTINUOUS
 62
     7
 10
12.017055260150221
 20
5.0564089903555471
 30
0.0
 11
12.017055260150221
 21
4.9029199901402416
 31
0.0
  0
LINE
  5
F8
  8
0
  6
CONTINUOUS
 62
     7
 10
12.017055260150221
 20
4.9029199901402416
 30
0.0
 11
12.099732358390661
 21
4.9029199901402416
 31
0.0
  0
LINE
  5
F9
  8
0
  6
CONTINUOUS
 62
     7
 10
12.099732358390661
 20
4.9029199901402416
 30
0.0
 11
12.099732358390661
 21
5.0564089903555471
 31
0.0
  0
LINE
  5
FA
  8
0
  6
CONTINUOUS
 62
     7
 10
11.88516546375241
 20
4.931605312098287
 30
0.0
 11
11.88516546375241
 21
5.0277236683975
 31
0.0
  0
LINE
  5
FB
  8
0
  6
CONTINUOUS
 62
     7
 10
12.554456838708001
 20
4.9638950724175537
 30
0.0
 11
12.47965374283975
 21
4.9638950724175537
 31
0.0
  0
LINE
  5
FC
  8
0
  6
CONTINUOUS
 62
     7
 10
12.554456838708001
 20
4.9638950724175537
 30
0.0
 11
12.554456838708001
 21
4.9954339080782342
 31
0.0
  0
LINE
  5
FD
  8
0
  6
CONTINUOUS
 62
     7
 10
12.554456838708001
 20
4.9954339080782342
 30
0.0
 11
12.47965374283975
 21
4.9954339080782342
 31
0.0
  0
LINE
  5
FE
  8
0
  6
CONTINUOUS
 62
     7
 10
12.33792140681045
 20
4.8024462708212212
 30
0.0
 11
12.11744890039432
 21
4.8024462708212212
 31
0.0
  0
LINE
  5
FF
  8
0
  6
CONTINUOUS
 62
     7
 10
12.41666157719728
 20
4.7683542913213444
 30
0.0
 11
12.41666157719728
 21
8.1897172207781601
 31
0.0
  0
LINE
  5
100
  8
0
  6
CONTINUOUS
 62
     7
 10
12.47965374283975
 20
8.1897172207781601
 30
0.0
 11
12.41666157719728
 21
8.1897172207781601
 31
0.0
  0
LINE
  5
101
  8
0
  6
CONTINUOUS
 62
     7
 10
12.47965374283975
 20
4.7683542913213444
 30
0.0
 11
12.47965374283975
 21
8.1897172207781601
 31
0.0
  0
LINE
  5
102
  8
0
  6
CONTINUOUS
 62
     7
 10
12.41666157719728
 20
4.7683542913213444
 30
0.0
 11
12.47965374283975
 21
4.7683542913213444
 31
0.0
  0
LINE
  5
103
  8
0
  6
CONTINUOUS
 62
     7
 10
11.633196947847541
 20
8.0052901246290471
 30
0.0
 11
11.633196947847541
 21
8.0321732274064814
 31
0.0
  0
LINE
  5
104
  8
0
  6
CONTINUOUS
 62
     7
 10
11.613511868584579
 20
8.0052901246290471
 30
0.0
 11
11.633196947847541
 21
8.0052901246290471
 31
0.0
  0
LINE
  5
105
  8
0
  6
CONTINUOUS
 62
     7
 10
11.613511868584579
 20
8.0052901246290471
 30
0.0
 11
11.613511868584579
 21
8.0321732274064814
 31
0.0
  0
LINE
  5
106
  8
0
  6
CONTINUOUS
 62
     7
 10
11.633196947847541
 20
7.9410109738539481
 30
0.0
 11
11.613511868584579
 21
7.9410109738539481
 31
0.0
  0
LINE
  5
107
  8
0
  6
CONTINUOUS
 62
     7
 10
11.613511868584579
 20
7.9410109738539481
 30
0.0
 11
11.613511868584579
 21
8.0052901246290471
 31
0.0
  0
LINE
  5
108
  8
0
  6
CONTINUOUS
 62
     7
 10
11.633196947847541
 20
8.0052901246290471
 30
0.0
 11
11.633196947847541
 21
7.9410109738539481
 31
0.0
  0
LINE
  5
109
  8
0
  6
CONTINUOUS
 62
     7
 10
11.593826935986611
 20
7.9069189943540712
 30
0.0
 11
11.593826935986611
 21
8.0393821041289222
 31
0.0
  0
LINE
  5
10A
  8
0
  6
CONTINUOUS
 62
     7
 10
11.593826935986611
 20
8.0393821041289222
 30
0.0
 11
11.633196947847541
 21
8.0393821041289222
 31
0.0
  0
LINE
  5
10B
  8
0
  6
CONTINUOUS
 62
     7
 10
11.633196947847541
 20
7.9069189943540712
 30
0.0
 11
11.593826935986611
 21
7.9069189943540712
 31
0.0
  0
LINE
  5
10C
  8
0
  6
CONTINUOUS
 62
     7
 10
11.613511868584579
 20
7.9410109738539481
 30
0.0
 11
11.613511868584579
 21
7.9141278710765111
 31
0.0
  0
LINE
  5
10D
  8
0
  6
CONTINUOUS
 62
     7
 10
11.633196947847541
 20
7.9410109738539481
 30
0.0
 11
11.633196947847541
 21
7.9141278710765111
 31
0.0
  0
LINE
  5
10E
  8
0
  6
CONTINUOUS
 62
     7
 10
11.57414185672366
 20
7.7017663776279379
 30
0.0
 11
11.57414185672366
 21
7.7466716722114768
 31
0.0
  0
LINE
  5
10F
  8
0
  6
CONTINUOUS
 62
     7
 10
11.8300474471471
 20
7.699513603652175
 30
0.0
 11
11.57414185672366
 21
7.7017663776279379
 31
0.0
  0
LINE
  5
110
  8
0
  6
CONTINUOUS
 62
     7
 10
11.96784270865782
 20
7.699513603652175
 30
0.0
 11
11.8300474471471
 21
7.699513603652175
 31
0.0
  0
LINE
  5
111
  8
0
  6
CONTINUOUS
 62
     7
 10
11.57414185672366
 20
7.7466716722114768
 30
0.0
 11
11.593826935986611
 21
7.7466716722114768
 31
0.0
  0
LINE
  5
112
  8
0
  6
CONTINUOUS
 62
     7
 10
11.633196947847541
 20
7.7487742612555222
 30
0.0
 11
11.96784270865782
 21
7.7487742612555222
 31
0.0
  0
LINE
  5
113
  8
0
  6
CONTINUOUS
 62
     7
 10
11.593826935986611
 20
7.7466716722114768
 30
0.0
 11
11.593826935986611
 21
7.9069189943540712
 31
0.0
  0
LINE
  5
114
  8
0
  6
CONTINUOUS
 62
     7
 10
11.96784270865782
 20
7.7487742612555222
 30
0.0
 11
11.96784270865782
 21
7.699513603652175
 31
0.0
  0
LINE
  5
115
  8
0
  6
CONTINUOUS
 62
     7
 10
11.633196947847541
 20
7.9069189943540712
 30
0.0
 11
11.633196947847541
 21
7.7487742612555222
 31
0.0
  0
LINE
  5
116
  8
0
  6
CONTINUOUS
 62
     7
 10
12.33811060462482
 20
8.2014316454521285
 30
0.0
 11
11.633196947847541
 21
8.2014316454521285
 31
0.0
  0
LINE
  5
117
  8
0
  6
CONTINUOUS
 62
     7
 10
12.062520081603401
 20
8.2329704811128064
 30
0.0
 11
12.33811060462482
 21
8.2329704811128064
 31
0.0
  0
LINE
  5
118
  8
0
  6
CONTINUOUS
 62
     7
 10
11.830329777218941
 20
8.2467874948308175
 30
0.0
 11
12.062520081603401
 21
8.244684905786773
 31
0.0
  0
LINE
  5
119
  8
0
  6
CONTINUOUS
 62
     7
 10
11.57414185672366
 20
8.1994792413397999
 30
0.0
 11
11.57414185672366
 21
8.2445347208550555
 31
0.0
  0
LINE
  5
11A
  8
0
  6
CONTINUOUS
 62
     7
 10
11.593826935986611
 20
8.1994792413397999
 30
0.0
 11
11.57414185672366
 21
8.1994792413397999
 31
0.0
  0
LINE
  5
11B
  8
0
  6
CONTINUOUS
 62
     7
 10
12.062520081603401
 20
8.244684905786773
 30
0.0
 11
12.062520081603401
 21
8.2329704811128064
 31
0.0
  0
LINE
  5
11C
  8
0
  6
CONTINUOUS
 62
     7
 10
11.57414185672366
 20
8.2445347208550555
 30
0.0
 11
11.830329777218941
 21
8.2467874948308175
 31
0.0
  0
LINE
  5
11D
  8
0
  6
CONTINUOUS
 62
     7
 10
11.593826935986611
 20
8.0393821041289222
 30
0.0
 11
11.593826935986611
 21
8.1994792413397999
 31
0.0
  0
LINE
  5
11E
  8
0
  6
CONTINUOUS
 62
     7
 10
12.33811060462482
 20
8.2329704811128064
 30
0.0
 11
12.33811060462482
 21
8.2014316454521285
 31
0.0
  0
LINE
  5
11F
  8
0
  6
CONTINUOUS
 62
     7
 10
11.633196947847541
 20
8.2014316454521285
 30
0.0
 11
11.633196947847541
 21
8.0393821041289222
 31
0.0
  0
LINE
  5
120
  8
0
  6
CONTINUOUS
 62
     7
 10
11.613511868584579
 20
7.9141278710765111
 30
0.0
 11
11.613511868584579
 21
7.9069189943540712
 31
0.0
  0
LINE
  5
121
  8
0
  6
CONTINUOUS
 62
     7
 10
11.633196947847541
 20
7.9141278710765111
 30
0.0
 11
11.633196947847541
 21
7.9069189943540712
 31
0.0
  0
LINE
  5
122
  8
0
  6
CONTINUOUS
 62
     7
 10
11.613511868584579
 20
8.0393821041289222
 30
0.0
 11
11.613511868584579
 21
8.0321732274064814
 31
0.0
  0
LINE
  5
123
  8
0
  6
CONTINUOUS
 62
     7
 10
11.633196947847541
 20
8.0393821041289222
 30
0.0
 11
11.633196947847541
 21
8.0321732274064814
 31
0.0
  0
LINE
  5
124
  8
0
  6
CONTINUOUS
 62
     7
 10
11.8300474471471
 20
8.1916696248904888
 30
0.0
 11
11.8300474471471
 21
7.7487742612555222
 31
0.0
  0
LINE
  5
125
  8
0
  6
CONTINUOUS
 62
     7
 10
11.987699532603431
 20
8.1903179605050305
 30
0.0
 11
11.8300474471471
 21
8.1916696248904888
 31
0.0
  0
ARC
  5
126
  8
0
  6
CONTINUOUS
 62
     7
 10
11.987274849022461
 20
8.1703843131659433
 30
0.0
 40
0.0199381707381354
 50
0.3139111082186404
 51
88.779506032652407
  0
LINE
  5
127
  8
0
  6
CONTINUOUS
 62
     7
 10
12.00721272051875
 20
7.7205394940926277
 30
0.0
 11
12.00721272051875
 21
7.8450428024864527
 31
0.0
  0
LINE
  5
128
  8
0
  6
CONTINUOUS
 62
     7
 10
12.00721272051875
 20
8.1186797480757722
 30
0.0
 11
12.00721272051875
 21
8.1704935495183175
 31
0.0
  0
ARC
  5
129
  8
0
  6
CONTINUOUS
 62
     7
 10
11.98755171744601
 20
7.720525720276167
 30
0.0
 40
0.0196610078974722
 50
270.4307645110847
 51
0.0401394282356702
  0
LINE
  5
12A
  8
0
  6
CONTINUOUS
 62
     7
 10
11.96784270865782
 20
7.7007150831059157
 30
0.0
 11
11.987699532603431
 21
7.7008652680376342
 31
0.0
  0
LINE
  5
12B
  8
0
  6
CONTINUOUS
 62
     7
 10
11.57414185672366
 20
8.1994792413397999
 30
0.0
 11
11.57414185672366
 21
7.7466716722114768
 31
0.0
  0
LINE
  5
12C
  8
0
  6
CONTINUOUS
 62
     7
 10
10.963905646224431
 20
5.2777815797071712
 30
0.0
 11
10.963905646224431
 21
5.5873127239769786
 31
0.0
  0
ARC
  5
12D
  8
0
  6
CONTINUOUS
 62
     7
 10
10.60170091822738
 20
5.6022725836385749
 30
0.0
 40
0.0118110236220739
 50
180.0
 51
269.49999999999852
  0
LINE
  5
12E
  8
0
  6
CONTINUOUS
 62
     7
 10
10.58988991021946
 20
5.6023312171487314
 30
0.0
 11
10.58988991021946
 21
5.6482878062542916
 31
0.0
  0
LINE
  5
12F
  8
0
  6
CONTINUOUS
 62
     7
 10
10.58988991021946
 20
5.6482878062542916
 30
0.0
 11
10.680441084164579
 21
5.6482878062542916
 31
0.0
  0
LINE
  5
130
  8
0
  6
CONTINUOUS
 62
     7
 10
10.680441084164579
 20
5.6482878062542916
 30
0.0
 11
10.680441084164579
 21
5.7211274981372888
 31
0.0
  0
LINE
  5
131
  8
0
  6
CONTINUOUS
 62
     7
 10
10.680441084164579
 20
5.7211274981372888
 30
0.0
 11
10.7394962119547
 21
5.7211274981372888
 31
0.0
  0
LINE
  5
132
  8
0
  6
CONTINUOUS
 62
     7
 10
10.7394962119547
 20
5.7211274981372888
 30
0.0
 11
10.7394962119547
 21
5.6482878062542916
 31
0.0
  0
LINE
  5
133
  8
0
  6
CONTINUOUS
 62
     7
 10
10.7394962119547
 20
5.6482878062542916
 30
0.0
 11
11.02296073734831
 21
5.6458848473468111
 31
0.0
  0
LINE
  5
134
  8
0
  6
CONTINUOUS
 62
     7
 10
11.02296073734831
 20
5.6458848473468111
 30
0.0
 11
11.02296073734831
 21
5.3246392784030361
 31
0.0
  0
LINE
  5
135
  8
0
  6
CONTINUOUS
 62
     7
 10
11.02296073734831
 20
5.3246392784030361
 30
0.0
 11
11.8300474471471
 21
5.3175805866123129
 31
0.0
  0
ARC
  5
136
  8
0
  6
CONTINUOUS
 62
     7
 10
10.97571666625889
 20
5.2778271445592191
 30
0.0
 40
0.0118110236220731
 50
180.0
 51
269.49999999994679
  0
LINE
  5
137
  8
0
  6
CONTINUOUS
 62
     7
 10
10.963905646224431
 20
5.5873127239769786
 30
0.0
 11
10.601597844968399
 21
5.5904666075430471
 31
0.0
  0
LINE
  5
138
  8
0
  6
CONTINUOUS
 62
     7
 10
11.8300474471471
 20
5.3175805866123129
 30
0.0
 11
11.8300474471471
 21
5.2585579084473277
 31
0.0
  0
LINE
  5
139
  8
0
  6
CONTINUOUS
 62
     7
 10
11.8300474471471
 20
5.2585579084473277
 30
0.0
 11
10.97561361763961
 21
5.2660671550332037
 31
0.0
  0
ARC
  5
13A
  8
0
  6
CONTINUOUS
 62
     7
 10
10.975716666258879
 20
7.6802378174272512
 30
0.0
 40
0.0118110236223546
 50
90.499999999998948
 51
180.0
  0
LINE
  5
13B
  8
0
  6
CONTINUOUS
 62
     7
 10
11.02296073734831
 20
7.6334322336964666
 30
0.0
 11
11.02296073734831
 21
7.3121866647526934
 31
0.0
  0
LINE
  5
13C
  8
0
  6
CONTINUOUS
 62
     7
 10
11.02296073734831
 20
7.3121866647526934
 30
0.0
 11
10.7394962119547
 21
7.3097837058452111
 31
0.0
  0
LINE
  5
13D
  8
0
  6
CONTINUOUS
 62
     7
 10
10.7394962119547
 20
7.3097837058452111
 30
0.0
 11
10.7394962119547
 21
7.2369440139622139
 31
0.0
  0
LINE
  5
13E
  8
0
  6
CONTINUOUS
 62
     7
 10
10.7394962119547
 20
7.2369440139622139
 30
0.0
 11
10.680441084164579
 21
7.2369440139622139
 31
0.0
  0
LINE
  5
13F
  8
0
  6
CONTINUOUS
 62
     7
 10
10.680441084164579
 20
7.2369440139622139
 30
0.0
 11
10.680441084164579
 21
7.3097837058452111
 31
0.0
  0
LINE
  5
140
  8
0
  6
CONTINUOUS
 62
     7
 10
10.680441084164579
 20
7.3097837058452111
 30
0.0
 11
10.58988991021946
 21
7.3097837058452111
 31
0.0
  0
LINE
  5
141
  8
0
  6
CONTINUOUS
 62
     7
 10
10.58988991021946
 20
7.3097837058452111
 30
0.0
 11
10.58988991021946
 21
7.3557402949507731
 31
0.0
  0
ARC
  5
142
  8
0
  6
CONTINUOUS
 62
     7
 10
10.601700918227371
 20
7.3557923783478971
 30
0.0
 40
0.011811023622073
 50
90.500000000010886
 51
180.0
  0
LINE
  5
143
  8
0
  6
CONTINUOUS
 62
     7
 10
10.963905646224431
 20
7.3707587881225249
 30
0.0
 11
10.963905646224431
 21
7.6802899323923342
 31
0.0
  0
LINE
  5
144
  8
0
  6
CONTINUOUS
 62
     7
 10
11.8300474471471
 20
7.6404909254871907
 30
0.0
 11
11.02296073734831
 21
7.6334322336964666
 31
0.0
  0
LINE
  5
145
  8
0
  6
CONTINUOUS
 62
     7
 10
10.601597844968399
 20
7.3676049045564573
 30
0.0
 11
10.963905646224431
 21
7.3707587881225249
 31
0.0
  0
LINE
  5
146
  8
0
  6
CONTINUOUS
 62
     7
 10
11.8300474471471
 20
7.699513603652175
 30
0.0
 11
11.8300474471471
 21
7.6404909254871907
 31
0.0
  0
LINE
  5
147
  8
0
  6
CONTINUOUS
 62
     7
 10
10.97561361763961
 20
7.692004357066299
 30
0.0
 11
11.8300474471471
 21
7.699513603652175
 31
0.0
  0
LINE
  5
148
  8
0
  6
CONTINUOUS
 62
     7
 10
12.57807884582455
 20
4.703474400819375
 30
0.0
 11
12.341857454674219
 21
4.7055769898634212
 31
0.0
  0
LINE
  5
149
  8
0
  6
CONTINUOUS
 62
     7
 10
12.341857454674219
 20
4.7055769898634212
 30
0.0
 11
12.341857454674219
 21
4.7664018872090157
 31
0.0
  0
LINE
  5
14A
  8
0
  6
CONTINUOUS
 62
     7
 10
12.341857454674219
 20
4.7664018872090157
 30
0.0
 11
12.57807884582455
 21
4.7664018872090157
 31
0.0
  0
LINE
  5
14B
  8
0
  6
CONTINUOUS
 62
     7
 10
12.57807884582455
 20
4.7664018872090157
 30
0.0
 11
12.57807884582455
 21
4.703474400819375
 31
0.0
  0
LINE
  5
14C
  8
0
  6
CONTINUOUS
 62
     7
 10
12.34185320139003
 20
8.1916696248904888
 30
0.0
 11
12.34185320139003
 21
8.2524945222360842
 31
0.0
  0
LINE
  5
14D
  8
0
  6
CONTINUOUS
 62
     7
 10
12.34185320139003
 20
8.2524945222360842
 30
0.0
 11
12.341857454674219
 21
8.2524945222360842
 31
0.0
  0
LINE
  5
14E
  8
0
  6
CONTINUOUS
 62
     7
 10
12.341857454674219
 20
8.1916696248904888
 30
0.0
 11
12.341857454674219
 21
8.2524945222360842
 31
0.0
  0
LINE
  5
14F
  8
0
  6
CONTINUOUS
 62
     7
 10
12.34185320139003
 20
8.1916696248904888
 30
0.0
 11
12.341857454674219
 21
8.1916696248904888
 31
0.0
  0
LINE
  5
150
  8
0
  6
CONTINUOUS
 62
     7
 10
12.34185320139003
 20
4.7664018872090157
 30
0.0
 11
12.34185320139003
 21
4.7055769898634212
 31
0.0
  0
LINE
  5
151
  8
0
  6
CONTINUOUS
 62
     7
 10
12.341857454674219
 20
4.7664018872090157
 30
0.0
 11
12.34185320139003
 21
4.7664018872090157
 31
0.0
  0
LINE
  5
152
  8
0
  6
CONTINUOUS
 62
     7
 10
12.341857454674219
 20
4.7055769898634212
 30
0.0
 11
12.34185320139003
 21
4.7055769898634212
 31
0.0
  0
LINE
  5
153
  8
0
  6
CONTINUOUS
 62
     7
 10
12.57807884582455
 20
8.2545971112801286
 30
0.0
 11
12.57807884582455
 21
8.1916696248904888
 31
0.0
  0
LINE
  5
154
  8
0
  6
CONTINUOUS
 62
     7
 10
12.341857454674219
 20
8.2524945222360842
 30
0.0
 11
12.57807884582455
 21
8.2545971112801286
 31
0.0
  0
LINE
  5
155
  8
0
  6
CONTINUOUS
 62
     7
 10
12.57807884582455
 20
8.1916696248904888
 30
0.0
 11
12.341857454674219
 21
8.1916696248904888
 31
0.0
  0
LINE
  5
156
  8
0
  6
CONTINUOUS
 62
     7
 10
10.680441084164579
 20
5.7604759502472787
 30
0.0
 11
10.7394962119547
 21
5.7604759502472787
 31
0.0
  0
LINE
  5
157
  8
0
  6
CONTINUOUS
 62
     7
 10
10.7394962119547
 20
5.7604759502472787
 30
0.0
 11
10.7394962119547
 21
5.7211274981372888
 31
0.0
  0
LINE
  5
158
  8
0
  6
CONTINUOUS
 62
     7
 10
10.680441084164579
 20
5.7604759502472787
 30
0.0
 11
10.680441084164579
 21
5.7507139296856407
 31
0.0
  0
LINE
  5
159
  8
0
  6
CONTINUOUS
 62
     7
 10
10.680441084164579
 20
7.197595561852224
 30
0.0
 11
10.7394962119547
 21
7.197595561852224
 31
0.0
  0
LINE
  5
15A
  8
0
  6
CONTINUOUS
 62
     7
 10
10.7394962119547
 20
7.2369440139622139
 30
0.0
 11
10.7394962119547
 21
7.197595561852224
 31
0.0
  0
LINE
  5
15B
  8
0
  6
CONTINUOUS
 62
     7
 10
10.680441084164579
 20
7.2073575824138629
 30
0.0
 11
10.680441084164579
 21
7.197595561852224
 31
0.0
  0
LINE
  5
15C
  8
0
  6
CONTINUOUS
 62
     7
 10
10.7670552569236
 20
5.7781977721899471
 30
0.0
 11
10.7670552569236
 21
5.8274584297932934
 31
0.0
  0
POLYLINE
  5
15D
  8
0
  6
CONTINUOUS
 62
     7
 66
     1
 10
0.0
 20
0.0
 30
0.0
 70
   128
  0
VERTEX
  5
11E0
  8
0
  6
CONTINUOUS
 62
     7
 10
10.70012612676128
 20
5.767084087242849
 30
0.0
  0
VERTEX
  5
11E1
  8
0
  6
CONTINUOUS
 62
     7
 10
10.68911367731137
 20
5.7627287242230416
 30
0.0
  0
VERTEX
  5
11E2
  8
0
  6
CONTINUOUS
 62
     7
 10
10.68362565737611
 20
5.7604759502472787
 30
0.0
  0
SEQEND
  5
11E3
  8
0
  6
CONTINUOUS
 62
     7
  0
LINE
  5
15E
  8
0
  6
CONTINUOUS
 62
     7
 10
10.680441084164579
 20
5.8274584297932934
 30
0.0
 11
10.680441084164579
 21
5.7604759502472787
 31
0.0
  0
LINE
  5
15F
  8
0
  6
CONTINUOUS
 62
     7
 10
10.7670552569236
 20
7.130613082306211
 30
0.0
 11
10.7670552569236
 21
7.1798737399095574
 31
0.0
  0
POLYLINE
  5
160
  8
0
  6
CONTINUOUS
 62
     7
 66
     1
 10
0.0
 20
0.0
 30
0.0
 70
   128
  0
VERTEX
  5
11E4
  8
0
  6
CONTINUOUS
 62
     7
 10
10.70012612676128
 20
7.1909874248566554
 30
0.0
  0
VERTEX
  5
11E5
  8
0
  6
CONTINUOUS
 62
     7
 10
10.68911367731137
 20
7.195342787876462
 30
0.0
  0
VERTEX
  5
11E6
  8
0
  6
CONTINUOUS
 62
     7
 10
10.68362565737611
 20
7.197595561852224
 30
0.0
  0
SEQEND
  5
11E7
  8
0
  6
CONTINUOUS
 62
     7
  0
LINE
  5
161
  8
0
  6
CONTINUOUS
 62
     7
 10
10.680441084164579
 20
7.197595561852224
 30
0.0
 11
10.680441084164579
 21
7.130613082306211
 31
0.0
  0
LINE
  5
162
  8
0
  6
CONTINUOUS
 62
     7
 10
10.7670552569236
 20
5.8274584297932934
 30
0.0
 11
10.7670552569236
 21
7.130613082306211
 31
0.0
  0
LINE
  5
163
  8
0
  6
CONTINUOUS
 62
     7
 10
10.680441084164579
 20
7.130613082306211
 30
0.0
 11
10.680441084164579
 21
5.8274584297932934
 31
0.0
  0
LINE
  5
164
  8
0
  6
CONTINUOUS
 62
     7
 10
10.70012612676128
 20
5.7604759502472787
 30
0.0
 11
10.70012612676128
 21
5.767084087242849
 31
0.0
  0
LINE
  5
165
  8
0
  6
CONTINUOUS
 62
     7
 10
10.70012612676128
 20
7.1909874248566554
 30
0.0
 11
10.70012612676128
 21
7.197595561852224
 31
0.0
  0
LINE
  5
166
  8
0
  6
CONTINUOUS
 62
     7
 10
10.94028356577539
 20
7.1738663426408573
 30
0.0
 11
10.94028356577539
 21
7.2998715003518564
 31
0.0
  0
LINE
  5
167
  8
0
  6
CONTINUOUS
 62
     7
 10
11.8300474471471
 20
4.7552882022619203
 30
0.0
 11
11.8300474471471
 21
4.7664018872090157
 31
0.0
  0
LINE
  5
168
  8
0
  6
CONTINUOUS
 62
     7
 10
12.34185320139003
 20
4.7664018872090157
 30
0.0
 11
11.8300474471471
 21
4.7664018872090157
 31
0.0
  0
LINE
  5
169
  8
0
  6
CONTINUOUS
 62
     7
 10
12.34185320139003
 20
4.7055769898634212
 30
0.0
 11
11.830329777218941
 21
4.7099323528832286
 31
0.0
  0
LINE
  5
16A
  8
0
  6
CONTINUOUS
 62
     7
 10
11.8300474471471
 20
8.1916696248904888
 30
0.0
 11
11.8300474471471
 21
8.2014316454521285
 31
0.0
  0
LINE
  5
16B
  8
0
  6
CONTINUOUS
 62
     7
 10
11.8300474471471
 20
8.2467874948308175
 30
0.0
 11
11.8300474471471
 21
8.2481391592162758
 31
0.0
  0
LINE
  5
16C
  8
0
  6
CONTINUOUS
 62
     7
 10
11.8300474471471
 20
8.2481391592162758
 30
0.0
 11
12.34185320139003
 21
8.2524945222360842
 31
0.0
  0
LINE
  5
16D
  8
0
  6
CONTINUOUS
 62
     7
 10
11.8300474471471
 20
8.1916696248904888
 30
0.0
 11
12.34185320139003
 21
8.1916696248904888
 31
0.0
  0
LINE
  5
16E
  8
0
  6
CONTINUOUS
 62
     7
 10
12.400913572452909
 20
7.6404909254871907
 30
0.0
 11
12.400913572452909
 21
7.699513603652175
 31
0.0
  0
LINE
  5
16F
  8
0
  6
CONTINUOUS
 62
     7
 10
11.8300474471471
 20
7.6404909254871907
 30
0.0
 11
12.400913572452909
 21
7.6404909254871907
 31
0.0
  0
LINE
  5
170
  8
0
  6
CONTINUOUS
 62
     7
 10
11.96784270865782
 20
7.699513603652175
 30
0.0
 11
12.400913572452909
 21
7.699513603652175
 31
0.0
  0
LINE
  5
171
  8
0
  6
CONTINUOUS
 62
     7
 10
12.400913572452909
 20
5.2585579084473277
 30
0.0
 11
12.400913572452909
 21
5.3175805866123129
 31
0.0
  0
LINE
  5
172
  8
0
  6
CONTINUOUS
 62
     7
 10
12.400913572452909
 20
5.3175805866123129
 30
0.0
 11
11.8300474471471
 21
5.3175805866123129
 31
0.0
  0
LINE
  5
173
  8
0
  6
CONTINUOUS
 62
     7
 10
12.400913572452909
 20
5.2585579084473277
 30
0.0
 11
11.8300474471471
 21
5.2585579084473277
 31
0.0
  0
LINE
  5
174
  8
0
  6
CONTINUOUS
 62
     7
 10
11.200126084052449
 20
7.5063757814634462
 30
0.0
 11
11.200126084052449
 21
7.6166115213441046
 31
0.0
  0
LINE
  5
175
  8
0
  6
CONTINUOUS
 62
     7
 10
11.200126084052449
 20
5.3410094359602471
 30
0.0
 11
11.200126084052449
 21
5.4512451758409064
 31
0.0
  0
LINE
  5
176
  8
0
  6
CONTINUOUS
 62
     7
 10
11.8300474471471
 20
8.1916696248904888
 30
0.0
 11
12.400913572452909
 21
8.1916696248904888
 31
0.0
  0
LINE
  5
177
  8
0
  6
CONTINUOUS
 62
     7
 10
12.400913572452909
 20
7.699513603652175
 30
0.0
 11
12.400913572452909
 21
7.801188802424937
 31
0.0
  0
LINE
  5
178
  8
0
  6
CONTINUOUS
 62
     7
 10
12.400913572452909
 20
8.155625241278285
 30
0.0
 11
12.400913572452909
 21
8.1916696248904888
 31
0.0
  0
LINE
  5
179
  8
0
  6
CONTINUOUS
 62
     7
 10
11.984555035595591
 20
4.7664018872090157
 30
0.0
 11
12.400913572452909
 21
4.7664018872090157
 31
0.0
  0
LINE
  5
17A
  8
0
  6
CONTINUOUS
 62
     7
 10
11.8300474471471
 20
5.2572062440618712
 30
0.0
 11
11.8300474471471
 21
5.2585579084473277
 31
0.0
  0
LINE
  5
17B
  8
0
  6
CONTINUOUS
 62
     7
 10
12.400913572452909
 20
4.7664018872090157
 30
0.0
 11
12.400913572452909
 21
4.8024462708212212
 31
0.0
  0
LINE
  5
17C
  8
0
  6
CONTINUOUS
 62
     7
 10
12.400913572452909
 20
5.1568827096745684
 30
0.0
 11
12.400913572452909
 21
5.2585579084473277
 31
0.0
  0
LINE
  5
17D
  8
0
  6
CONTINUOUS
 62
     7
 10
10.94028356577539
 20
5.6582000117476481
 30
0.0
 11
10.94028356577539
 21
5.784205169458648
 31
0.0
  0
LINE
  5
17E
  8
0
  6
CONTINUOUS
 62
     7
 10
11.286626004797981
 20
7.5948347062450638
 30
0.0
 11
11.282803255625369
 21
7.5940837815864768
 31
0.0
  0
LINE
  5
17F
  8
0
  6
CONTINUOUS
 62
     7
 10
11.282803255625369
 20
7.6356850076722287
 30
0.0
 11
11.282803255625369
 21
7.5940837815864768
 31
0.0
  0
LINE
  5
180
  8
0
  6
CONTINUOUS
 62
     7
 10
11.479653681592451
 20
7.6373370419211231
 30
0.0
 11
11.474097132448851
 21
7.6373370419211231
 31
0.0
  0
LINE
  5
181
  8
0
  6
CONTINUOUS
 62
     7
 10
11.286626004797981
 20
7.5948347062450638
 30
0.0
 11
11.479653681592451
 21
7.6373370419211231
 31
0.0
  0
LINE
  5
182
  8
0
  6
CONTINUOUS
 62
     7
 10
11.282803255625369
 20
5.3639877305130268
 30
0.0
 11
11.282803255625369
 21
5.322386504427274
 31
0.0
  0
LINE
  5
183
  8
0
  6
CONTINUOUS
 62
     7
 10
11.479653681592451
 20
5.3207344701783823
 30
0.0
 11
11.286626004797981
 21
5.3632368058544397
 31
0.0
  0
LINE
  5
184
  8
0
  6
CONTINUOUS
 62
     7
 10
11.479653681592451
 20
5.3207344701783823
 30
0.0
 11
11.474097132448851
 21
5.3207344701783823
 31
0.0
  0
LINE
  5
185
  8
0
  6
CONTINUOUS
 62
     7
 10
11.282803255625369
 20
5.3639877305130268
 30
0.0
 11
11.286626004797981
 21
5.3632368058544397
 31
0.0
  0
LINE
  5
186
  8
0
  6
CONTINUOUS
 62
     7
 10
11.06233082254173
 20
7.366253240170999
 30
0.0
 11
11.02296073734831
 21
7.366253240170999
 31
0.0
  0
LINE
  5
187
  8
0
  6
CONTINUOUS
 62
     7
 10
11.06233082254173
 20
7.366253240170999
 30
0.0
 11
11.06233082254173
 21
7.3072305620060138
 31
0.0
  0
LINE
  5
188
  8
0
  6
CONTINUOUS
 62
     7
 10
11.02296073734831
 20
7.3121866647526934
 30
0.0
 11
11.02296073734831
 21
7.267882109896024
 31
0.0
  0
LINE
  5
189
  8
0
  6
CONTINUOUS
 62
     7
 10
11.06233082254173
 20
7.3072305620060138
 30
0.0
 11
11.02296073734831
 21
7.267882109896024
 31
0.0
  0
LINE
  5
18A
  8
0
  6
CONTINUOUS
 62
     7
 10
11.06233082254173
 20
5.6458848473468111
 30
0.0
 11
11.02296073734831
 21
5.6852332994568009
 31
0.0
  0
LINE
  5
18B
  8
0
  6
CONTINUOUS
 62
     7
 10
11.02296073734831
 20
5.6852332994568009
 30
0.0
 11
11.02296073734831
 21
5.6458848473468111
 31
0.0
  0
LINE
  5
18C
  8
0
  6
CONTINUOUS
 62
     7
 10
11.06233082254173
 20
5.5868621691818259
 30
0.0
 11
11.02296073734831
 21
5.5868621691818259
 31
0.0
  0
LINE
  5
18D
  8
0
  6
CONTINUOUS
 62
     7
 10
11.06233082254173
 20
5.5868621691818259
 30
0.0
 11
11.06233082254173
 21
5.6458848473468111
 31
0.0
  0
LINE
  5
18E
  8
0
  6
CONTINUOUS
 62
     7
 10
10.58988991021946
 20
5.6482878062542916
 30
0.0
 11
10.58988991021946
 21
5.6521926144789481
 31
0.0
  0
LINE
  5
18F
  8
0
  6
CONTINUOUS
 62
     7
 10
10.58988991021946
 20
7.3058788976205573
 30
0.0
 11
10.58988991021946
 21
7.3097837058452111
 31
0.0
  0
LINE
  5
190
  8
0
  6
CONTINUOUS
 62
     7
 10
11.593826935986611
 20
5.2098979905708509
 30
0.0
 11
11.57414185672366
 21
5.2098979905708509
 31
0.0
  0
LINE
  5
191
  8
0
  6
CONTINUOUS
 62
     7
 10
11.57414185672366
 20
5.2098979905708509
 30
0.0
 11
11.57414185672366
 21
5.2549534700861082
 31
0.0
  0
LINE
  5
192
  8
0
  6
CONTINUOUS
 62
     7
 10
11.57414185672366
 20
5.2549534700861082
 30
0.0
 11
11.8300474471471
 21
5.2572062440618712
 31
0.0
  0
LINE
  5
193
  8
0
  6
CONTINUOUS
 62
     7
 10
11.8300474471471
 20
5.2572062440618712
 30
0.0
 11
11.96784270865782
 21
5.2572062440618712
 31
0.0
  0
LINE
  5
194
  8
0
  6
CONTINUOUS
 62
     7
 10
11.96784270865782
 20
5.2572062440618712
 30
0.0
 11
11.96784270865782
 21
5.207945586458524
 31
0.0
  0
LINE
  5
195
  8
0
  6
CONTINUOUS
 62
     7
 10
11.96784270865782
 20
5.207945586458524
 30
0.0
 11
11.633196947847541
 21
5.207945586458524
 31
0.0
  0
LINE
  5
196
  8
0
  6
CONTINUOUS
 62
     7
 10
11.633196947847541
 20
5.207945586458524
 30
0.0
 11
11.633196947847541
 21
5.0498008533599759
 31
0.0
  0
LINE
  5
197
  8
0
  6
CONTINUOUS
 62
     7
 10
11.593826935986611
 20
5.0498008533599759
 30
0.0
 11
11.633196947847541
 21
5.0498008533599759
 31
0.0
  0
LINE
  5
198
  8
0
  6
CONTINUOUS
 62
     7
 10
11.593826935986611
 20
5.0498008533599759
 30
0.0
 11
11.593826935986611
 21
5.2098979905708509
 31
0.0
  0
LINE
  5
199
  8
0
  6
CONTINUOUS
 62
     7
 10
11.633196947847541
 20
4.951429723085
 30
0.0
 11
11.613511868584579
 21
4.951429723085
 31
0.0
  0
LINE
  5
19A
  8
0
  6
CONTINUOUS
 62
     7
 10
11.613511868584579
 20
4.951429723085
 30
0.0
 11
11.613511868584579
 21
5.015708873860099
 31
0.0
  0
LINE
  5
19B
  8
0
  6
CONTINUOUS
 62
     7
 10
11.613511868584579
 20
5.015708873860099
 30
0.0
 11
11.633196947847541
 21
5.015708873860099
 31
0.0
  0
LINE
  5
19C
  8
0
  6
CONTINUOUS
 62
     7
 10
11.633196947847541
 20
5.015708873860099
 30
0.0
 11
11.633196947847541
 21
4.951429723085
 31
0.0
  0
LINE
  5
19D
  8
0
  6
CONTINUOUS
 62
     7
 10
11.613511868584579
 20
5.015708873860099
 30
0.0
 11
11.613511868584579
 21
5.0425919766375351
 31
0.0
  0
LINE
  5
19E
  8
0
  6
CONTINUOUS
 62
     7
 10
11.633196947847541
 20
5.015708873860099
 30
0.0
 11
11.633196947847541
 21
5.0425919766375351
 31
0.0
  0
LINE
  5
19F
  8
0
  6
CONTINUOUS
 62
     7
 10
11.633196947847541
 20
4.9173377435851231
 30
0.0
 11
11.593826935986611
 21
4.9173377435851231
 31
0.0
  0
LINE
  5
1A0
  8
0
  6
CONTINUOUS
 62
     7
 10
11.593826935986611
 20
4.9173377435851231
 30
0.0
 11
11.593826935986611
 21
5.0498008533599759
 31
0.0
  0
LINE
  5
1A1
  8
0
  6
CONTINUOUS
 62
     7
 10
11.830329777218941
 20
4.7099323528832286
 30
0.0
 11
11.57414185672366
 21
4.7121851268589916
 31
0.0
  0
LINE
  5
1A2
  8
0
  6
CONTINUOUS
 62
     7
 10
11.593826935986611
 20
4.7572406063742481
 30
0.0
 11
11.593826935986611
 21
4.9173377435851231
 31
0.0
  0
LINE
  5
1A3
  8
0
  6
CONTINUOUS
 62
     7
 10
11.57414185672366
 20
4.7121851268589916
 30
0.0
 11
11.57414185672366
 21
4.7572406063742481
 31
0.0
  0
LINE
  5
1A4
  8
0
  6
CONTINUOUS
 62
     7
 10
11.57414185672366
 20
4.7572406063742481
 30
0.0
 11
11.593826935986611
 21
4.7572406063742481
 31
0.0
  0
LINE
  5
1A5
  8
0
  6
CONTINUOUS
 62
     7
 10
12.33811060462482
 20
4.7552882022619203
 30
0.0
 11
12.33811060462482
 21
4.7237493666012407
 31
0.0
  0
LINE
  5
1A6
  8
0
  6
CONTINUOUS
 62
     7
 10
12.33811060462482
 20
4.7237493666012407
 30
0.0
 11
12.062520081603401
 21
4.7237493666012407
 31
0.0
  0
LINE
  5
1A7
  8
0
  6
CONTINUOUS
 62
     7
 10
11.633196947847541
 20
4.7552882022619203
 30
0.0
 11
12.33811060462482
 21
4.7552882022619203
 31
0.0
  0
LINE
  5
1A8
  8
0
  6
CONTINUOUS
 62
     7
 10
11.633196947847541
 20
4.9173377435851231
 30
0.0
 11
11.633196947847541
 21
4.7552882022619203
 31
0.0
  0
LINE
  5
1A9
  8
0
  6
CONTINUOUS
 62
     7
 10
12.062520081603401
 20
4.712034941927274
 30
0.0
 11
11.830329777218941
 21
4.7099323528832286
 31
0.0
  0
LINE
  5
1AA
  8
0
  6
CONTINUOUS
 62
     7
 10
12.062520081603401
 20
4.7237493666012407
 30
0.0
 11
12.062520081603401
 21
4.712034941927274
 31
0.0
  0
LINE
  5
1AB
  8
0
  6
CONTINUOUS
 62
     7
 10
11.613511868584579
 20
4.951429723085
 30
0.0
 11
11.613511868584579
 21
4.9245466203075638
 31
0.0
  0
LINE
  5
1AC
  8
0
  6
CONTINUOUS
 62
     7
 10
11.633196947847541
 20
4.951429723085
 30
0.0
 11
11.633196947847541
 21
4.9245466203075638
 31
0.0
  0
LINE
  5
1AD
  8
0
  6
CONTINUOUS
 62
     7
 10
11.613511868584579
 20
5.0498008533599759
 30
0.0
 11
11.613511868584579
 21
5.0425919766375351
 31
0.0
  0
LINE
  5
1AE
  8
0
  6
CONTINUOUS
 62
     7
 10
11.633196947847541
 20
5.0498008533599759
 30
0.0
 11
11.633196947847541
 21
5.0425919766375351
 31
0.0
  0
LINE
  5
1AF
  8
0
  6
CONTINUOUS
 62
     7
 10
11.613511868584579
 20
4.9245466203075638
 30
0.0
 11
11.613511868584579
 21
4.9173377435851231
 31
0.0
  0
LINE
  5
1B0
  8
0
  6
CONTINUOUS
 62
     7
 10
11.633196947847541
 20
4.9245466203075638
 30
0.0
 11
11.633196947847541
 21
4.9173377435851231
 31
0.0
  0
LINE
  5
1B1
  8
0
  6
CONTINUOUS
 62
     7
 10
11.8300474471471
 20
5.207945586458524
 30
0.0
 11
11.8300474471471
 21
4.7664018872090157
 31
0.0
  0
LINE
  5
1B2
  8
0
  6
CONTINUOUS
 62
     7
 10
11.987699532603431
 20
5.2558545796764129
 30
0.0
 11
11.96784270865782
 21
5.2560047646081314
 31
0.0
  0
ARC
  5
1B3
  8
0
  6
CONTINUOUS
 62
     7
 10
11.987615292022459
 20
5.2362571816415651
 30
0.0
 40
0.019597579090587
 50
359.77538385952192
 51
89.753712201148844
  0
LINE
  5
1B4
  8
0
  6
CONTINUOUS
 62
     7
 10
12.00721272051875
 20
4.7860761132640111
 30
0.0
 11
12.00721272051875
 21
4.8393917640237314
 31
0.0
  0
LINE
  5
1B5
  8
0
  6
CONTINUOUS
 62
     7
 10
12.00721272051875
 20
5.1128785246813351
 30
0.0
 11
12.00721272051875
 21
5.2361803536214184
 31
0.0
  0
ARC
  5
1B6
  8
0
  6
CONTINUOUS
 62
     7
 10
11.987472823131659
 20
4.786140587993482
 30
0.0
 40
0.0197400026809367
 50
270.65804355182053
 51
359.81286038751392
  0
LINE
  5
1B7
  8
0
  6
CONTINUOUS
 62
     7
 10
11.984297345239121
 20
4.7664018872090157
 30
0.0
 11
11.987699532603431
 21
4.7664018872090157
 31
0.0
  0
LINE
  5
1B8
  8
0
  6
CONTINUOUS
 62
     7
 10
11.57414185672366
 20
5.2098979905708509
 30
0.0
 11
11.57414185672366
 21
4.7572406063742481
 31
0.0
  0
LINE
  5
1B9
  8
0
  6
CONTINUOUS
 62
     7
 10
10.6705985445331
 20
7.2073575824138629
 30
0.0
 11
10.6705985445331
 21
5.7507139296856407
 31
0.0
  0
LINE
  5
1BA
  8
0
  6
CONTINUOUS
 62
     7
 10
10.6705985445331
 20
5.7507139296856407
 30
0.0
 11
10.680441084164579
 21
5.7507139296856407
 31
0.0
  0
LINE
  5
1BB
  8
0
  6
CONTINUOUS
 62
     7
 10
10.680441084164579
 20
7.3058788976205573
 30
0.0
 11
10.680441084164579
 21
7.2073575824138629
 31
0.0
  0
LINE
  5
1BC
  8
0
  6
CONTINUOUS
 62
     7
 10
10.58201587118103
 20
7.266380260578849
 30
0.0
 11
10.58201587118103
 21
7.3058788976205573
 31
0.0
  0
LINE
  5
1BD
  8
0
  6
CONTINUOUS
 62
     7
 10
10.58201587118103
 20
5.6521926144789481
 30
0.0
 11
10.58201587118103
 21
5.681779046027299
 31
0.0
  0
LINE
  5
1BE
  8
0
  6
CONTINUOUS
 62
     7
 10
10.58201587118103
 20
5.681779046027299
 30
0.0
 11
10.59185841081251
 21
5.681779046027299
 31
0.0
  0
LINE
  5
1BF
  8
0
  6
CONTINUOUS
 62
     7
 10
10.59185841081251
 20
5.681779046027299
 30
0.0
 11
10.59185841081251
 21
7.266380260578849
 31
0.0
  0
LINE
  5
1C0
  8
0
  6
CONTINUOUS
 62
     7
 10
10.680441084164579
 20
5.6521926144789481
 30
0.0
 11
10.58201587118103
 21
5.6521926144789481
 31
0.0
  0
LINE
  5
1C1
  8
0
  6
CONTINUOUS
 62
     7
 10
10.680441084164579
 20
5.7507139296856407
 30
0.0
 11
10.680441084164579
 21
5.6521926144789481
 31
0.0
  0
LINE
  5
1C2
  8
0
  6
CONTINUOUS
 62
     7
 10
10.59185841081251
 20
7.266380260578849
 30
0.0
 11
10.58201587118103
 21
7.266380260578849
 31
0.0
  0
LINE
  5
1C3
  8
0
  6
CONTINUOUS
 62
     7
 10
10.680441084164579
 20
7.2073575824138629
 30
0.0
 11
10.6705985445331
 21
7.2073575824138629
 31
0.0
  0
LINE
  5
1C4
  8
0
  6
CONTINUOUS
 62
     7
 10
10.58201587118103
 20
7.3058788976205573
 30
0.0
 11
10.680441084164579
 21
7.3058788976205573
 31
0.0
  0
LINE
  5
1C5
  8
0
  6
CONTINUOUS
 62
     7
 10
10.747370214326891
 20
7.2998715003518564
 30
0.0
 11
10.747370214326891
 21
7.3058788976205573
 31
0.0
  0
LINE
  5
1C6
  8
0
  6
CONTINUOUS
 62
     7
 10
10.747370214326891
 20
7.3058788976205573
 30
0.0
 11
10.77492925929578
 21
7.3058788976205573
 31
0.0
  0
LINE
  5
1C7
  8
0
  6
CONTINUOUS
 62
     7
 10
10.77492925929578
 20
7.3058788976205573
 30
0.0
 11
10.780834761074919
 21
7.2998715003518564
 31
0.0
  0
LINE
  5
1C8
  8
0
  6
CONTINUOUS
 62
     7
 10
10.794614301892491
 20
5.7507139296856407
 30
0.0
 11
10.794614301892491
 21
5.6720170254656601
 31
0.0
  0
LINE
  5
1C9
  8
0
  6
CONTINUOUS
 62
     7
 10
10.794614301892491
 20
5.6720170254656601
 30
0.0
 11
10.77492925929578
 21
5.6521926144789481
 31
0.0
  0
LINE
  5
1CA
  8
0
  6
CONTINUOUS
 62
     7
 10
10.77492925929578
 20
5.6521926144789481
 30
0.0
 11
10.747370214326891
 21
5.6521926144789481
 31
0.0
  0
LINE
  5
1CB
  8
0
  6
CONTINUOUS
 62
     7
 10
10.747370214326891
 20
5.6521926144789481
 30
0.0
 11
10.747370214326891
 21
5.6916912515206546
 31
0.0
  0
LINE
  5
1CC
  8
0
  6
CONTINUOUS
 62
     7
 10
10.747370214326891
 20
5.6916912515206546
 30
0.0
 11
10.7394962119547
 21
5.6916912515206546
 31
0.0
  0
LINE
  5
1CD
  8
0
  6
CONTINUOUS
 62
     7
 10
10.794614301892491
 20
5.7507139296856407
 30
0.0
 11
10.7394962119547
 21
5.7507139296856407
 31
0.0
  0
LINE
  5
1CE
  8
0
  6
CONTINUOUS
 62
     7
 10
10.6705985445331
 20
6.3790876839917434
 30
0.0
 11
10.680441084164579
 21
6.3795382387868962
 31
0.0
  0
LINE
  5
1CF
  8
0
  6
CONTINUOUS
 62
     7
 10
10.7670552569236
 20
6.3829924922163981
 30
0.0
 11
10.794614301892491
 21
6.3841939716701388
 31
0.0
  0
LINE
  5
1D0
  8
0
  6
CONTINUOUS
 62
     7
 10
10.794614301892491
 20
6.5738775404293648
 30
0.0
 11
10.7670552569236
 21
6.5750790198831064
 31
0.0
  0
LINE
  5
1D1
  8
0
  6
CONTINUOUS
 62
     7
 10
10.680441084164579
 20
6.5785332733126092
 30
0.0
 11
10.6705985445331
 21
6.5789838281077611
 31
0.0
  0
LINE
  5
1D2
  8
0
  6
CONTINUOUS
 62
     7
 10
10.794614301892491
 20
6.5738775404293648
 30
0.0
 11
10.794614301892491
 21
6.3841939716701388
 31
0.0
  0
LINE
  5
1D3
  8
0
  6
CONTINUOUS
 62
     7
 10
10.58201587118103
 20
5.681779046027299
 30
0.0
 11
10.58201587118103
 21
7.266380260578849
 31
0.0
  0
LINE
  5
1D4
  8
0
  6
CONTINUOUS
 62
     7
 10
12.57807884582455
 20
8.2545971112801286
 30
0.0
 11
12.85366951551096
 21
8.2497911934651693
 31
0.0
  0
LINE
  5
1D5
  8
0
  6
CONTINUOUS
 62
     7
 10
12.85366951551096
 20
8.2497911934651693
 30
0.0
 11
12.85366951551096
 21
8.1710942892451879
 31
0.0
  0
LINE
  5
1D6
  8
0
  6
CONTINUOUS
 62
     7
 10
12.85366951551096
 20
8.1710942892451879
 30
0.0
 11
12.65681901621139
 21
8.1710942892451879
 31
0.0
  0
LINE
  5
1D7
  8
0
  6
CONTINUOUS
 62
     7
 10
12.65681901621139
 20
8.1710942892451879
 30
0.0
 11
12.65681901621139
 21
7.5608929116769064
 31
0.0
  0
LINE
  5
1D8
  8
0
  6
CONTINUOUS
 62
     7
 10
12.65681901621139
 20
7.5608929116769064
 30
0.0
 11
12.85366951551096
 21
7.5608929116769064
 31
0.0
  0
LINE
  5
1D9
  8
0
  6
CONTINUOUS
 62
     7
 10
12.85366951551096
 20
7.5608929116769064
 30
0.0
 11
12.85366951551096
 21
7.4820458225252082
 31
0.0
  0
LINE
  5
1DA
  8
0
  6
CONTINUOUS
 62
     7
 10
12.85366951551096
 20
7.4820458225252082
 30
0.0
 11
12.65681901621139
 21
7.4820458225252082
 31
0.0
  0
LINE
  5
1DB
  8
0
  6
CONTINUOUS
 62
     7
 10
12.65681901621139
 20
7.4820458225252082
 30
0.0
 11
12.65681901621139
 21
5.9807972450768814
 31
0.0
  0
LINE
  5
1DC
  8
0
  6
CONTINUOUS
 62
     7
 10
12.65681901621139
 20
5.9807972450768814
 30
0.0
 11
12.676504095474341
 21
5.9807972450768814
 31
0.0
  0
LINE
  5
1DD
  8
0
  6
CONTINUOUS
 62
     7
 10
12.676504095474341
 20
5.9807972450768814
 30
0.0
 11
12.676504095474341
 21
5.9021003408568999
 31
0.0
  0
LINE
  5
1DE
  8
0
  6
CONTINUOUS
 62
     7
 10
12.676504095474341
 20
5.9021003408568999
 30
0.0
 11
12.65681901621139
 21
5.9021003408568999
 31
0.0
  0
LINE
  5
1DF
  8
0
  6
CONTINUOUS
 62
     7
 10
12.65681901621139
 20
5.9021003408568999
 30
0.0
 11
12.65681901621139
 21
5.7896118270004777
 31
0.0
  0
LINE
  5
1E0
  8
0
  6
CONTINUOUS
 62
     7
 10
12.65681901621139
 20
5.7896118270004777
 30
0.0
 11
12.85366951551096
 21
5.7861575735709749
 31
0.0
  0
LINE
  5
1E1
  8
0
  6
CONTINUOUS
 62
     7
 10
12.85366951551096
 20
5.7861575735709749
 30
0.0
 11
12.85366951551096
 21
4.708280318634336
 31
0.0
  0
LINE
  5
1E2
  8
0
  6
CONTINUOUS
 62
     7
 10
12.85366951551096
 20
4.708280318634336
 30
0.0
 11
12.57807884582455
 21
4.703474400819375
 31
0.0
  0
LINE
  5
1E3
  8
0
  6
CONTINUOUS
 62
     7
 10
12.57807884582455
 20
4.703474400819375
 30
0.0
 11
12.57807884582455
 21
4.7703066954336721
 31
0.0
  0
LINE
  5
1E4
  8
0
  6
CONTINUOUS
 62
     7
 10
12.47965374283975
 20
4.829479558530374
 30
0.0
 11
12.794614277722101
 21
4.829479558530374
 31
0.0
  0
LINE
  5
1E5
  8
0
  6
CONTINUOUS
 62
     7
 10
12.794614277722101
 20
4.829479558530374
 30
0.0
 11
12.794614277722101
 21
5.7073104844192768
 31
0.0
  0
LINE
  5
1E6
  8
0
  6
CONTINUOUS
 62
     7
 10
12.794614277722101
 20
5.7073104844192768
 30
0.0
 11
12.57807884582455
 21
5.7073104844192768
 31
0.0
  0
LINE
  5
1E7
  8
0
  6
CONTINUOUS
 62
     7
 10
12.57807884582455
 20
5.7073104844192768
 30
0.0
 11
12.57807884582455
 21
8.1285919535691313
 31
0.0
  0
LINE
  5
1E8
  8
0
  6
CONTINUOUS
 62
     7
 10
12.57807884582455
 20
8.1285919535691313
 30
0.0
 11
12.47965374283975
 21
8.1285919535691313
 31
0.0
  0
LINE
  5
1E9
  8
0
  6
CONTINUOUS
 62
     7
 10
12.57807884582455
 20
8.1877648166658332
 30
0.0
 11
12.57807884582455
 21
8.2545971112801286
 31
0.0
  0
LINE
  5
1EA
  8
0
  6
CONTINUOUS
 62
     7
 10
12.47965374283975
 20
8.1285919535691313
 30
0.0
 11
12.47965374283975
 21
8.1679404056791203
 31
0.0
  0
LINE
  5
1EB
  8
0
  6
CONTINUOUS
 62
     7
 10
12.47965374283975
 20
4.7901311064203851
 30
0.0
 11
12.47965374283975
 21
4.829479558530374
 31
0.0
  0
ARC
  5
1EC
  8
0
  6
CONTINUOUS
 62
     7
 10
12.499338713502979
 20
8.1680088589458322
 30
0.0
 40
0.0196850393701738
 50
90.0
 51
180.0
  0
LINE
  5
1ED
  8
0
  6
CONTINUOUS
 62
     7
 10
12.57807884582455
 20
4.7703066954336721
 30
0.0
 11
12.49933867543772
 21
4.7703066954336721
 31
0.0
  0
LINE
  5
1EE
  8
0
  6
CONTINUOUS
 62
     7
 10
12.49933867543772
 20
8.1877648166658332
 30
0.0
 11
12.57807884582455
 21
8.1877648166658332
 31
0.0
  0
ARC
  5
1EF
  8
0
  6
CONTINUOUS
 62
     7
 10
12.499338713502979
 20
4.790056103040639
 30
0.0
 40
0.0196850393701729
 50
180.0
 51
270.0000000000008
  0
LINE
  5
1F0
  8
0
  6
CONTINUOUS
 62
     7
 10
12.85366951551096
 20
7.954527617708524
 30
0.0
 11
12.65681901621139
 21
7.954527617708524
 31
0.0
  0
LINE
  5
1F1
  8
0
  6
CONTINUOUS
 62
     7
 10
12.85366951551096
 20
7.5608929116769064
 30
0.0
 11
12.85366951551096
 21
7.954527617708524
 31
0.0
  0
LINE
  5
1F2
  8
0
  6
CONTINUOUS
 62
     7
 10
12.794614277722101
 20
4.904271654525699
 30
0.0
 11
12.61744900435046
 21
4.904271654525699
 31
0.0
  0
LINE
  5
1F3
  8
0
  6
CONTINUOUS
 62
     7
 10
12.61744900435046
 20
4.904271654525699
 30
0.0
 11
12.61744900435046
 21
4.829479558530374
 31
0.0
  0
LINE
  5
1F4
  8
0
  6
CONTINUOUS
 62
     7
 10
12.81429935698505
 20
7.4156640827060629
 30
0.0
 11
12.81429935698505
 21
7.4746867608710481
 31
0.0
  0
LINE
  5
1F5
  8
0
  6
CONTINUOUS
 62
     7
 10
12.81429935698505
 20
7.3919348634946962
 30
0.0
 11
12.81429935698505
 21
7.4156640827060629
 31
0.0
  0
LINE
  5
1F6
  8
0
  6
CONTINUOUS
 62
     7
 10
12.81429935698505
 20
7.332912185329711
 30
0.0
 11
12.81429935698505
 21
7.3919348634946962
 31
0.0
  0
LINE
  5
1F7
  8
0
  6
CONTINUOUS
 62
     7
 10
12.85366951551096
 20
7.4820458225252082
 30
0.0
 11
12.833984436248
 21
7.4800934184128796
 31
0.0
  0
LINE
  5
1F8
  8
0
  6
CONTINUOUS
 62
     7
 10
12.85366951551096
 20
7.954527617708524
 30
0.0
 11
12.85366951551096
 21
8.1710942892451879
 31
0.0
  0
LINE
  5
1F9
  8
0
  6
CONTINUOUS
 62
     7
 10
12.774323765453159
 20
5.8924885052269786
 30
0.0
 11
12.715274687593149
 21
5.7885605324784546
 31
0.0
  0
LINE
  5
1FA
  8
0
  6
CONTINUOUS
 62
     7
 10
12.85366951551096
 20
5.8924885052269786
 30
0.0
 11
12.774323765453159
 21
5.8924885052269786
 31
0.0
  0
LINE
  5
1FB
  8
0
  6
CONTINUOUS
 62
     7
 10
12.85366951551096
 20
5.7861575735709749
 30
0.0
 11
12.85366951551096
 21
5.8924885052269786
 31
0.0
  0
LINE
  5
1FC
  8
0
  6
CONTINUOUS
 62
     7
 10
12.700986879313801
 20
5.7888609023418898
 30
0.0
 11
12.73555903993325
 21
5.8924885052269786
 31
0.0
  0
LINE
  5
1FD
  8
0
  6
CONTINUOUS
 62
     7
 10
12.73555903993325
 20
5.8924885052269786
 30
0.0
 11
12.774323765453159
 21
5.8924885052269786
 31
0.0
  0
LINE
  5
1FE
  8
0
  6
CONTINUOUS
 62
     7
 10
12.597763925087509
 20
5.7073104844192768
 30
0.0
 11
12.597763925087509
 21
4.829479558530374
 31
0.0
  0
LINE
  5
1FF
  8
0
  6
CONTINUOUS
 62
     7
 10
12.65681901621139
 20
7.203602959120925
 30
0.0
 11
12.664031266228189
 21
7.2057055481649721
 31
0.0
  0
LINE
  5
200
  8
0
  6
CONTINUOUS
 62
     7
 10
12.66863009310215
 20
7.2070572125504286
 30
0.0
 11
12.677154701291821
 21
7.2096103563896259
 31
0.0
  0
LINE
  5
201
  8
0
  6
CONTINUOUS
 62
     7
 10
12.833984436248
 20
7.256618240017211
 30
0.0
 11
12.85366951551096
 21
7.262625637285911
 31
0.0
  0
LINE
  5
202
  8
0
  6
CONTINUOUS
 62
     7
 10
12.85366951551096
 20
7.262625637285911
 30
0.0
 11
12.85366951551096
 21
7.4820458225252082
 31
0.0
  0
INSERT
  5
203
  8
0
  6
CONTINUOUS
 62
     7
  2
*X45
 10
0.0
 20
0.0
 30
0.0
1001
ACAD
1000
HATCH
1002
{
1070
    19
1000
ANSI31
1040
1.25
1040
0.0
1000
R14_HATCH_DATA
1000
203
1011
1.0
1021
0.0
1031
0.0
1021
0.0
1031
0.0
1011
0.0
1021
0.0
1031
0.0
1021
1.0
1031
0.0
1011
0.0
1021
0.0
1031
0.0
1021
0.0
1031
1.0
1040
0.0
1010
0.0
1020
0.0
1030
1.0
1000
ANSI31
1070
     0
1070
     0
1071
        1
1071
        0
1071
       28
1070
     1
1040
12.57807887098329
1040
8.2546230321781824
1040
12.57807887098329
1040
8.1876938983196492
1070
     1
1040
12.57807887098329
1040
8.1876938983196492
1040
12.499338713502979
1040
8.1876938983196492
1070
     2
1040
12.499338713502979
1040
8.1680088589494435
1040
0.0196850393700788
1040
1.5707963267948959
1040
3.1415926535897931
1070
     1
1070
     1
1040
12.4796536741329
1040
8.1680088589494435
1040
12.4796536741329
1040
8.1286387802093785
1070
     1
1040
12.4796536741329
1040
8.1286387802093785
1040
12.57807887098329
1040
8.1286387802093785
1070
     1
1040
12.57807887098329
1040
8.1286387802093785
1040
12.57807887098329
1040
5.7073789376895654
1070
     1
1040
12.57807887098329
1040
5.7073789376895654
1040
12.794614304054161
1040
5.7073789376895654
1070
     1
1040
12.794614304054161
1040
5.7073789376895654
1040
12.794614304054161
1040
4.8294261817842461
1070
     1
1040
12.794614304054161
1040
4.8294261817842461
1040
12.4796536741329
1040
4.8294261817842461
1070
     1
1040
12.4796536741329
1040
4.8294261817842461
1040
12.4796536741329
1040
4.7900561030441811
1070
     2
1040
12.499338713502979
1040
4.7900561030441811
1040
0.0196850393700788
1040
3.1415926535897931
1040
4.712388980384703
1070
     1
1070
     1
1040
12.499338713502979
1040
4.7703710636741476
1040
12.57807887098329
1040
4.7703710636741476
1070
     1
1040
12.57807887098329
1040
4.7703710636741476
1040
12.57807887098329
1040
4.7034419298152672
1070
     1
1040
12.57807887098329
1040
4.7034419298152672
1040
12.853669422164391
1040
4.7082523807798662
1070
     1
1040
12.853669422164391
1040
4.7082523807798662
1040
12.853669422164391
1040
5.786205136685691
1070
     1
1040
12.853669422164391
1040
5.786205136685691
1040
12.656819028463611
1040
5.7896411730887758
1070
     1
1040
12.656819028463611
1040
5.7896411730887758
1040
12.656819028463611
1040
5.9020963832337392
1070
     1
1040
12.656819028463611
1040
5.9020963832337392
1040
12.67650406783369
1040
5.9020963832337392
1070
     1
1040
12.67650406783369
1040
5.9020963832337392
1040
12.67650406783369
1040
5.980836540714046
1070
     1
1040
12.67650406783369
1040
5.980836540714046
1040
12.656819028463611
1040
5.980836540714046
1070
     1
1040
12.656819028463611
1040
5.980836540714046
1040
12.656819028463611
1040
7.482096045780378
1070
     1
1040
12.656819028463611
1040
7.482096045780378
1040
12.853669422164391
1040
7.482096045780378
1070
     1
1040
12.853669422164391
1040
7.482096045780378
1040
12.853669422164391
1040
7.560836203260509
1070
     1
1040
12.853669422164391
1040
7.560836203260509
1040
12.656819028463611
1040
7.560836203260334
1070
     1
1040
12.656819028463611
1040
7.560836203260334
1040
12.656819028463611
1040
8.1710724237334524
1070
     1
1040
12.656819028463611
1040
8.1710724237334524
1040
12.853669422164391
1040
8.1710724237331025
1070
     1
1040
12.853669422164391
1040
8.1710724237331025
1040
12.853669422164391
1040
8.2498125812135825
1070
     1
1040
12.853669422164391
1040
8.2498125812135825
1040
12.57807887098329
1040
8.2546230321781824
1071
        0
1070
     0
1070
     1
1040
0.0
1040
1.25
1070
     0
1070
     1
1040
0.7853981633974483
1040
0.0
1040
0.0
1040
-0.110485434560398
1040
0.110485434560398
1070
     0
1071
        1
1040
0.0
1040
0.0
1040
0.0
1002
}
  0
INSERT
  5
204
  8
0
  6
CONTINUOUS
 62
     7
  2
*X46
 10
0.0
 20
0.0
 30
0.0
1001
ACAD
1000
HATCH
1002
{
1070
    19
1000
ANSI31
1040
1.25
1040
0.0
1000
R14_HATCH_DATA
1000
204
1011
1.0
1021
0.0
1031
0.0
1021
0.0
1031
0.0
1011
0.0
1021
0.0
1031
0.0
1021
1.0
1031
0.0
1011
0.0
1021
0.0
1031
0.0
1021
0.0
1031
1.0
1040
0.0
1010
0.0
1020
0.0
1030
1.0
1000
ANSI31
1070
     0
1070
     0
1071
        1
1071
        0
1071
       12
1070
     1
1040
10.591858398542341
1040
7.2664340558000502
1040
10.591858398542341
1040
5.6817883865087317
1070
     1
1040
10.591858398542341
1040
5.6817883865087317
1040
10.5820158788573
1040
5.6817883865087317
1070
     1
1040
10.5820158788573
1040
5.6817883865087317
1040
10.5820158788573
1040
5.6522608274538584
1070
     1
1040
10.5820158788573
1040
5.6522608274538584
1040
10.680441075707691
1040
5.6522608274538584
1070
     1
1040
10.680441075707691
1040
5.6522608274538584
1040
10.680441075707691
1040
5.7506860243040219
1070
     1
1040
10.680441075707691
1040
5.7506860243040219
1040
10.67059855602265
1040
5.7506860243040219
1070
     1
1040
10.67059855602265
1040
5.7506860243040219
1040
10.67059855602265
1040
7.2073789376899509
1070
     1
1040
10.67059855602265
1040
7.2073789376899509
1040
10.680441075707691
1040
7.2073789376899509
1070
     1
1040
10.680441075707691
1040
7.2073789376899509
1040
10.680441075707691
1040
7.3058041345399412
1070
     1
1040
10.680441075707691
1040
7.3058041345399412
1040
10.5820158788573
1040
7.3058041345399412
1070
     1
1040
10.5820158788573
1040
7.3058041345399412
1040
10.5820158788573
1040
7.2664340558000502
1070
     1
1040
10.5820158788573
1040
7.2664340558000502
1040
10.591858398542341
1040
7.2664340558000502
1071
        0
1070
     0
1070
     1
1040
0.0
1040
1.25
1070
     0
1070
     1
1040
0.7853981633974483
1040
0.0
1040
0.0
1040
-0.110485434560398
1040
0.110485434560398
1070
     0
1071
        1
1040
0.0
1040
0.0
1040
0.0
1002
}
  0
INSERT
  5
205
  8
0
  6
CONTINUOUS
 62
     7
  2
*X47
 10
0.0
 20
0.0
 30
0.0
1001
ACAD
1000
HATCH
1002
{
1070
    19
1000
ANSI31
1040
1.25
1040
0.0
1000
R14_HATCH_DATA
1000
205
1011
1.0
1021
0.0
1031
0.0
1021
0.0
1031
0.0
1011
0.0
1021
0.0
1031
0.0
1021
1.0
1031
0.0
1011
0.0
1021
0.0
1031
0.0
1021
0.0
1031
1.0
1040
0.0
1010
0.0
1020
0.0
1030
1.0
1000
ANSI31
1070
     0
1070
     0
1071
        1
1071
        0
1071
        4
1070
     1
1040
11.633196981219511
1040
4.9514388596077286
1040
11.633196981219511
1040
5.015744963493332
1070
     1
1040
11.633196981219511
1040
5.015744963493332
1040
11.613511941849429
1040
5.015744963493332
1070
     1
1040
11.613511941849429
1040
5.015744963493332
1040
11.613511941849429
1040
4.9514388596077286
1070
     1
1040
11.613511941849429
1040
4.9514388596077286
1040
11.633196981219511
1040
4.9514388596077286
1071
        0
1070
     0
1070
     1
1040
0.0
1040
1.25
1070
     0
1070
     1
1040
0.7853981633974483
1040
0.0
1040
0.0
1040
-0.110485434560398
1040
0.110485434560398
1070
     0
1071
        1
1040
0.0
1040
0.0
1040
0.0
1002
}
  0
INSERT
  5
206
  8
0
  6
CONTINUOUS
 62
     7
  2
*X48
 10
0.0
 20
0.0
 30
0.0
1001
ACAD
1000
HATCH
1002
{
1070
    19
1000
ANSI31
1040
1.25
1040
0.0
1000
R14_HATCH_DATA
1000
206
1011
1.0
1021
0.0
1031
0.0
1021
0.0
1031
0.0
1011
0.0
1021
0.0
1031
0.0
1021
1.0
1031
0.0
1011
0.0
1021
0.0
1031
0.0
1021
0.0
1031
1.0
1040
0.0
1010
0.0
1020
0.0
1030
1.0
1000
ANSI31
1070
     0
1070
     0
1071
        1
1071
        0
1071
        9
1070
     1
1040
11.59382690247935
1040
5.2099698643059957
1040
11.59382690247935
1040
5.0497872697355071
1070
     1
1040
11.59382690247935
1040
5.0497872697355071
1040
11.633196981219511
1040
5.0497872697355071
1070
     1
1040
11.633196981219511
1040
5.0497872697355071
1040
11.633196981219511
1040
5.2080013228907314
1070
     1
1040
11.633196981219511
1040
5.2080013228907314
1040
11.96784265051085
1040
5.2080013228907314
1070
     1
1040
11.96784265051085
1040
5.2080013228907314
1040
11.96784265051085
1040
5.2572139213158131
1070
     1
1040
11.96784265051085
1040
5.2572139213158131
1040
11.8300473749203
1040
5.2572139213158131
1070
     1
1040
11.8300473749203
1040
5.2572139213158131
1040
11.57414186310927
1040
5.2549806677472128
1070
     1
1040
11.57414186310927
1040
5.2549806677472128
1040
11.57414186310927
1040
5.2099698643059957
1070
     1
1040
11.57414186310927
1040
5.2099698643059957
1040
11.59382690247935
1040
5.2099698643059957
1071
        0
1070
     0
1070
     1
1040
0.0
1040
1.25
1070
     0
1070
     1
1040
0.7853981633974483
1040
0.0
1040
0.0
1040
-0.110485434560398
1040
0.110485434560398
1070
     0
1071
        1
1040
0.0
1040
0.0
1040
0.0
1002
}
  0
INSERT
  5
207
  8
0
  6
CONTINUOUS
 62
     7
  2
*X49
 10
0.0
 20
0.0
 30
0.0
1001
ACAD
1000
HATCH
1002
{
1070
    19
1000
ANSI31
1040
1.25
1040
0.0
1000
R14_HATCH_DATA
1000
207
1011
1.0
1021
0.0
1031
0.0
1021
0.0
1031
0.0
1011
0.0
1021
0.0
1031
0.0
1021
1.0
1031
0.0
1011
0.0
1021
0.0
1031
0.0
1021
0.0
1031
1.0
1040
0.0
1010
0.0
1020
0.0
1030
1.0
1000
ANSI31
1070
     0
1070
     0
1071
        1
1071
        0
1071
       11
1070
     1
1040
12.33811063490289
1040
4.7237493543869444
1040
12.33811063490289
1040
4.7552454173789256
1070
     1
1040
12.33811063490289
1040
4.7552454173789256
1040
11.633196981219511
1040
4.7552454173789256
1070
     1
1040
11.633196981219511
1040
4.7552454173789256
1040
11.633196981219511
1040
4.9173965533655561
1070
     1
1040
11.633196981219511
1040
4.9173965533655561
1040
11.59382690247935
1040
4.9173965533655561
1070
     1
1040
11.59382690247935
1040
4.9173965533655561
1040
11.59382690247935
1040
4.7572139587945408
1070
     1
1040
11.59382690247935
1040
4.7572139587945408
1040
11.57414186310927
1040
4.7572139587945408
1070
     1
1040
11.57414186310927
1040
4.7572139587945408
1040
11.57414186310927
1040
4.7122031553538477
1070
     1
1040
11.57414186310927
1040
4.7122031553538477
1040
11.830329712718219
1040
4.7099674378606471
1070
     1
1040
11.830329712718219
1040
4.7099674378606471
1040
12.06252008372179
1040
4.7119937325307593
1070
     1
1040
12.06252008372179
1040
4.7119937325307593
1040
12.06252008372179
1040
4.7237493543869444
1070
     1
1040
12.06252008372179
1040
4.7237493543869444
1040
12.33811063490289
1040
4.7237493543869444
1071
        0
1070
     0
1070
     1
1040
0.0
1040
1.25
1070
     0
1070
     1
1040
0.7853981633974483
1040
0.0
1040
0.0
1040
-0.110485434560398
1040
0.110485434560398
1070
     0
1071
        1
1040
0.0
1040
0.0
1040
0.0
1002
}
  0
INSERT
  5
208
  8
0
  6
CONTINUOUS
 62
     7
  2
*X50
 10
0.0
 20
0.0
 30
0.0
1001
ACAD
1000
HATCH
1002
{
1070
    19
1000
ANSI31
1040
1.25
1040
0.0
1000
R14_HATCH_DATA
1000
208
1011
1.0
1021
0.0
1031
0.0
1021
0.0
1031
0.0
1011
0.0
1021
0.0
1031
0.0
1021
1.0
1031
0.0
1011
0.0
1021
0.0
1031
0.0
1021
0.0
1031
1.0
1040
0.0
1010
0.0
1020
0.0
1030
1.0
1000
ANSI31
1070
     0
1070
     0
1071
        1
1071
        0
1071
        4
1070
     1
1040
12.57807887098329
1040
8.1916309061935184
1040
12.57807887098329
1040
8.2546230321781824
1070
     1
1040
12.57807887098329
1040
8.2546230321781824
1040
12.341857512680569
1040
8.2525615596149251
1070
     1
1040
12.341857512680569
1040
8.2525615596149251
1040
12.341857512680569
1040
8.1916309061935184
1070
     1
1040
12.341857512680569
1040
8.1916309061935184
1040
12.57807887098329
1040
8.1916309061935184
1071
        0
1070
     0
1070
     1
1040
0.0
1040
1.25
1070
     0
1070
     1
1040
0.7853981633974483
1040
0.0
1040
0.0
1040
-0.110485434560398
1040
0.110485434560398
1070
     0
1071
        1
1040
0.0
1040
0.0
1040
0.0
1002
}
  0
INSERT
  5
209
  8
0
  6
CONTINUOUS
 62
     7
  2
*X51
 10
0.0
 20
0.0
 30
0.0
1001
ACAD
1000
HATCH
1002
{
1070
    19
1000
ANSI31
1040
1.25
1040
0.0
1000
R14_HATCH_DATA
1000
209
1011
1.0
1021
0.0
1031
0.0
1021
0.0
1031
0.0
1011
0.0
1021
0.0
1031
0.0
1021
1.0
1031
0.0
1011
0.0
1021
0.0
1031
0.0
1021
0.0
1031
1.0
1040
0.0
1010
0.0
1020
0.0
1030
1.0
1000
ANSI31
1070
     0
1070
     0
1071
        1
1071
        0
1071
       14
1070
     1
1040
11.830047374920291
1040
5.2585600400519761
1040
11.83004737492031
1040
5.3176174068854181
1070
     1
1040
11.83004737492031
1040
5.3176174068854181
1040
11.02296076074707
1040
5.3246607450633761
1070
     1
1040
11.02296076074707
1040
5.3246607450633761
1040
11.02296076074707
1040
5.645842198157899
1070
     1
1040
11.02296076074707
1040
5.645842198157899
1040
10.73949619381793
1040
5.6483159559570284
1070
     1
1040
10.73949619381793
1040
5.6483159559570284
1040
10.73949619381793
1040
5.7211584652486227
1070
     1
1040
10.73949619381793
1040
5.7211584652486227
1040
10.680441075707691
1040
5.7211584652486227
1070
     1
1040
10.680441075707691
1040
5.7211584652486227
1040
10.680441075707691
1040
5.6483238195792911
1070
     1
1040
10.680441075707691
1040
5.6483238195792911
1040
10.58988989460533
1040
5.6483238195792911
1070
     1
1040
10.58988989460533
1040
5.6483238195792911
1040
10.58988989460533
1040
5.6022725836421872
1070
     2
1040
10.60170091822738
1040
5.6022725836421872
1040
0.0118110236221596
1040
3.1415926535897931
1040
4.7036623341247452
1070
     1
1070
     1
1040
10.601597848910471
1040
5.5904620097476307
1040
10.96390564263683
1040
5.5873001975317349
1070
     1
1040
10.96390564263683
1040
5.5873001975317349
1040
10.96390564263683
1040
5.2778271445627611
1070
     2
1040
10.97571666625889
1040
5.2778271445627611
1040
0.0118110236221596
1040
3.1415926535897931
1040
4.7036623341237132
1070
     1
1070
     1
1040
10.975613596941971
1040
5.2660165706683797
1040
11.830047374920291
1040
5.2585600400519761
1071
        0
1070
     0
1070
     1
1040
0.0
1040
1.25
1070
     0
1070
     1
1040
0.7853981633974483
1040
0.0
1040
0.0
1040
-0.110485434560398
1040
0.110485434560398
1070
     0
1071
        1
1040
0.0
1040
0.0
1040
0.0
1002
}
  0
INSERT
  5
20A
  8
0
  6
CONTINUOUS
 62
     7
  2
*X52
 10
0.0
 20
0.0
 30
0.0
1001
ACAD
1000
HATCH
1002
{
1070
    19
1000
ANSI31
1040
1.25
1040
0.0
1000
R14_HATCH_DATA
1000
20A
1011
1.0
1021
0.0
1031
0.0
1021
0.0
1031
0.0
1011
0.0
1021
0.0
1031
0.0
1021
1.0
1031
0.0
1011
0.0
1021
0.0
1031
0.0
1021
0.0
1031
1.0
1040
0.0
1010
0.0
1020
0.0
1030
1.0
1000
ANSI31
1070
     0
1070
     0
1071
        1
1071
        0
1071
       14
1070
     1
1040
10.963905642636719
1040
7.6802378174308634
1040
10.96390564263683
1040
7.370764764461363
1070
     1
1040
10.96390564263683
1040
7.370764764461363
1040
10.60159784891046
1040
7.367602952245992
1070
     2
1040
10.601700918227371
1040
7.3557923783514374
1040
0.0118110236221596
1040
1.5795229730550051
1040
3.1415926535897931
1070
     1
1070
     1
1040
10.589889894605321
1040
7.3557923783514374
1040
10.58988989460533
1040
7.3097411424143308
1070
     1
1040
10.58988989460533
1040
7.3097411424143308
1040
10.680441075707691
1040
7.3097411424143308
1070
     1
1040
10.680441075707691
1040
7.3097411424143308
1040
10.680441075707691
1040
7.2369064967451751
1070
     1
1040
10.680441075707691
1040
7.2369064967451751
1040
10.73949619381793
1040
7.2369064967451751
1070
     1
1040
10.73949619381793
1040
7.2369064967451751
1040
10.73949619381793
1040
7.3097490060365962
1070
     1
1040
10.73949619381793
1040
7.3097490060365962
1040
11.02296076074707
1040
7.3122227638357247
1070
     1
1040
11.02296076074707
1040
7.3122227638357247
1040
11.022960760747059
1040
7.6334042169304208
1070
     1
1040
11.022960760747059
1040
7.6334042169304208
1040
11.83004737492038
1040
7.6404475551080306
1070
     1
1040
11.83004737492038
1040
7.6404475551080306
1040
11.830047374920291
1040
7.6995049219419958
1070
     1
1040
11.830047374920291
1040
7.6995049219419958
1040
10.975613596941971
1040
7.692048391325593
1070
     2
1040
10.975716666258879
1040
7.6802378174308634
1040
0.0118110236221596
1040
1.5795229730548761
1040
3.1415926535897931
1070
     1
1071
        0
1070
     0
1070
     1
1040
0.0
1040
1.25
1070
     0
1070
     1
1040
0.7853981633974483
1040
0.0
1040
0.0
1040
-0.110485434560398
1040
0.110485434560398
1070
     0
1071
        1
1040
0.0
1040
0.0
1040
0.0
1002
}
  0
INSERT
  5
20B
  8
0
  6
CONTINUOUS
 62
     7
  2
*X53
 10
0.0
 20
0.0
 30
0.0
1001
ACAD
1000
HATCH
1002
{
1070
    19
1000
ANSI31
1040
1.25
1040
0.0
1000
R14_HATCH_DATA
1000
20B
1011
1.0
1021
0.0
1031
0.0
1021
0.0
1031
0.0
1011
0.0
1021
0.0
1031
0.0
1021
1.0
1031
0.0
1011
0.0
1021
0.0
1031
0.0
1021
0.0
1031
1.0
1040
0.0
1010
0.0
1020
0.0
1030
1.0
1000
ANSI31
1070
     0
1070
     0
1071
        1
1071
        0
1071
        4
1070
     1
1040
12.57807887098329
1040
4.7034419298156172
1040
12.57807887098329
1040
4.7664340558002811
1070
     1
1040
12.57807887098329
1040
4.7664340558002811
1040
12.341857512680569
1040
4.7664340558002811
1070
     1
1040
12.341857512680569
1040
4.7664340558002811
1040
12.341857512680569
1040
4.7055033488383238
1070
     1
1040
12.341857512680569
1040
4.7055033488383238
1040
12.57807887098329
1040
4.7034419298156172
1071
        0
1070
     0
1070
     1
1040
0.0
1040
1.25
1070
     0
1070
     1
1040
0.7853981633974483
1040
0.0
1040
0.0
1040
-0.110485434560398
1040
0.110485434560398
1070
     0
1071
        1
1040
0.0
1040
0.0
1040
0.0
1002
}
  0
INSERT
  5
20C
  8
0
  6
CONTINUOUS
 62
     7
  2
*X54
 10
0.0
 20
0.0
 30
0.0
1001
ACAD
1000
HATCH
1002
{
1070
    19
1000
ANSI31
1040
1.25
1040
0.0
1000
R14_HATCH_DATA
1000
20C
1011
1.0
1021
0.0
1031
0.0
1021
0.0
1031
0.0
1011
0.0
1021
0.0
1031
0.0
1021
1.0
1031
0.0
1011
0.0
1021
0.0
1031
0.0
1021
0.0
1031
1.0
1040
0.0
1010
0.0
1020
0.0
1030
1.0
1000
ANSI31
1070
     0
1070
     0
1071
        1
1071
        0
1071
        4
1070
     1
1040
11.633196981219511
1040
7.940967000236034
1040
11.633196981219511
1040
8.0052731041211125
1070
     1
1040
11.633196981219511
1040
8.0052731041211125
1040
11.613511941849429
1040
8.0052731041211125
1070
     1
1040
11.613511941849429
1040
8.0052731041211125
1040
11.613511941849429
1040
7.940967000236034
1070
     1
1040
11.613511941849429
1040
7.940967000236034
1040
11.633196981219511
1040
7.940967000236034
1071
        0
1070
     0
1070
     1
1040
0.0
1040
1.25
1070
     0
1070
     1
1040
0.7853981633974483
1040
0.0
1040
0.0
1040
-0.110485434560398
1040
0.110485434560398
1070
     0
1071
        1
1040
0.0
1040
0.0
1040
0.0
1002
}
  0
INSERT
  5
20D
  8
0
  6
CONTINUOUS
 62
     7
  2
*X55
 10
0.0
 20
0.0
 30
0.0
1001
ACAD
1000
HATCH
1002
{
1070
    19
1000
ANSI31
1040
1.25
1040
0.0
1000
R14_HATCH_DATA
1000
20D
1011
1.0
1021
0.0
1031
0.0
1021
0.0
1031
0.0
1011
0.0
1021
0.0
1031
0.0
1021
1.0
1031
0.0
1011
0.0
1021
0.0
1031
0.0
1021
0.0
1031
1.0
1040
0.0
1010
0.0
1020
0.0
1030
1.0
1000
ANSI31
1070
     0
1070
     0
1071
        1
1071
        0
1071
        9
1070
     1
1040
11.633196981219511
1040
7.7487106408381106
1040
11.633196981219511
1040
7.9069246939935098
1070
     1
1040
11.633196981219511
1040
7.9069246939935098
1040
11.59382690247935
1040
7.9069246939935098
1070
     1
1040
11.59382690247935
1040
7.9069246939935098
1040
11.59382690247935
1040
7.7467420994226712
1070
     1
1040
11.59382690247935
1040
7.7467420994226712
1040
11.57414186310927
1040
7.7467420994230212
1070
     1
1040
11.57414186310927
1040
7.7467420994230212
1040
11.57414186310927
1040
7.7017312959818041
1070
     1
1040
11.57414186310927
1040
7.7017312959818041
1040
11.8300473749203
1040
7.6994980424132029
1070
     1
1040
11.8300473749203
1040
7.6994980424132029
1040
11.96784265051085
1040
7.6994980424128538
1070
     1
1040
11.96784265051085
1040
7.6994980424128538
1040
11.96784265051085
1040
7.7487106408386364
1070
     1
1040
11.96784265051085
1040
7.7487106408386364
1040
11.633196981219511
1040
7.7487106408381106
1071
        0
1070
     0
1070
     1
1040
0.0
1040
1.25
1070
     0
1070
     1
1040
0.7853981633974483
1040
0.0
1040
0.0
1040
-0.110485434560398
1040
0.110485434560398
1070
     0
1071
        1
1040
0.0
1040
0.0
1040
0.0
1002
}
  0
INSERT
  5
20E
  8
0
  6
CONTINUOUS
 62
     7
  2
*X56
 10
0.0
 20
0.0
 30
0.0
1001
ACAD
1000
HATCH
1002
{
1070
    19
1000
ANSI31
1040
1.25
1040
0.0
1000
R14_HATCH_DATA
1000
20E
1011
1.0
1021
0.0
1031
0.0
1021
0.0
1031
0.0
1011
0.0
1021
0.0
1031
0.0
1021
1.0
1031
0.0
1011
0.0
1021
0.0
1031
0.0
1021
0.0
1031
1.0
1040
0.0
1010
0.0
1020
0.0
1030
1.0
1000
ANSI31
1070
     0
1070
     0
1071
        1
1071
        0
1071
       11
1070
     1
1040
12.338110634902909
1040
8.2014665463497423
1040
12.33811063490289
1040
8.2329626093424242
1070
     1
1040
12.33811063490289
1040
8.2329626093424242
1040
12.06252008372179
1040
8.2329626093424242
1070
     1
1040
12.06252008372179
1040
8.2329626093424242
1040
12.06252008372179
1040
8.2447182311982594
1070
     1
1040
12.06252008372179
1040
8.2447182311982594
1040
11.83032971271823
1040
8.2467445258683707
1070
     1
1040
11.83032971271823
1040
8.2467445258683707
1040
11.57414186310927
1040
8.2445088083755191
1070
     1
1040
11.57414186310927
1040
8.2445088083755191
1040
11.57414186310927
1040
8.1994980049344761
1070
     1
1040
11.57414186310927
1040
8.1994980049344761
1040
11.59382690247935
1040
8.1994980049341262
1070
     1
1040
11.59382690247935
1040
8.1994980049341262
1040
11.59382690247935
1040
8.0393154103634625
1070
     1
1040
11.59382690247935
1040
8.0393154103634625
1040
11.633196981219511
1040
8.0393154103634625
1070
     1
1040
11.633196981219511
1040
8.0393154103634625
1040
11.633196981219511
1040
8.2014665463497423
1070
     1
1040
11.633196981219511
1040
8.2014665463497423
1040
12.338110634902909
1040
8.2014665463497423
1071
        0
1070
     0
1070
     1
1040
0.0
1040
1.25
1070
     0
1070
     1
1040
0.7853981633974483
1040
0.0
1040
0.0
1040
-0.110485434560398
1040
0.110485434560398
1070
     0
1071
        1
1040
0.0
1040
0.0
1040
0.0
1002
}
  0
INSERT
  5
20F
  8
0
  6
CONTINUOUS
 62
     7
  2
*X57
 10
0.0
 20
0.0
 30
0.0
1001
ACAD
1000
HATCH
1002
{
1070
    19
1000
ANSI31
1040
1.25
1040
0.0
1000
R14_HATCH_DATA
1000
20F
1011
1.0
1021
0.0
1031
0.0
1021
0.0
1031
0.0
1011
0.0
1021
0.0
1031
0.0
1021
1.0
1031
0.0
1011
0.0
1021
0.0
1031
0.0
1021
0.0
1031
1.0
1040
0.0
1010
0.0
1020
0.0
1030
1.0
1000
ANSI31
1070
     0
1070
     0
1071
        1
1071
        0
1071
        4
1070
     1
1040
12.41666154814865
1040
4.768402559736689
1040
12.4796536741329
1040
4.768402559736689
1070
     1
1040
12.4796536741329
1040
4.768402559736689
1040
12.4796536741329
1040
8.1896624022564097
1070
     1
1040
12.4796536741329
1040
8.1896624022564097
1040
12.41666154814865
1040
8.1896624022564097
1070
     1
1040
12.41666154814865
1040
8.1896624022564097
1040
12.41666154814865
1040
4.768402559736689
1071
        0
1070
     0
1070
     1
1040
0.0
1040
1.25
1070
     0
1070
     1
1040
0.7853981633974483
1040
0.0
1040
0.0
1040
-0.110485434560398
1040
0.110485434560398
1070
     0
1071
        1
1040
0.0
1040
0.0
1040
0.0
1002
}
  0
INSERT
  5
210
  8
0
  6
CONTINUOUS
 62
     7
  2
*X58
 10
0.0
 20
0.0
 30
0.0
1001
ACAD
1000
HATCH
1002
{
1070
    19
1000
ANSI31
1040
1.25
1040
0.0
1000
R14_HATCH_DATA
1000
210
1011
1.0
1021
0.0
1031
0.0
1021
0.0
1031
0.0
1011
0.0
1021
0.0
1031
0.0
1021
1.0
1031
0.0
1011
0.0
1021
0.0
1031
0.0
1021
0.0
1031
1.0
1040
0.0
1010
0.0
1020
0.0
1030
1.0
1000
ANSI31
1070
     0
1070
     0
1071
        2
1071
        0
1071
       19
1070
     1
1040
11.88516548515652
1040
4.8773050158395144
1040
12.087921390668329
1040
4.8143128898553744
1070
     1
1040
12.087921390668329
1040
4.8143128898553744
1040
12.087921390668329
1040
4.802501866233249
1070
     1
1040
12.087921390668329
1040
4.802501866233249
1040
12.11744894972345
1040
4.802501866233249
1070
     1
1040
12.11744894972345
1040
4.802501866233249
1040
12.15648656939995
1040
4.8237951133296759
1070
     1
1040
12.15648656939995
1040
4.8237951133296759
1040
12.32550032986232
1040
4.823795113329326
1070
     1
1040
12.32550032986232
1040
4.823795113329326
1040
12.337921390668329
1040
4.802501866233249
1070
     1
1040
12.337921390668329
1040
4.802501866233249
1040
12.41666154814865
1040
4.802501866233249
1070
     1
1040
12.41666154814865
1040
4.802501866233249
1040
12.41666154814865
1040
5.1568325748947146
1070
     1
1040
12.41666154814865
1040
5.1568325748947146
1040
12.1804410757077
1040
5.1568325748947146
1070
     1
1040
12.1804410757077
1040
5.1568325748947146
1040
11.88516548515652
1040
5.0820294252884501
1070
     1
1040
11.88516548515652
1040
5.0820294252884501
1040
11.88516548515652
1040
5.0277131079013051
1070
     1
1040
11.88516548515652
1040
5.0277131079013051
1040
11.89697650877857
1040
5.0277131079013051
1070
     4
1070
     3
1070
     1
1070
     0
1071
       35
1071
       31
1040
0.0
1040
0.0
1040
0.0
1040
0.0
1040
0.0000871091476304
1040
0.0000871091476304
1040
0.0000871091476304
1040
0.0001457744429399
1040
0.0001457744429399
1040
0.0001457744429399
1040
0.0001796346248162
1040
0.0001796346248162
1040
0.0001796346248162
1040
0.0002021239568015
1040
0.0002021239568015
1040
0.0002021239568015
1040
0.0002208157799623
1040
0.0002208157799623
1040
0.0002208157799623
1040
0.0002394587546941
1040
0.0002394587546941
1040
0.0002394587546941
1040
0.0002614390326905
1040
0.0002614390326905
1040
0.0002614390326905
1040
0.000297394186645
1040
0.000297394186645
1040
0.000297394186645
1040
0.0003417561308539
1040
0.0003417561308539
1040
0.0003417561308539
1040
0.0004377621686555
1040
0.0004377621686555
1040
0.0004377621686555
1040
0.0004377621686555
1040
11.89697650877857
1040
5.0277131079013051
1040
1.0
1040
11.896976508778559
1040
5.0265699432342661
1040
1.0
1040
11.8971488043788
1040
5.0254108520348666
1040
1.0
1040
11.897504897355519
1040
5.0243245632851012
1040
1.0
1040
11.89774552863831
1040
5.023590499227617
1040
1.0
1040
11.898075292197831
1040
5.022871390874351
1040
1.0
1040
11.89852663403347
1040
5.0222444586591983
1040
1.0
1040
11.898788172222501
1040
5.0218811714494338
1040
1.0
1040
11.89909722893977
1040
5.0215421707972121
1040
1.0
1040
11.899457565686291
1040
5.0212765822992109
1040
1.0
1040
11.899697518323039
1040
5.0210997236773256
1040
1.0
1040
11.89996617750224
1040
5.0209530371807807
1040
1.0
1040
11.90025018380876
1040
5.0208625017853281
1040
1.0
1040
11.90048640555686
1040
5.0207871991286543
1040
1.0
1040
11.90073892377907
1040
5.0207501023220118
1040
1.0
1040
11.90098670817876
1040
5.0207587102059721
1040
1.0
1040
11.901233990101881
1040
5.0207673006340778
1040
1.0
1040
11.901482508295549
1040
5.0208213887246904
1040
1.0
1040
11.901713293052159
1040
5.0209106105890573
1040
1.0
1040
11.90198549216192
1040
5.021015843328116
1040
1.0
1040
11.90224052865495
1040
5.0211711185028101
1040
1.0
1040
11.90246892983083
1040
5.0213527752879621
1040
1.0
1040
11.902840959787641
1040
5.0216486659096793
1040
1.0
1040
11.9031554965566
1040
5.0220205630806554
1040
1.0
1040
11.90341926124435
1040
5.0224160194475198
1040
1.0
1040
11.903745394017269
1040
5.0229049828591883
1040
1.0
1040
11.904003039323969
1040
5.0234423154026517
1040
1.0
1040
11.904206825734519
1040
5.023993603804632
1040
1.0
1040
11.904643096224509
1040
5.0251738143035158
1040
1.0
1040
11.90485052452661
1040
5.0264548437150243
1040
1.0
1040
11.9048505245266
1040
5.0277131079013051
1040
1.0
1070
     1
1040
11.9048505245266
1040
5.0277131079013051
1040
11.999338713502979
1040
5.0277131079013051
1070
     4
1070
     3
1070
     1
1070
     0
1071
       17
1071
       13
1040
0.0
1040
0.0
1040
0.0
1040
0.0
1040
0.0007422923965317
1040
0.0007422923965317
1040
0.0007422923965317
1040
0.0014639959797273
1040
0.0014639959797273
1040
0.0014639959797273
1040
0.0019682364933984
1040
0.0019682364933984
1040
0.0019682364933984
1040
0.0024717306429747
1040
0.0024717306429747
1040
0.0024717306429747
1040
0.0024717306429747
1040
11.999338713502549
1040
5.0277131079062007
1040
1.0
1040
12.00183443944502
1040
5.0182968643800869
1040
1.0
1040
12.00390183048742
1040
5.00873258157148
1040
1.0
1040
12.005135007318209
1040
4.9990695817769302
1040
1.0
1040
12.00633207485742
1040
4.989689529300799
1040
1.0
1040
12.006700436951441
1040
4.9801571754550764
1040
1.0
1040
12.00612598964797
1040
4.9707185121255906
1040
1.0
1040
12.005723549009
1040
4.9641060662523211
1040
1.0
1040
12.004876893223949
1040
4.9575125683639651
1040
1.0
1040
12.003702993260781
1040
4.950992724978402
1040
1.0
1040
12.002530103988409
1040
4.944478494971893
1040
1.0
1040
12.00103448663851
1040
4.9380193966235026
1040
1.0
1040
11.999338713502549
1040
4.931621333221762
1040
1.0
1070
     1
1040
11.999338713502549
1040
4.931621333221762
1040
11.9048505245266
1040
4.9316213332268326
1070
     4
1070
     3
1070
     1
1070
     0
1071
       35
1071
       31
1040
0.0
1040
0.0
1040
0.0
1040
0.0
1040
0.0000871091476304
1040
0.0000871091476304
1040
0.0000871091476304
1040
0.0001457744429399
1040
0.0001457744429399
1040
0.0001457744429399
1040
0.0001796346248162
1040
0.0001796346248162
1040
0.0001796346248162
1040
0.0002021239568015
1040
0.0002021239568015
1040
0.0002021239568015
1040
0.0002208157799623
1040
0.0002208157799623
1040
0.0002208157799623
1040
0.0002394587546941
1040
0.0002394587546941
1040
0.0002394587546941
1040
0.0002614390326905
1040
0.0002614390326905
1040
0.0002614390326905
1040
0.000297394186645
1040
0.000297394186645
1040
0.000297394186645
1040
0.0003417561308539
1040
0.0003417561308539
1040
0.0003417561308539
1040
0.0004377621686555
1040
0.0004377621686555
1040
0.0004377621686555
1040
0.0004377621686555
1040
11.9048505245266
1040
4.9316213332268326
1040
1.0
1040
11.90485052452661
1040
4.9327644978938734
1040
1.0
1040
11.90467822892637
1040
4.933923589093097
1040
1.0
1040
11.90432213594965
1040
4.9350098778430382
1040
1.0
1040
11.904081504666861
1040
4.9357439419003457
1040
1.0
1040
11.903751741107341
1040
4.9364630502537867
1040
1.0
1040
11.9033003992717
1040
4.9370899824687662
1040
1.0
1040
11.90303886108266
1040
4.9374532696785289
1040
1.0
1040
11.9027298043654
1040
4.9377922703307506
1040
1.0
1040
11.902369467618881
1040
4.9380578588287518
1040
1.0
1040
11.90212951498213
1040
4.938234717450638
1040
1.0
1040
11.90186085580293
1040
4.9383814039471821
1040
1.0
1040
11.90157684949641
1040
4.9384719393426373
1040
1.0
1040
11.90134062774831
1040
4.9385472419993102
1040
1.0
1040
11.9010881095261
1040
4.9385843388059509
1040
1.0
1040
11.90084032512641
1040
4.9385757309219924
1040
1.0
1040
11.90059304320329
1040
4.9385671404938849
1040
1.0
1040
11.90034452500962
1040
4.9385130524032741
1040
1.0
1040
11.90011374025301
1040
4.9384238305389072
1040
1.0
1040
11.89984154114325
1040
4.9383185978000226
1040
1.0
1040
11.89958650465022
1040
4.9381633226251527
1040
1.0
1040
11.89935810347434
1040
4.9379816658400006
1040
1.0
1040
11.898986073517531
1040
4.9376857752182852
1040
1.0
1040
11.898671536748569
1040
4.9373138780473091
1040
1.0
1040
11.898407772060819
1040
4.9369184216804429
1040
1.0
1040
11.8980816392879
1040
4.9364294582689512
1040
1.0
1040
11.89782399398119
1040
4.935892125725311
1040
1.0
1040
11.89762020757065
1040
4.9353408373233307
1040
1.0
1040
11.89718393708066
1040
4.9341606268246219
1040
1.0
1040
11.896976508778559
1040
4.9328795974129402
1040
1.0
1040
11.89697650877857
1040
4.9316213332268326
1040
1.0
1070
     1
1040
11.89697650877857
1040
4.9316213332268326
1040
11.88516548515652
1040
4.9316213332268326
1070
     1
1040
11.88516548515652
1040
4.9316213332268326
1040
11.88516548515652
1040
4.8773050158395144
1071
        0
1071
        0
1071
        4
1070
     1
1040
12.099732414290379
1040
5.0564388741072666
1040
12.099732414290379
1040
4.9028955670206971
1070
     1
1040
12.099732414290379
1040
4.9028955670206971
1040
12.01705524893605
1040
4.9028955670206971
1070
     1
1040
12.01705524893605
1040
4.9028955670206971
1040
12.01705524893605
1040
5.0564388741072666
1070
     1
1040
12.01705524893605
1040
5.0564388741072666
1040
12.099732414290379
1040
5.0564388741072666
1071
        0
1070
     0
1070
     1
1040
0.0
1040
1.25
1070
     0
1070
     1
1040
0.7853981633974483
1040
0.0
1040
0.0
1040
-0.110485434560398
1040
0.110485434560398
1070
     0
1071
        1
1040
0.0
1040
0.0
1040
0.0
1002
}
  0
INSERT
  5
211
  8
0
  6
CONTINUOUS
 62
     7
  2
*X59
 10
0.0
 20
0.0
 30
0.0
1001
ACAD
1000
HATCH
1002
{
1070
    19
1000
ANSI31
1040
1.25
1040
0.0
1000
R14_HATCH_DATA
1000
211
1011
1.0
1021
0.0
1031
0.0
1021
0.0
1031
0.0
1011
0.0
1021
0.0
1031
0.0
1021
1.0
1031
0.0
1011
0.0
1021
0.0
1031
0.0
1021
0.0
1031
1.0
1040
0.0
1010
0.0
1020
0.0
1030
1.0
1000
ANSI31
1070
     0
1070
     0
1071
        1
1071
        0
1071
       12
1070
     1
1040
11.96784265051085
1040
4.9954152520600612
1040
11.96784265051085
1040
4.9639191890679033
1070
     1
1040
11.96784265051085
1040
4.9639191890679033
1040
11.932409579644711
1040
4.9639191890679033
1070
     1
1040
11.932409579644711
1040
4.9639191890679033
1040
11.932409579644711
1040
4.9510922436394313
1070
     4
1070
     3
1070
     1
1070
     0
1071
       20
1071
       16
1040
0.0
1040
0.0
1040
0.0
1040
0.0
1040
0.0002080149609141
1040
0.0002080149609141
1040
0.0002080149609141
1040
0.000330128554293
1040
0.000330128554293
1040
0.000330128554293
1040
0.0004012408696481
1040
0.0004012408696481
1040
0.0004012408696481
1040
0.0004471869926231
1040
0.0004471869926231
1040
0.0004471869926231
1040
0.0004937305152681
1040
0.0004937305152681
1040
0.0004937305152681
1040
0.0004937305152681
1040
11.932409579644711
1040
4.9510922436394313
1040
1.0
1040
11.932409579644681
1040
4.9483623885095591
1040
1.0
1040
11.93262696235603
1040
4.9455954223532732
1040
1.0
1040
11.93330951542409
1040
4.9429522745439893
1040
1.0
1040
11.933710671837799
1040
4.9413988192221296
1040
1.0
1040
11.934282035168691
1040
4.9398595092186079
1040
1.0
1040
11.935125746690691
1040
4.9384948478053401
1040
1.0
1040
11.93561881904186
1040
4.9376973278070917
1040
1.0
1040
11.936217814125961
1040
4.9369454950488381
1040
1.0
1040
11.93693355527942
1040
4.9363397945515546
1040
1.0
1040
11.937397823511491
1040
4.9359469046113764
1040
1.0
1040
11.937921392271299
1040
4.9356098586989363
1040
1.0
1040
11.938482834184439
1040
4.9353759987523054
1040
1.0
1040
11.93904845165066
1040
4.9351403995433971
1040
1.0
1040
11.93967087187823
1040
4.9350070407359361
1040
1.0
1040
11.94028359539274
1040
4.9350070407359361
1040
1.0
1070
     1
1040
11.94028359539274
1040
4.9350070407361102
1040
11.983590682006909
1040
4.9350070407361102
1070
     4
1070
     3
1070
     1
1070
     0
1071
       23
1071
       19
1040
0.0
1040
0.0
1040
0.0
1040
0.0
1040
0.0000427529611984
1040
0.0000427529611984
1040
0.0000427529611984
1040
0.0001086064231432
1040
0.0001086064231432
1040
0.0001086064231432
1040
0.0001880478832858
1040
0.0001880478832858
1040
0.0001880478832858
1040
0.0003268850204167
1040
0.0003268850204167
1040
0.0003268850204167
1040
0.0004936405344682
1040
0.0004936405344682
1040
0.0004936405344682
1040
0.0008501264083763
1040
0.0008501264083763
1040
0.0008501264083763
1040
0.0008501264083763
1040
11.983590682006909
1040
4.9350070407361102
1040
1.0
1040
11.98415174448983
1040
4.9350070407361102
1040
1.0
1040
11.984716801579649
1040
4.9350791768737681
1040
1.0
1040
11.985260772594559
1040
4.9352166055631939
1040
1.0
1040
11.986092637789501
1040
4.935426767760025
1040
1.0
1040
11.98689325337836
1040
4.9357953095495883
1040
1.0
1040
11.98761228742628
1040
4.9362634525722733
1040
1.0
1040
11.98848016447549
1040
4.9368285031233281
1040
1.0
1040
11.989254539202459
1040
4.9375491364789417
1040
1.0
1040
11.98992344993788
1040
4.9383397382280139
1040
1.0
1040
11.991086166092421
1040
4.9397139805252248
1040
1.0
1040
11.99197232215932
1040
4.9413324096772504
1040
1.0
1040
11.992656644737069
1040
4.9429973881625173
1040
1.0
1040
11.993481365753739
1040
4.9450039604921576
1040
1.0
1040
11.994035803683779
1040
4.9471263114272244
1040
1.0
1040
11.99442825417148
1040
4.949259965542554
1040
1.0
1040
11.995265672419141
1040
4.9538127969099328
1040
1.0
1040
11.995401705628961
1040
4.9584842173589978
1040
1.0
1040
11.995401705628961
1040
4.9631134227746703
1040
1.0
1070
     1
1040
11.995401705628961
1040
4.9631134227746703
1040
11.995401705628961
1040
4.9962210183534692
1070
     4
1070
     3
1070
     1
1070
     0
1071
       20
1071
       16
1040
0.0
1040
0.0
1040
0.0
1040
0.0
1040
0.0004204281804399
1040
0.0004204281804399
1040
0.0004204281804399
1040
0.0005978555465738
1040
0.0005978555465738
1040
0.0005978555465738
1040
0.0007013965652689
1040
0.0007013965652689
1040
0.0007013965652689
1040
0.0007696384467668
1040
0.0007696384467668
1040
0.0007696384467668
1040
0.0008387182073038
1040
0.0008387182073038
1040
0.0008387182073038
1040
0.0008387182073038
1040
11.995401705628961
1040
4.9962210183534692
1040
1.0
1040
11.995401705628961
1040
5.0017384485428371
1040
1.0
1040
11.995233694452949
1040
5.0073590372410619
1040
1.0
1040
11.993851645627631
1040
5.0127005704424672
1040
1.0
1040
11.9932660616387
1040
5.0149638163290566
1040
1.0
1040
11.992441253844159
1040
5.0172089501840871
1040
1.0
1040
11.991215486662959
1040
5.019199599668009
1040
1.0
1040
11.990497743517411
1040
5.020365216633687
1040
1.0
1040
11.98962366105456
1040
5.0214634007460131
1040
1.0
1040
11.988579429495831
1040
5.0223484988115441
1040
1.0
1040
11.98788861946092
1040
5.0229340342900901
1040
1.0
1040
11.98710806443693
1040
5.023434998590055
1040
1.0
1040
11.9862714614076
1040
5.0237816477965067
1040
1.0
1040
11.98542899647985
1040
5.0241307258999379
1040
1.0
1040
11.984502604523749
1040
5.0243274003918543
1040
1.0
1040
11.983590682006909
1040
5.0243274003918543
1040
1.0
1070
     1
1040
11.983590682006909
1040
5.0243274003918543
1040
11.94028359539274
1040
5.0243274003918543
1070
     4
1070
     3
1070
     1
1070
     0
1071
       23
1071
       19
1040
0.0
1040
0.0
1040
0.0
1040
0.0
1040
0.0000186268640281
1040
0.0000186268640281
1040
0.0000186268640281
1040
0.0000609517726895
1040
0.0000609517726895
1040
0.0000609517726895
1040
0.0001107045924195
1040
0.0001107045924195
1040
0.0001107045924195
1040
0.0001892238036682
1040
0.0001892238036682
1040
0.0001892238036682
1040
0.0002669637570152
1040
0.0002669637570152
1040
0.0002669637570152
1040
0.0005026422733406
1040
0.0005026422733406
1040
0.0005026422733406
1040
0.0005026422733406
1040
11.94028359539274
1040
5.0243274003918543
1040
1.0
1040
11.940039148358251
1040
5.0243274003918543
1040
1.0
1040
11.93979391463338
1040
5.0243071188652637
1040
1.0
1040
11.93955270990798
1040
5.0242674372181453
1040
1.0
1040
11.939010902627381
1040
5.0241783021267112
1040
1.0
1040
11.9384799917966
1040
5.0239872303607767
1040
1.0
1040
11.937996855520311
1040
5.0237263098126181
1040
1.0
1040
11.93742851253184
1040
5.023419372885475
1040
1.0
1040
11.936910197746521
1040
5.0230106982929703
1040
1.0
1040
11.93645542440875
1040
5.022551998782224
1040
1.0
1040
11.935740275769181
1040
5.0218306760844138
1040
1.0
1040
11.93515895130612
1040
5.0209696774853132
1040
1.0
1040
11.934687862223409
1040
5.0200697779979269
1040
1.0
1040
11.93421939280587
1040
5.0191748827346983
1040
1.0
1040
11.93385056407598
1040
5.0182250042484187
1040
1.0
1040
11.93355590590364
1040
5.0172588377570762
1040
1.0
1040
11.932672094655
1040
5.0143608736304879
1040
1.0
1040
11.9324095796447
1040
5.011271936487673
1040
1.0
1040
11.932409579644711
1040
5.0082421974885332
1040
1.0
1070
     1
1040
11.932409579644711
1040
5.0082421974885332
1040
11.932409579644711
1040
4.9954152520600612
1070
     1
1040
11.932409579644711
1040
4.9954152520600612
1040
11.96784265051085
1040
4.9954152520600612
1071
        0
1070
     0
1070
     1
1040
0.0
1040
1.25
1070
     0
1070
     1
1040
0.7853981633974483
1040
0.0
1040
0.0
1040
-0.110485434560398
1040
0.110485434560398
1070
     0
1071
        1
1040
0.0
1040
0.0
1040
0.0
1002
}
  0
INSERT
  5
212
  8
0
  6
CONTINUOUS
 62
     7
  2
*X60
 10
0.0
 20
0.0
 30
0.0
1001
ACAD
1000
HATCH
1002
{
1070
    19
1000
ANSI31
1040
1.25
1040
0.0
1000
R14_HATCH_DATA
1000
212
1011
1.0
1021
0.0
1031
0.0
1021
0.0
1031
0.0
1011
0.0
1021
0.0
1031
0.0
1021
1.0
1031
0.0
1011
0.0
1021
0.0
1031
0.0
1021
0.0
1031
1.0
1040
0.0
1010
0.0
1020
0.0
1030
1.0
1000
ANSI31
1070
     0
1070
     0
1071
        2
1071
        0
1071
       19
1070
     1
1040
12.087921390668329
1040
8.1437520721377261
1040
11.88516548515652
1040
8.0807599461535862
1070
     1
1040
11.88516548515652
1040
8.0807599461535862
1040
11.88516548515652
1040
8.0166501970230097
1070
     1
1040
11.88516548515652
1040
8.0166501970230097
1040
11.89697650877857
1040
8.0166501970230097
1070
     4
1070
     3
1070
     1
1070
     0
1071
       38
1071
       34
1040
0.0
1040
0.0
1040
0.0
1040
0.0
1040
0.0000424836755302
1040
0.0000424836755302
1040
0.0000424836755302
1040
0.0001654371757399
1040
0.0001654371757399
1040
0.0001654371757399
1040
0.0002192477782809
1040
0.0002192477782809
1040
0.0002192477782809
1040
0.00024512297863
1040
0.00024512297863
1040
0.00024512297863
1040
0.0002611701891047
1040
0.0002611701891047
1040
0.0002611701891047
1040
0.0002746735401637
1040
0.0002746735401637
1040
0.0002746735401637
1040
0.0002881068265079
1040
0.0002881068265079
1040
0.0002881068265079
1040
0.0003091072228031
1040
0.0003091072228031
1040
0.0003091072228031
1040
0.000329810393608
1040
0.000329810393608
1040
0.000329810393608
1040
0.0003865190406327
1040
0.0003865190406327
1040
0.0003865190406327
1040
0.0005435175788947
1040
0.0005435175788947
1040
0.0005435175788947
1040
0.0005435175788947
1040
11.89697650877857
1040
8.0166501970230097
1040
1.0
1040
11.89697650877857
1040
8.0160926684728242
1040
1.0
1040
11.897002970210609
1040
8.0155345859809692
1040
1.0
1040
11.89705421338223
1040
8.0149794173385018
1040
1.0
1040
11.897201246924441
1040
8.0133864555941887
1040
1.0
1040
11.89753707962903
1040
8.0117843471739807
1040
1.0
1040
11.89815167398775
1040
8.0103073841563006
1040
1.0
1040
11.898422311323641
1040
8.0096570017852446
1040
1.0
1040
11.898751809577311
1040
8.0090177185244453
1040
1.0
1040
11.89919244502715
1040
8.0084680984768095
1040
1.0
1040
11.8994051832632
1040
8.0082027426152909
1040
1.0
1040
11.899649142535379
1040
8.0079544318450946
1040
1.0
1040
11.8999310674581
1040
8.0077641961274502
1040
1.0
1040
11.900106368427011
1040
8.0076459075231696
1040
1.0
1040
11.900300633701599
1040
8.0075489745346733
1040
1.0
1040
11.900504504943941
1040
8.0074927683058519
1040
1.0
1040
11.9006760637036
1040
8.0074454704584976
1040
1.0
1040
11.900858556975709
1040
8.0074269416971209
1040
1.0
1040
11.901035917716721
1040
8.0074415246298827
1040
1.0
1040
11.901212642620999
1040
8.0074560552826792
1040
1.0
1040
11.901388440399399
1040
8.0075033108763431
1040
1.0
1040
11.90155120952091
1040
8.0075736603236951
1040
1.0
1040
11.901804384697471
1040
8.0076830836196642
1040
1.0
1040
11.90203462030342
1040
8.0078492858669073
1040
1.0
1040
11.90223687011421
1040
8.0080368122431356
1040
1.0
1040
11.90243752686983
1040
8.0082228615358186
1040
1.0
1040
11.902616032710471
1040
8.0084336842880752
1040
1.0
1040
11.90277721603124
1040
8.0086548118757062
1040
1.0
1040
11.90321542744827
1040
8.0092559946349251
1040
1.0
1040
11.903540896428231
1040
8.0099402717309776
1040
1.0
1040
11.903806034004219
1040
8.0106353631073848
1040
1.0
1040
11.90453128078625
1040
8.0125366884178781
1040
1.0
1040
11.904850524526591
1040
8.0146152471877752
1040
1.0
1040
11.9048505245266
1040
8.0166501970230097
1040
1.0
1070
     1
1040
11.9048505245266
1040
8.0166501970230097
1040
11.999338713502549
1040
8.0166501970294792
1070
     4
1070
     3
1070
     1
1070
     0
1071
       11
1071
        7
1040
0.0
1040
0.0
1040
0.0
1040
0.0
1040
0.0009422866891252
1040
0.0009422866891252
1040
0.0009422866891252
1040
0.001956476151201
1040
0.001956476151201
1040
0.001956476151201
1040
0.001956476151201
1040
11.999338713502549
1040
8.0166501970294792
1040
1.0
1040
12.00189194451373
1040
8.0045506866070273
1040
1.0
1040
12.003516253342241
1040
7.9921662265086457
1040
1.0
1040
12.00362491917409
1040
7.979800736919068
1040
1.0
1040
12.003741753029489
1040
7.9665057775195374
1040
1.0
1040
12.00208386179488
1040
7.9531542733541096
1040
1.0
1040
11.999338713502549
1040
7.9401452858289296
1040
1.0
1070
     1
1040
11.999338713502979
1040
7.9401452858352251
1040
11.9048505245266
1040
7.9401452858352251
1070
     4
1070
     3
1070
     1
1070
     0
1071
       38
1071
       34
1040
0.0
1040
0.0
1040
0.0
1040
0.0
1040
0.0000424836755302
1040
0.0000424836755302
1040
0.0000424836755302
1040
0.0001654371757399
1040
0.0001654371757399
1040
0.0001654371757399
1040
0.0002192477782809
1040
0.0002192477782809
1040
0.0002192477782809
1040
0.00024512297863
1040
0.00024512297863
1040
0.00024512297863
1040
0.0002611701891047
1040
0.0002611701891047
1040
0.0002611701891047
1040
0.0002746735401637
1040
0.0002746735401637
1040
0.0002746735401637
1040
0.0002881068265079
1040
0.0002881068265079
1040
0.0002881068265079
1040
0.0003091072228031
1040
0.0003091072228031
1040
0.0003091072228031
1040
0.000329810393608
1040
0.000329810393608
1040
0.000329810393608
1040
0.0003865190406327
1040
0.0003865190406327
1040
0.0003865190406327
1040
0.0005435175788947
1040
0.0005435175788947
1040
0.0005435175788947
1040
0.0005435175788947
1040
11.9048505245266
1040
7.9401452858352251
1040
1.0
1040
11.9048505245266
1040
7.9407028143854097
1040
1.0
1040
11.90482406309455
1040
7.9412608968772664
1040
1.0
1040
11.90477281992294
1040
7.9418160655197321
1040
1.0
1040
11.904625786380739
1040
7.943409027264221
1040
1.0
1040
11.904289953676139
1040
7.9450111356842541
1040
1.0
1040
11.903675359317409
1040
7.9464880987019342
1040
1.0
1040
11.903404721981531
1040
7.9471384810731651
1040
1.0
1040
11.90307522372785
1040
7.9477777643339627
1040
1.0
1040
11.902634588278019
1040
7.9483273843814262
1040
1.0
1040
11.90242185004197
1040
7.948592740242943
1040
1.0
1040
11.902177890769799
1040
7.9488410510133152
1040
1.0
1040
11.90189596584707
1040
7.949031286730782
1040
1.0
1040
11.90172066487815
1040
7.9491495753350661
1040
1.0
1040
11.90152639960357
1040
7.9492465083237347
1040
1.0
1040
11.90132252836122
1040
7.9493027145523829
1040
1.0
1040
11.90115096960157
1040
7.9493500123997372
1040
1.0
1040
11.90096847632946
1040
7.9493685411611139
1040
1.0
1040
11.900791115588451
1040
7.9493539582285271
1040
1.0
1040
11.90061439068417
1040
7.9493394275755556
1040
1.0
1040
11.90043859290577
1040
7.9492921719820666
1040
1.0
1040
11.900275823784259
1040
7.9492218225347138
1040
1.0
1040
11.900022648607701
1040
7.9491123992387429
1040
1.0
1040
11.89979241300175
1040
7.9489461969913284
1040
1.0
1040
11.899590163190959
1040
7.9487586706150992
1040
1.0
1040
11.899389506435339
1040
7.9485726213225911
1040
1.0
1040
11.8992110005947
1040
7.9483617985701587
1040
1.0
1040
11.89904981727393
1040
7.9481406709825269
1040
1.0
1040
11.898611605856891
1040
7.9475394882233097
1040
1.0
1040
11.898286136876941
1040
7.9468552111272572
1040
1.0
1040
11.89802099930095
1040
7.9461601197508491
1040
1.0
1040
11.89729575251892
1040
7.9442587944403567
1040
1.0
1040
11.89697650877857
1040
7.9421802356704596
1040
1.0
1040
11.89697650877857
1040
7.9401452858352251
1040
1.0
1070
     1
1040
11.89697650877857
1040
7.9401452858352251
1040
11.88516548515652
1040
7.9401452858352251
1070
     1
1040
11.88516548515652
1040
7.9401452858352251
1040
11.88516548515652
1040
7.8760355367046486
1070
     1
1040
11.88516548515652
1040
7.8760355367046486
1040
12.1804410757077
1040
7.8012323870983851
1070
     1
1040
12.1804410757077
1040
7.8012323870983851
1040
12.41666154814865
1040
7.8012323870983851
1070
     1
1040
12.41666154814865
1040
7.8012323870983851
1040
12.41666154814865
1040
8.1555630957598506
1070
     1
1040
12.41666154814865
1040
8.1555630957598506
1040
12.337921390668329
1040
8.1555630957598506
1070
     1
1040
12.337921390668329
1040
8.1555630957598506
1040
12.33517302395787
1040
8.1508516099704131
1070
     1
1040
12.33517302395787
1040
8.1508516099704131
1040
12.126086673670629
1040
8.1508516099704131
1070
     1
1040
12.126086673670629
1040
8.1508516099704131
1040
12.11744894972345
1040
8.1555630957598506
1070
     1
1040
12.11744894972345
1040
8.1555630957598506
1040
12.087921390668329
1040
8.1555630957598506
1070
     1
1040
12.087921390668329
1040
8.1555630957598506
1040
12.087921390668329
1040
8.1437520721377261
1071
        0
1071
        0
1071
        4
1070
     1
1040
12.099732414290379
1040
8.0551693949724026
1040
12.099732414290379
1040
7.9016260878858322
1070
     1
1040
12.099732414290379
1040
7.9016260878858322
1040
12.01705524893605
1040
7.9016260878858322
1070
     1
1040
12.01705524893605
1040
7.9016260878858322
1040
12.01705524893605
1040
8.0551693949724026
1070
     1
1040
12.01705524893605
1040
8.0551693949724026
1040
12.099732414290379
1040
8.0551693949724026
1071
        0
1070
     0
1070
     1
1040
0.0
1040
1.25
1070
     0
1070
     1
1040
0.7853981633974483
1040
0.0
1040
0.0
1040
-0.110485434560398
1040
0.110485434560398
1070
     0
1071
        1
1040
0.0
1040
0.0
1040
0.0
1002
}
  0
INSERT
  5
213
  8
0
  6
CONTINUOUS
 62
     7
  2
*X61
 10
0.0
 20
0.0
 30
0.0
1001
ACAD
1000
HATCH
1002
{
1070
    19
1000
ANSI31
1040
1.25
1040
0.0
1000
R14_HATCH_DATA
1000
213
1011
1.0
1021
0.0
1031
0.0
1021
0.0
1031
0.0
1011
0.0
1021
0.0
1031
0.0
1021
1.0
1031
0.0
1011
0.0
1021
0.0
1031
0.0
1021
0.0
1031
1.0
1040
0.0
1010
0.0
1020
0.0
1030
1.0
1000
ANSI31
1070
     0
1070
     0
1071
        1
1071
        0
1071
        8
1070
     1
1040
11.96784265051085
1040
7.9941457729251963
1040
11.96784265051085
1040
7.9626497099330376
1070
     1
1040
11.96784265051085
1040
7.9626497099330376
1040
11.93264866412896
1040
7.9626497099330376
1070
     4
1070
     3
1070
     1
1070
     0
1071
       20
1071
       16
1040
0.0000621488768802
1040
0.0000621488768802
1040
0.0000621488768802
1040
0.0000621488768802
1040
0.0003543283794383
1040
0.0003543283794383
1040
0.0003543283794383
1040
0.0004674054853469
1040
0.0004674054853469
1040
0.0004674054853469
1040
0.0005257523968694
1040
0.0005257523968694
1040
0.0005257523968694
1040
0.0005632603150716
1040
0.0005632603150716
1040
0.0005632603150716
1040
0.0005940347691249
1040
0.0005940347691249
1040
0.0005940347691249
1040
0.0005940347691249
1040
11.93264866412895
1040
7.9626497099330376
1040
1.0
1040
11.932857608867531
1040
7.958820355407874
1040
1.0
1040
11.93322423787237
1040
7.9549335691935603
1040
1.0
1040
11.934372359744451
1040
7.9512744121661347
1040
1.0
1040
11.934819887380019
1040
7.9498481054888197
1040
1.0
1040
11.93539876061274
1040
7.948434978428832
1040
1.0
1040
11.936230507048091
1040
7.9471928715131721
1040
1.0
1040
11.93666130799428
1040
7.9465495254024052
1040
1.0
1040
11.93717098849894
1040
7.9459420565681151
1040
1.0
1040
11.9377758950453
1040
7.9454587639611312
1040
1.0
1040
11.93816577510141
1040
7.945147267665182
1040
1.0
1040
11.938604915807289
1040
7.9448832188312899
1040
1.0
1040
11.93907400594526
1040
7.9447129518550952
1040
1.0
1040
11.939459094162959
1040
7.944573175293816
1040
1.0
1040
11.93987392427775
1040
7.9444953118524859
1040
1.0
1040
11.94028359539274
1040
7.9444953118524859
1040
1.0
1070
     1
1040
11.94028359539274
1040
7.9444953118524859
1040
11.983590682006909
1040
7.9444953118524859
1070
     4
1070
     3
1070
     1
1070
     0
1071
       44
1071
       40
1040
0.0
1040
0.0
1040
0.0
1040
0.0
1040
0.0000160800794473
1040
0.0000160800794473
1040
0.0000160800794473
1040
0.0000633639716289
1040
0.0000633639716289
1040
0.0000633639716289
1040
0.0001202432812232
1040
0.0001202432812232
1040
0.0001202432812232
1040
0.0002185732413667
1040
0.0002185732413667
1040
0.0002185732413667
1040
0.0003415926015592
1040
0.0003415926015592
1040
0.0003415926015592
1040
0.0005980915810206
1040
0.0005980915810206
1040
0.0005980915810206
1040
0.0008442061024579
1040
0.0008442061024579
1040
0.0008442061024579
1040
0.0012011493140032
1040
0.0012011493140032
1040
0.0012011493140032
1040
0.001646373290985
1040
0.001646373290985
1040
0.001646373290985
1040
0.0017911520639957
1040
0.0017911520639957
1040
0.0017911520639957
1040
0.0018708373196031
1040
0.0018708373196031
1040
0.0018708373196031
1040
0.00191722241897
1040
0.00191722241897
1040
0.00191722241897
1040
0.0019640291130923
1040
0.0019640291130923
1040
0.0019640291130923
1040
0.0019640291130923
1040
11.983590682006909
1040
7.9444953118524859
1040
1.0
1040
11.98380170667158
1040
7.9444953118524859
1040
1.0
1040
11.984013128160511
1040
7.9445085315843569
1040
1.0
1040
11.984222534969261
1040
7.9445346121813571
1040
1.0
1040
11.98483057414691
1040
7.9446103404964887
1040
1.0
1040
11.98543095579654
1040
7.9447990903519541
1040
1.0
1040
11.98598186599475
1040
7.945067314834124
1040
1.0
1040
11.98664485329593
1040
7.9453901068718427
1040
1.0
1040
11.987254737582949
1040
7.9458326007312454
1040
1.0
1040
11.987795679048951
1040
7.9463337286506341
1040
1.0
1040
11.98872642979533
1040
7.9471959757037443
1040
1.0
1040
11.989486215842939
1040
7.948249736681956
1040
1.0
1040
11.990115249807641
1040
7.9493515911204433
1040
1.0
1040
11.990904528316481
1040
7.9507341397220301
1040
1.0
1040
11.99150910539022
1040
7.9522256172301073
1040
1.0
1040
11.99199891717789
1040
7.953740373188217
1040
1.0
1040
11.9930177169164
1040
7.9568910384294309
1040
1.0
1040
11.993571087802779
1040
7.9601918710629009
1040
1.0
1040
11.993942389815849
1040
7.9634822782084269
1040
1.0
1040
11.99429955569175
1040
7.9666474136206338
1040
1.0
1040
11.99447957609485
1040
7.9698332066631279
1040
1.0
1040
11.99457459649323
1040
7.9730170126819528
1040
1.0
1040
11.99471239355451
1040
7.9776341172249152
1040
1.0
1040
11.994684631129759
1040
7.9822606906226232
1040
1.0
1040
11.99445108957511
1040
7.9868739433504796
1040
1.0
1040
11.99416124666593
1040
7.9925993423846178
1040
1.0
1040
11.993644704838321
1040
7.9984523873890163
1040
1.0
1040
11.99172789999283
1040
8.0038551702083964
1040
1.0
1040
11.99109925755136
1040
8.0056270869428197
1040
1.0
1040
11.99029457215728
1040
8.0073725666995283
1040
1.0
1040
11.98918252057042
1040
8.0088885553211284
1040
1.0
1040
11.9885683280945
1040
8.0097258445407125
1040
1.0
1040
11.987844489930181
1040
8.0105061908275133
1040
1.0
1040
11.98700239983185
1040
8.0111137843597806
1040
1.0
1040
11.9865093346223
1040
8.0114695458547605
1040
1.0
1040
11.985967147566059
1040
8.0117698567397557
1040
1.0
1040
11.98539542795014
1040
8.0119767775530484
1040
1.0
1040
11.984820745359031
1040
8.0121847707473695
1040
1.0
1040
11.98420184585518
1040
8.0123001710057462
1040
1.0
1040
11.983590682006909
1040
8.0123001710057462
1040
1.0
1070
     1
1040
11.983590682006909
1040
8.0123001710057462
1040
11.94028359539274
1040
8.0123001710057462
1070
     4
1070
     3
1070
     1
1070
     0
1071
       20
1071
       16
1040
0.0
1040
0.0
1040
0.0
1040
0.0
1040
0.0000363216392725
1040
0.0000363216392725
1040
0.0000363216392725
1040
0.0000712458986241
1040
0.0000712458986241
1040
0.0000712458986241
1040
0.0001318476511274
1040
0.0001318476511274
1040
0.0001318476511274
1040
0.0001917724203652
1040
0.0001917724203652
1040
0.0001917724203652
1040
0.0005395562392611
1040
0.0005395562392611
1040
0.0005395562392611
1040
0.0005395562392611
1040
11.94028359539274
1040
8.0123001710060961
1040
1.0
1040
11.93980693346003
1040
8.0123001710060961
1040
1.0
1040
11.93932288156085
1040
8.0121933741879872
1040
1.0
1040
11.93888380781654
1040
8.0120078456318673
1040
1.0
1040
11.93845863902798
1040
8.0118281925497801
1040
1.0
1040
11.938061929352109
1040
8.0115736310632784
1040
1.0
1040
11.93770590024449
1040
8.0112798845684345
1040
1.0
1040
11.93709117597195
1040
8.0107726982275622
1040
1.0
1040
11.93657676947589
1040
8.0101390946616249
1040
1.0
1040
11.93614335541444
1040
8.0094703075751976
1040
1.0
1040
11.935712630960261
1040
8.0088056707337465
1040
1.0
1040
11.935353240709571
1040
8.0080930276457227
1040
1.0
1040
11.935044410026009
1040
8.0073637202380823
1040
1.0
1040
11.933298361321331
1040
8.0032404050284267
1040
1.0
1040
11.9328926260276
1040
7.9986168910167077
1040
1.0
1040
11.93264866412893
1040
7.9941457729251963
1040
1.0
1070
     1
1040
11.93264866412893
1040
7.9941457729251963
1040
11.96784265051085
1040
7.9941457729251963
1071
        0
1070
     0
1070
     1
1040
0.0
1040
1.25
1070
     0
1070
     1
1040
0.7853981633974483
1040
0.0
1040
0.0
1040
-0.110485434560398
1040
0.110485434560398
1070
     0
1071
        1
1040
0.0
1040
0.0
1040
0.0
1002
}
  0
INSERT
  5
219
  8
0
  6
CONTINUOUS
 62
     7
  2
SW_NOTE_4
 10
10.59205239137145
 20
8.3454549389002164
 30
0.0
  0
POLYLINE
  8
0
  5
1283
  62
7
  66
     1
 10
0.000000
 20
0.000000
 30
0.000000
  70
     8
  0
VERTEX
  8
0
  5
1284
 10
12.4167
 20
7.20327
 30
0.000000
  70
    32
  0
VERTEX
  8
0
  5
1285
 10
10.9046
 20
8.34545
 30
0.000000
  70
    32
  0
VERTEX
  8
0
  5
1286
 10
10.5921
 20
8.34545
 30
0.000000
  70
    32
  0
SEQEND
  8
0
  5
1287
  0
INSERT
  5
221
  8
0
  6
CONTINUOUS
 62
     7
  2
SW_NOTE_5
 10
10.02313882212502
 20
5.1166083248472614
 30
0.0
  0
POLYLINE
  8
0
  5
1288
  62
7
  66
     1
 10
0.000000
 20
0.000000
 30
0.000000
  70
     8
  0
VERTEX
  8
0
  5
1289
 10
10.6016
 20
5.59046
 30
0.000000
  70
    32
  0
VERTEX
  8
0
  5
128A
 10
10.3356
 20
5.11661
 30
0.000000
  70
    32
  0
VERTEX
  8
0
  5
128B
 10
10.0231
 20
5.11661
 30
0.000000
  70
    32
  0
SEQEND
  8
0
  5
128C
  0
INSERT
  5
228
  8
0
  6
CONTINUOUS
 62
     7
  2
SW_NOTE_6
 10
11.20985610827573
 20
4.19475865580449
 30
0.0
  0
POLYLINE
  8
0
  5
128D
  62
7
  66
     1
 10
0.000000
 20
0.000000
 30
0.000000
  70
     8
  0
VERTEX
  8
0
  5
128E
 10
11.9343
 20
4.86204
 30
0.000000
  70
    32
  0
VERTEX
  8
0
  5
128F
 10
11.5224
 20
4.19476
 30
0.000000
  70
    32
  0
VERTEX
  8
0
  5
1290
 10
11.2099
 20
4.19476
 30
0.000000
  70
    32
  0
SEQEND
  8
0
  5
1291
  0
LINE
  5
917
  8
0
  6
CONTINUOUS
 62
     7
 10
2.278041598010986
 20
7.193708909430824
 30
0.0
 11
6.3252856164110653
 21
7.193708909430824
 31
0.0
  0
LINE
  5
918
  8
0
  6
CONTINUOUS
 62
     7
 10
6.3252856164110653
 20
7.193708909430824
 30
0.0
 11
6.3252856164110653
 21
3.7724491312309278
 31
0.0
  0
LINE
  5
919
  8
0
  6
CONTINUOUS
 62
     7
 10
6.3252856164110653
 20
3.7724491312309278
 30
0.0
 11
2.278041598010986
 21
3.7724491312309278
 31
0.0
  0
LINE
  5
91A
  8
0
  6
CONTINUOUS
 62
     7
 10
2.278041598010986
 20
3.7724491312309278
 30
0.0
 11
2.278041598010986
 21
7.193708909430824
 31
0.0
  0
CIRCLE
  5
91B
  8
0
  6
CONTINUOUS
 62
     7
 10
6.1410336513710027
 20
6.9712679687308992
 30
0.0
 40
0.0255905507
  0
CIRCLE
  5
91C
  8
0
  6
CONTINUOUS
 62
     7
 10
5.9410336551310357
 20
6.9712679687308992
 30
0.0
 40
0.0255905507
  0
CIRCLE
  5
91D
  8
0
  6
CONTINUOUS
 62
     7
 10
5.7410336588910686
 20
6.9712679687308992
 30
0.0
 40
0.0255905507
  0
CIRCLE
  5
91E
  8
0
  6
CONTINUOUS
 62
     7
 10
5.541033662650988
 20
6.9712679687308992
 30
0.0
 40
0.0255905507
  0
CIRCLE
  5
91F
  8
0
  6
CONTINUOUS
 62
     7
 10
5.341033666411021
 20
6.9712679687308992
 30
0.0
 40
0.0255905507
  0
CIRCLE
  5
920
  8
0
  6
CONTINUOUS
 62
     7
 10
5.1410336701710539
 20
6.9712679687308992
 30
0.0
 40
0.0255905507
  0
CIRCLE
  5
921
  8
0
  6
CONTINUOUS
 62
     7
 10
4.9410336739309741
 20
6.9712679687308992
 30
0.0
 40
0.0255905507
  0
CIRCLE
  5
922
  8
0
  6
CONTINUOUS
 62
     7
 10
4.7410336776910071
 20
6.9712679687308992
 30
0.0
 40
0.0255905507
  0
CIRCLE
  5
923
  8
0
  6
CONTINUOUS
 62
     7
 10
4.5410336814510401
 20
6.9712679687308992
 30
0.0
 40
0.0255905507
  0
CIRCLE
  5
924
  8
0
  6
CONTINUOUS
 62
     7
 10
4.0622935329710108
 20
6.9712679687308992
 30
0.0
 40
0.0255905507
  0
CIRCLE
  5
925
  8
0
  6
CONTINUOUS
 62
     7
 10
3.8622935367310438
 20
6.9712679687308992
 30
0.0
 40
0.0255905507
  0
CIRCLE
  5
926
  8
0
  6
CONTINUOUS
 62
     7
 10
3.6622935404910768
 20
6.9506058509836057
 30
0.0
 40
0.0255905507
  0
CIRCLE
  5
927
  8
0
  6
CONTINUOUS
 62
     7
 10
3.462293544250997
 20
6.9712679687308992
 30
0.0
 40
0.0255905507
  0
CIRCLE
  5
928
  8
0
  6
CONTINUOUS
 62
     7
 10
3.2622935480110291
 20
6.9712679687308992
 30
0.0
 40
0.0255905507
  0
CIRCLE
  5
929
  8
0
  6
CONTINUOUS
 62
     7
 10
3.0622935517710621
 20
6.9712679687308992
 30
0.0
 40
0.0255905507
  0
CIRCLE
  5
92A
  8
0
  6
CONTINUOUS
 62
     7
 10
2.8622935555309819
 20
6.9712679687308992
 30
0.0
 40
0.0255905507
  0
CIRCLE
  5
92B
  8
0
  6
CONTINUOUS
 62
     7
 10
2.6622935592910149
 20
6.9712679687308992
 30
0.0
 40
0.0255905507
  0
CIRCLE
  5
92C
  8
0
  6
CONTINUOUS
 62
     7
 10
2.4622935630510479
 20
6.9712679687308992
 30
0.0
 40
0.0255905507
  0
CIRCLE
  5
92D
  8
0
  6
CONTINUOUS
 62
     7
 10
6.1410336513710027
 20
3.9948900719308531
 30
0.0
 40
0.0255905507
  0
CIRCLE
  5
92E
  8
0
  6
CONTINUOUS
 62
     7
 10
5.9410336551310357
 20
3.9948900719308531
 30
0.0
 40
0.0255905507
  0
CIRCLE
  5
92F
  8
0
  6
CONTINUOUS
 62
     7
 10
5.7410336588910686
 20
3.9948900719308531
 30
0.0
 40
0.0255905507
  0
CIRCLE
  5
930
  8
0
  6
CONTINUOUS
 62
     7
 10
5.541033662650988
 20
3.9948900719308531
 30
0.0
 40
0.0255905507
  0
CIRCLE
  5
931
  8
0
  6
CONTINUOUS
 62
     7
 10
5.341033666411021
 20
3.9948900719308531
 30
0.0
 40
0.0255905507
  0
CIRCLE
  5
932
  8
0
  6
CONTINUOUS
 62
     7
 10
5.1410336701710539
 20
3.9948900719308531
 30
0.0
 40
0.0255905507
  0
CIRCLE
  5
933
  8
0
  6
CONTINUOUS
 62
     7
 10
4.9410336739309741
 20
3.9948900719308531
 30
0.0
 40
0.0255905507
  0
CIRCLE
  5
934
  8
0
  6
CONTINUOUS
 62
     7
 10
4.7410336776910071
 20
3.9948900719308531
 30
0.0
 40
0.0255905507
  0
CIRCLE
  5
935
  8
0
  6
CONTINUOUS
 62
     7
 10
4.5410336814510401
 20
3.9948900719308531
 30
0.0
 40
0.0255905507
  0
CIRCLE
  5
936
  8
0
  6
CONTINUOUS
 62
     7
 10
4.0622935329710108
 20
3.9948900719308531
 30
0.0
 40
0.0255905507
  0
CIRCLE
  5
937
  8
0
  6
CONTINUOUS
 62
     7
 10
3.8622935367310438
 20
3.9948900719308531
 30
0.0
 40
0.0255905507
  0
CIRCLE
  5
938
  8
0
  6
CONTINUOUS
 62
     7
 10
3.6622935404910768
 20
4.0155521896781456
 30
0.0
 40
0.0255905507
  0
CIRCLE
  5
939
  8
0
  6
CONTINUOUS
 62
     7
 10
3.462293544250997
 20
3.9948900719308531
 30
0.0
 40
0.0255905507
  0
CIRCLE
  5
93A
  8
0
  6
CONTINUOUS
 62
     7
 10
3.2622935480110291
 20
3.9948900719308531
 30
0.0
 40
0.0255905507
  0
CIRCLE
  5
93B
  8
0
  6
CONTINUOUS
 62
     7
 10
3.0622935517710621
 20
3.9948900719308531
 30
0.0
 40
0.0255905507
  0
CIRCLE
  5
93C
  8
0
  6
CONTINUOUS
 62
     7
 10
2.8622935555309819
 20
3.9948900719308531
 30
0.0
 40
0.0255905507
  0
CIRCLE
  5
93D
  8
0
  6
CONTINUOUS
 62
     7
 10
2.6622935592910149
 20
3.9948900719308531
 30
0.0
 40
0.0255905507
  0
CIRCLE
  5
93E
  8
0
  6
CONTINUOUS
 62
     7
 10
2.4622935630510479
 20
3.9948900719308531
 30
0.0
 40
0.0255905507
  0
CIRCLE
  5
93F
  8
0
  6
CONTINUOUS
 62
     7
 10
6.0016635752509719
 20
4.5830790372508536
 30
0.0
 40
0.0255905507
  0
CIRCLE
  5
940
  8
0
  6
CONTINUOUS
 62
     7
 10
6.0016635752509719
 20
4.683079035370838
 30
0.0
 40
0.0255905507
  0
CIRCLE
  5
941
  8
0
  6
CONTINUOUS
 62
     7
 10
6.0016635752509719
 20
4.7830790334908206
 30
0.0
 40
0.0255905507
  0
CIRCLE
  5
942
  8
0
  6
CONTINUOUS
 62
     7
 10
6.0016635752509719
 20
4.8830790316109178
 30
0.0
 40
0.0255905507
  0
CIRCLE
  5
943
  8
0
  6
CONTINUOUS
 62
     7
 10
6.0016635752509719
 20
4.9830790297309022
 30
0.0
 40
0.0255905507
  0
CIRCLE
  5
944
  8
0
  6
CONTINUOUS
 62
     7
 10
6.0016635752509719
 20
5.0830790278508848
 30
0.0
 40
0.0255905507
  0
CIRCLE
  5
945
  8
0
  6
CONTINUOUS
 62
     7
 10
6.0016635752509719
 20
5.1830790259708692
 30
0.0
 40
0.0255905507
  0
CIRCLE
  5
946
  8
0
  6
CONTINUOUS
 62
     7
 10
6.0016635752509719
 20
5.2830790240908518
 30
0.0
 40
0.0255905507
  0
CIRCLE
  5
947
  8
0
  6
CONTINUOUS
 62
     7
 10
6.0016635752509719
 20
5.3830790222108362
 30
0.0
 40
0.0255905507
  0
CIRCLE
  5
948
  8
0
  6
CONTINUOUS
 62
     7
 10
6.0016635752509719
 20
5.4830790203308188
 30
0.0
 40
0.0255905507
  0
CIRCLE
  5
949
  8
0
  6
CONTINUOUS
 62
     7
 10
6.0016635752509719
 20
5.583079018450916
 30
0.0
 40
0.0255905507
  0
CIRCLE
  5
94A
  8
0
  6
CONTINUOUS
 62
     7
 10
6.0016635752509719
 20
5.6830790165709004
 30
0.0
 40
0.0255905507
  0
CIRCLE
  5
94B
  8
0
  6
CONTINUOUS
 62
     7
 10
6.0016635752509719
 20
5.783079014690883
 30
0.0
 40
0.0255905507
  0
CIRCLE
  5
94C
  8
0
  6
CONTINUOUS
 62
     7
 10
6.0016635752509719
 20
5.8830790128108674
 30
0.0
 40
0.0255905507
  0
CIRCLE
  5
94D
  8
0
  6
CONTINUOUS
 62
     7
 10
6.0016635752509719
 20
5.98307901093085
 30
0.0
 40
0.0255905507
  0
CIRCLE
  5
94E
  8
0
  6
CONTINUOUS
 62
     7
 10
6.0016635752509719
 20
6.0830790090508344
 30
0.0
 40
0.0255905507
  0
CIRCLE
  5
94F
  8
0
  6
CONTINUOUS
 62
     7
 10
6.0016635752509719
 20
6.183079007170817
 30
0.0
 40
0.0255905507
  0
CIRCLE
  5
950
  8
0
  6
CONTINUOUS
 62
     7
 10
6.0016635752509719
 20
6.2830790052908014
 30
0.0
 40
0.0255905507
  0
CIRCLE
  5
951
  8
0
  6
CONTINUOUS
 62
     7
 10
6.0016635752509719
 20
6.3830790034108977
 30
0.0
 40
0.0255905507
  0
CIRCLE
  5
952
  8
0
  6
CONTINUOUS
 62
     7
 10
6.10166357337107
 20
4.5830790372508536
 30
0.0
 40
0.0255905507
  0
CIRCLE
  5
953
  8
0
  6
CONTINUOUS
 62
     7
 10
6.10166357337107
 20
4.683079035370838
 30
0.0
 40
0.0255905507
  0
CIRCLE
  5
954
  8
0
  6
CONTINUOUS
 62
     7
 10
6.10166357337107
 20
4.7830790334908206
 30
0.0
 40
0.0255905507
  0
CIRCLE
  5
955
  8
0
  6
CONTINUOUS
 62
     7
 10
6.10166357337107
 20
4.8830790316109178
 30
0.0
 40
0.0255905507
  0
CIRCLE
  5
956
  8
0
  6
CONTINUOUS
 62
     7
 10
6.10166357337107
 20
4.9830790297309022
 30
0.0
 40
0.0255905507
  0
CIRCLE
  5
957
  8
0
  6
CONTINUOUS
 62
     7
 10
6.10166357337107
 20
5.0830790278508848
 30
0.0
 40
0.0255905507
  0
CIRCLE
  5
958
  8
0
  6
CONTINUOUS
 62
     7
 10
6.10166357337107
 20
5.1830790259708692
 30
0.0
 40
0.0255905507
  0
CIRCLE
  5
959
  8
0
  6
CONTINUOUS
 62
     7
 10
6.10166357337107
 20
5.2830790240908518
 30
0.0
 40
0.0255905507
  0
CIRCLE
  5
95A
  8
0
  6
CONTINUOUS
 62
     7
 10
6.10166357337107
 20
5.3830790222108362
 30
0.0
 40
0.0255905507
  0
CIRCLE
  5
95B
  8
0
  6
CONTINUOUS
 62
     7
 10
6.10166357337107
 20
5.4830790203308188
 30
0.0
 40
0.0255905507
  0
CIRCLE
  5
95C
  8
0
  6
CONTINUOUS
 62
     7
 10
6.10166357337107
 20
5.583079018450916
 30
0.0
 40
0.0255905507
  0
CIRCLE
  5
95D
  8
0
  6
CONTINUOUS
 62
     7
 10
6.10166357337107
 20
5.6830790165709004
 30
0.0
 40
0.0255905507
  0
CIRCLE
  5
95E
  8
0
  6
CONTINUOUS
 62
     7
 10
6.10166357337107
 20
5.783079014690883
 30
0.0
 40
0.0255905507
  0
CIRCLE
  5
95F
  8
0
  6
CONTINUOUS
 62
     7
 10
6.10166357337107
 20
5.8830790128108674
 30
0.0
 40
0.0255905507
  0
CIRCLE
  5
960
  8
0
  6
CONTINUOUS
 62
     7
 10
6.10166357337107
 20
5.98307901093085
 30
0.0
 40
0.0255905507
  0
CIRCLE
  5
961
  8
0
  6
CONTINUOUS
 62
     7
 10
6.10166357337107
 20
6.0830790090508344
 30
0.0
 40
0.0255905507
  0
CIRCLE
  5
962
  8
0
  6
CONTINUOUS
 62
     7
 10
6.10166357337107
 20
6.183079007170817
 30
0.0
 40
0.0255905507
  0
CIRCLE
  5
963
  8
0
  6
CONTINUOUS
 62
     7
 10
6.10166357337107
 20
6.2830790052908014
 30
0.0
 40
0.0255905507
  0
CIRCLE
  5
964
  8
0
  6
CONTINUOUS
 62
     7
 10
6.10166357337107
 20
6.3830790034108977
 30
0.0
 40
0.0255905507
  0
CIRCLE
  5
965
  8
0
  6
CONTINUOUS
 62
     7
 10
5.9016635771309893
 20
4.483079039130871
 30
0.0
 40
0.0255905507
  0
CIRCLE
  5
966
  8
0
  6
CONTINUOUS
 62
     7
 10
5.9016635771309893
 20
4.5830790372508536
 30
0.0
 40
0.0255905507
  0
CIRCLE
  5
967
  8
0
  6
CONTINUOUS
 62
     7
 10
5.9016635771309893
 20
4.683079035370838
 30
0.0
 40
0.0255905507
  0
CIRCLE
  5
968
  8
0
  6
CONTINUOUS
 62
     7
 10
5.9016635771309893
 20
4.7830790334908206
 30
0.0
 40
0.0255905507
  0
CIRCLE
  5
969
  8
0
  6
CONTINUOUS
 62
     7
 10
5.9016635771309893
 20
4.8830790316109178
 30
0.0
 40
0.0255905507
  0
CIRCLE
  5
96A
  8
0
  6
CONTINUOUS
 62
     7
 10
5.9016635771309893
 20
4.9830790297309022
 30
0.0
 40
0.0255905507
  0
CIRCLE
  5
96B
  8
0
  6
CONTINUOUS
 62
     7
 10
5.9016635771309893
 20
5.0830790278508848
 30
0.0
 40
0.0255905507
  0
CIRCLE
  5
96C
  8
0
  6
CONTINUOUS
 62
     7
 10
5.9016635771309893
 20
5.1830790259708692
 30
0.0
 40
0.0255905507
  0
CIRCLE
  5
96D
  8
0
  6
CONTINUOUS
 62
     7
 10
5.9016635771309893
 20
5.2830790240908518
 30
0.0
 40
0.0255905507
  0
CIRCLE
  5
96E
  8
0
  6
CONTINUOUS
 62
     7
 10
5.9016635771309893
 20
5.3830790222108362
 30
0.0
 40
0.0255905507
  0
CIRCLE
  5
96F
  8
0
  6
CONTINUOUS
 62
     7
 10
5.9016635771309893
 20
5.4830790203308188
 30
0.0
 40
0.0255905507
  0
CIRCLE
  5
970
  8
0
  6
CONTINUOUS
 62
     7
 10
5.9016635771309893
 20
5.583079018450916
 30
0.0
 40
0.0255905507
  0
CIRCLE
  5
971
  8
0
  6
CONTINUOUS
 62
     7
 10
5.9016635771309893
 20
5.6830790165709004
 30
0.0
 40
0.0255905507
  0
CIRCLE
  5
972
  8
0
  6
CONTINUOUS
 62
     7
 10
5.9016635771309893
 20
5.783079014690883
 30
0.0
 40
0.0255905507
  0
CIRCLE
  5
973
  8
0
  6
CONTINUOUS
 62
     7
 10
5.9016635771309893
 20
5.8830790128108674
 30
0.0
 40
0.0255905507
  0
CIRCLE
  5
974
  8
0
  6
CONTINUOUS
 62
     7
 10
5.9016635771309893
 20
5.98307901093085
 30
0.0
 40
0.0255905507
  0
CIRCLE
  5
975
  8
0
  6
CONTINUOUS
 62
     7
 10
5.9016635771309893
 20
6.0830790090508344
 30
0.0
 40
0.0255905507
  0
CIRCLE
  5
976
  8
0
  6
CONTINUOUS
 62
     7
 10
5.9016635771309893
 20
6.183079007170817
 30
0.0
 40
0.0255905507
  0
CIRCLE
  5
977
  8
0
  6
CONTINUOUS
 62
     7
 10
5.9016635771309893
 20
6.2830790052908014
 30
0.0
 40
0.0255905507
  0
CIRCLE
  5
978
  8
0
  6
CONTINUOUS
 62
     7
 10
5.9016635771309893
 20
6.3830790034108977
 30
0.0
 40
0.0255905507
  0
CIRCLE
  5
979
  8
0
  6
CONTINUOUS
 62
     7
 10
5.9016635771309893
 20
6.4830790015308821
 30
0.0
 40
0.0255905507
  0
CIRCLE
  5
97A
  8
0
  6
CONTINUOUS
 62
     7
 10
2.5016636410510951
 20
4.5802572988707189
 30
0.0
 40
0.0255905507
  0
CIRCLE
  5
97B
  8
0
  6
CONTINUOUS
 62
     7
 10
2.5016636410510951
 20
4.6802572969907033
 30
0.0
 40
0.0255905507
  0
CIRCLE
  5
97C
  8
0
  6
CONTINUOUS
 62
     7
 10
2.5016636410510951
 20
4.7802572951106859
 30
0.0
 40
0.0255905507
  0
CIRCLE
  5
97D
  8
0
  6
CONTINUOUS
 62
     7
 10
2.5016636410510951
 20
4.8802572932306703
 30
0.0
 40
0.0255905507
  0
CIRCLE
  5
97E
  8
0
  6
CONTINUOUS
 62
     7
 10
2.5016636410510951
 20
4.9802572913506529
 30
0.0
 40
0.0255905507
  0
CIRCLE
  5
97F
  8
0
  6
CONTINUOUS
 62
     7
 10
2.5016636410510951
 20
5.0802572894706373
 30
0.0
 40
0.0255905507
  0
CIRCLE
  5
980
  8
0
  6
CONTINUOUS
 62
     7
 10
2.5016636410510951
 20
5.1802572875906199
 30
0.0
 40
0.0255905507
  0
CIRCLE
  5
981
  8
0
  6
CONTINUOUS
 62
     7
 10
2.5016636410510951
 20
5.2802572857107171
 30
0.0
 40
0.0255905507
  0
CIRCLE
  5
982
  8
0
  6
CONTINUOUS
 62
     7
 10
2.5016636410510951
 20
5.3802572838307006
 30
0.0
 40
0.0255905507
  0
CIRCLE
  5
983
  8
0
  6
CONTINUOUS
 62
     7
 10
2.5016636410510951
 20
5.4802572819506841
 30
0.0
 40
0.0255905507
  0
CIRCLE
  5
984
  8
0
  6
CONTINUOUS
 62
     7
 10
2.5016636410510951
 20
5.5802572800706676
 30
0.0
 40
0.0255905507
  0
CIRCLE
  5
985
  8
0
  6
CONTINUOUS
 62
     7
 10
2.5016636410510951
 20
5.6802572781906511
 30
0.0
 40
0.0255905507
  0
CIRCLE
  5
986
  8
0
  6
CONTINUOUS
 62
     7
 10
2.5016636410510951
 20
5.7802572763106346
 30
0.0
 40
0.0255905507
  0
CIRCLE
  5
987
  8
0
  6
CONTINUOUS
 62
     7
 10
2.5016636410510951
 20
5.8802572744306181
 30
0.0
 40
0.0255905507
  0
CIRCLE
  5
988
  8
0
  6
CONTINUOUS
 62
     7
 10
2.5016636410510951
 20
5.9802572725506016
 30
0.0
 40
0.0255905507
  0
CIRCLE
  5
989
  8
0
  6
CONTINUOUS
 62
     7
 10
2.5016636410510951
 20
6.0802572706706988
 30
0.0
 40
0.0255905507
  0
CIRCLE
  5
98A
  8
0
  6
CONTINUOUS
 62
     7
 10
2.5016636410510951
 20
6.1802572687906832
 30
0.0
 40
0.0255905507
  0
CIRCLE
  5
98B
  8
0
  6
CONTINUOUS
 62
     7
 10
2.5016636410510951
 20
6.2802572669106658
 30
0.0
 40
0.0255905507
  0
CIRCLE
  5
98C
  8
0
  6
CONTINUOUS
 62
     7
 10
2.5016636410510951
 20
6.3802572650306502
 30
0.0
 40
0.0255905507
  0
CIRCLE
  5
98D
  8
0
  6
CONTINUOUS
 62
     7
 10
2.601663639171079
 20
4.5802572988707189
 30
0.0
 40
0.0255905507
  0
CIRCLE
  5
98E
  8
0
  6
CONTINUOUS
 62
     7
 10
2.601663639171079
 20
4.6802572969907033
 30
0.0
 40
0.0255905507
  0
CIRCLE
  5
98F
  8
0
  6
CONTINUOUS
 62
     7
 10
2.601663639171079
 20
4.7802572951106859
 30
0.0
 40
0.0255905507
  0
CIRCLE
  5
990
  8
0
  6
CONTINUOUS
 62
     7
 10
2.601663639171079
 20
4.8802572932306703
 30
0.0
 40
0.0255905507
  0
CIRCLE
  5
991
  8
0
  6
CONTINUOUS
 62
     7
 10
2.601663639171079
 20
4.9802572913506529
 30
0.0
 40
0.0255905507
  0
CIRCLE
  5
992
  8
0
  6
CONTINUOUS
 62
     7
 10
2.601663639171079
 20
5.0802572894706373
 30
0.0
 40
0.0255905507
  0
CIRCLE
  5
993
  8
0
  6
CONTINUOUS
 62
     7
 10
2.601663639171079
 20
5.1802572875906199
 30
0.0
 40
0.0255905507
  0
CIRCLE
  5
994
  8
0
  6
CONTINUOUS
 62
     7
 10
2.601663639171079
 20
5.2802572857107171
 30
0.0
 40
0.0255905507
  0
CIRCLE
  5
995
  8
0
  6
CONTINUOUS
 62
     7
 10
2.601663639171079
 20
5.3802572838307006
 30
0.0
 40
0.0255905507
  0
CIRCLE
  5
996
  8
0
  6
CONTINUOUS
 62
     7
 10
2.601663639171079
 20
5.4802572819506841
 30
0.0
 40
0.0255905507
  0
CIRCLE
  5
997
  8
0
  6
CONTINUOUS
 62
     7
 10
2.601663639171079
 20
5.5802572800706676
 30
0.0
 40
0.0255905507
  0
CIRCLE
  5
998
  8
0
  6
CONTINUOUS
 62
     7
 10
2.601663639171079
 20
5.6802572781906511
 30
0.0
 40
0.0255905507
  0
CIRCLE
  5
999
  8
0
  6
CONTINUOUS
 62
     7
 10
2.601663639171079
 20
5.7802572763106346
 30
0.0
 40
0.0255905507
  0
CIRCLE
  5
99A
  8
0
  6
CONTINUOUS
 62
     7
 10
2.601663639171079
 20
5.8802572744306181
 30
0.0
 40
0.0255905507
  0
CIRCLE
  5
99B
  8
0
  6
CONTINUOUS
 62
     7
 10
2.601663639171079
 20
5.9802572725506016
 30
0.0
 40
0.0255905507
  0
CIRCLE
  5
99C
  8
0
  6
CONTINUOUS
 62
     7
 10
2.601663639171079
 20
6.0802572706706988
 30
0.0
 40
0.0255905507
  0
CIRCLE
  5
99D
  8
0
  6
CONTINUOUS
 62
     7
 10
2.601663639171079
 20
6.1802572687906832
 30
0.0
 40
0.0255905507
  0
CIRCLE
  5
99E
  8
0
  6
CONTINUOUS
 62
     7
 10
2.601663639171079
 20
6.2802572669106658
 30
0.0
 40
0.0255905507
  0
CIRCLE
  5
99F
  8
0
  6
CONTINUOUS
 62
     7
 10
2.601663639171079
 20
6.3802572650306502
 30
0.0
 40
0.0255905507
  0
CIRCLE
  5
9A8
  8
0
  6
CONTINUOUS
 62
     7
 10
2.4748919880109952
 20
6.6031577394309124
 30
0.0
 40
0.059055117
  0
CIRCLE
  5
9A9
  8
0
  6
CONTINUOUS
 62
     7
 10
6.1284352264110558
 20
6.6031577394309124
 30
0.0
 40
0.059055117
  0
CIRCLE
  5
9AA
  8
0
  6
CONTINUOUS
 62
     7
 10
6.1284352264110558
 20
6.6031577394309124
 30
0.0
 40
0.059055117
  0
CIRCLE
  5
9AB
  8
0
  6
CONTINUOUS
 62
     7
 10
6.1284352264110558
 20
6.6031577394309124
 30
0.0
 40
0.059055117
  0
CIRCLE
  5
9AC
  8
0
  6
CONTINUOUS
 62
     7
 10
2.4748919880109952
 20
4.3630003012308398
 30
0.0
 40
0.059055117
  0
CIRCLE
  5
9AD
  8
0
  6
CONTINUOUS
 62
     7
 10
6.1284352264110558
 20
4.3630003012308398
 30
0.0
 40
0.059055117
  0
CIRCLE
  5
9C8
  8
0
  6
CONTINUOUS
 62
     7
 10
5.9016635771309893
 20
4.483079039130871
 30
0.0
 40
0.0255905507
  0
CIRCLE
  5
9C9
  8
0
  6
CONTINUOUS
 62
     7
 10
5.9016635771309893
 20
4.5830790372508536
 30
0.0
 40
0.0255905507
  0
CIRCLE
  5
9CA
  8
0
  6
CONTINUOUS
 62
     7
 10
5.9016635771309893
 20
4.683079035370838
 30
0.0
 40
0.0255905507
  0
CIRCLE
  5
9CB
  8
0
  6
CONTINUOUS
 62
     7
 10
5.9016635771309893
 20
4.7830790334908206
 30
0.0
 40
0.0255905507
  0
CIRCLE
  5
9CC
  8
0
  6
CONTINUOUS
 62
     7
 10
5.9016635771309893
 20
4.8830790316109178
 30
0.0
 40
0.0255905507
  0
CIRCLE
  5
9CD
  8
0
  6
CONTINUOUS
 62
     7
 10
5.9016635771309893
 20
4.9830790297309022
 30
0.0
 40
0.0255905507
  0
CIRCLE
  5
9CE
  8
0
  6
CONTINUOUS
 62
     7
 10
5.9016635771309893
 20
5.0830790278508848
 30
0.0
 40
0.0255905507
  0
CIRCLE
  5
9CF
  8
0
  6
CONTINUOUS
 62
     7
 10
5.9016635771309893
 20
5.1830790259708692
 30
0.0
 40
0.0255905507
  0
CIRCLE
  5
9D0
  8
0
  6
CONTINUOUS
 62
     7
 10
5.9016635771309893
 20
5.2830790240908518
 30
0.0
 40
0.0255905507
  0
CIRCLE
  5
9D1
  8
0
  6
CONTINUOUS
 62
     7
 10
5.9016635771309893
 20
5.3830790222108362
 30
0.0
 40
0.0255905507
  0
CIRCLE
  5
9D2
  8
0
  6
CONTINUOUS
 62
     7
 10
5.9016635771309893
 20
5.4830790203308188
 30
0.0
 40
0.0255905507
  0
CIRCLE
  5
9D3
  8
0
  6
CONTINUOUS
 62
     7
 10
5.9016635771309893
 20
5.583079018450916
 30
0.0
 40
0.0255905507
  0
CIRCLE
  5
9D4
  8
0
  6
CONTINUOUS
 62
     7
 10
5.9016635771309893
 20
5.6830790165709004
 30
0.0
 40
0.0255905507
  0
CIRCLE
  5
9D5
  8
0
  6
CONTINUOUS
 62
     7
 10
5.9016635771309893
 20
5.783079014690883
 30
0.0
 40
0.0255905507
  0
CIRCLE
  5
9D6
  8
0
  6
CONTINUOUS
 62
     7
 10
5.9016635771309893
 20
5.8830790128108674
 30
0.0
 40
0.0255905507
  0
CIRCLE
  5
9D7
  8
0
  6
CONTINUOUS
 62
     7
 10
5.9016635771309893
 20
5.98307901093085
 30
0.0
 40
0.0255905507
  0
CIRCLE
  5
9D8
  8
0
  6
CONTINUOUS
 62
     7
 10
5.9016635771309893
 20
6.0830790090508344
 30
0.0
 40
0.0255905507
  0
CIRCLE
  5
9D9
  8
0
  6
CONTINUOUS
 62
     7
 10
5.9016635771309893
 20
6.183079007170817
 30
0.0
 40
0.0255905507
  0
CIRCLE
  5
9DA
  8
0
  6
CONTINUOUS
 62
     7
 10
5.9016635771309893
 20
6.2830790052908014
 30
0.0
 40
0.0255905507
  0
CIRCLE
  5
9DB
  8
0
  6
CONTINUOUS
 62
     7
 10
5.9016635771309893
 20
6.3830790034108977
 30
0.0
 40
0.0255905507
  0
CIRCLE
  5
9DC
  8
0
  6
CONTINUOUS
 62
     7
 10
5.8016635790110049
 20
4.483079039130871
 30
0.0
 40
0.0255905507
  0
CIRCLE
  5
9DD
  8
0
  6
CONTINUOUS
 62
     7
 10
5.8016635790110049
 20
4.5830790372508536
 30
0.0
 40
0.0255905507
  0
CIRCLE
  5
9DE
  8
0
  6
CONTINUOUS
 62
     7
 10
5.8016635790110049
 20
4.683079035370838
 30
0.0
 40
0.0255905507
  0
CIRCLE
  5
9DF
  8
0
  6
CONTINUOUS
 62
     7
 10
5.8016635790110049
 20
4.7830790334908206
 30
0.0
 40
0.0255905507
  0
CIRCLE
  5
9E0
  8
0
  6
CONTINUOUS
 62
     7
 10
5.8016635790110049
 20
4.8830790316109178
 30
0.0
 40
0.0255905507
  0
CIRCLE
  5
9E1
  8
0
  6
CONTINUOUS
 62
     7
 10
5.8016635790110049
 20
4.9830790297309022
 30
0.0
 40
0.0255905507
  0
CIRCLE
  5
9E2
  8
0
  6
CONTINUOUS
 62
     7
 10
5.8016635790110049
 20
5.0830790278508848
 30
0.0
 40
0.0255905507
  0
CIRCLE
  5
9E3
  8
0
  6
CONTINUOUS
 62
     7
 10
5.8016635790110049
 20
5.1830790259708692
 30
0.0
 40
0.0255905507
  0
CIRCLE
  5
9E4
  8
0
  6
CONTINUOUS
 62
     7
 10
5.8016635790110049
 20
5.2830790240908518
 30
0.0
 40
0.0255905507
  0
CIRCLE
  5
9E5
  8
0
  6
CONTINUOUS
 62
     7
 10
5.8016635790110049
 20
5.3830790222108362
 30
0.0
 40
0.0255905507
  0
CIRCLE
  5
9E6
  8
0
  6
CONTINUOUS
 62
     7
 10
5.8016635790110049
 20
5.4830790203308188
 30
0.0
 40
0.0255905507
  0
CIRCLE
  5
9E7
  8
0
  6
CONTINUOUS
 62
     7
 10
5.8016635790110049
 20
5.583079018450916
 30
0.0
 40
0.0255905507
  0
CIRCLE
  5
9E8
  8
0
  6
CONTINUOUS
 62
     7
 10
5.8016635790110049
 20
5.6830790165709004
 30
0.0
 40
0.0255905507
  0
CIRCLE
  5
9E9
  8
0
  6
CONTINUOUS
 62
     7
 10
5.8016635790110049
 20
5.783079014690883
 30
0.0
 40
0.0255905507
  0
CIRCLE
  5
9EA
  8
0
  6
CONTINUOUS
 62
     7
 10
5.8016635790110049
 20
5.8830790128108674
 30
0.0
 40
0.0255905507
  0
CIRCLE
  5
9EB
  8
0
  6
CONTINUOUS
 62
     7
 10
5.8016635790110049
 20
5.98307901093085
 30
0.0
 40
0.0255905507
  0
CIRCLE
  5
9EC
  8
0
  6
CONTINUOUS
 62
     7
 10
5.8016635790110049
 20
6.0830790090508344
 30
0.0
 40
0.0255905507
  0
CIRCLE
  5
9ED
  8
0
  6
CONTINUOUS
 62
     7
 10
5.8016635790110049
 20
6.183079007170817
 30
0.0
 40
0.0255905507
  0
CIRCLE
  5
9EE
  8
0
  6
CONTINUOUS
 62
     7
 10
5.8016635790110049
 20
6.2830790052908014
 30
0.0
 40
0.0255905507
  0
CIRCLE
  5
9EF
  8
0
  6
CONTINUOUS
 62
     7
 10
5.8016635790110049
 20
6.3830790034108977
 30
0.0
 40
0.0255905507
  0
CIRCLE
  5
9F0
  8
0
  6
CONTINUOUS
 62
     7
 10
5.8016635790110049
 20
6.4830790015308821
 30
0.0
 40
0.0255905507
  0
CIRCLE
  5
9F1
  8
0
  6
CONTINUOUS
 62
     7
 10
5.8016635790110049
 20
4.483079039130871
 30
0.0
 40
0.0255905507
  0
CIRCLE
  5
9F2
  8
0
  6
CONTINUOUS
 62
     7
 10
5.8016635790110049
 20
4.5830790372508536
 30
0.0
 40
0.0255905507
  0
CIRCLE
  5
9F3
  8
0
  6
CONTINUOUS
 62
     7
 10
5.8016635790110049
 20
4.683079035370838
 30
0.0
 40
0.0255905507
  0
CIRCLE
  5
9F4
  8
0
  6
CONTINUOUS
 62
     7
 10
5.8016635790110049
 20
4.7830790334908206
 30
0.0
 40
0.0255905507
  0
CIRCLE
  5
9F5
  8
0
  6
CONTINUOUS
 62
     7
 10
5.8016635790110049
 20
4.8830790316109178
 30
0.0
 40
0.0255905507
  0
CIRCLE
  5
9F6
  8
0
  6
CONTINUOUS
 62
     7
 10
5.8016635790110049
 20
4.9830790297309022
 30
0.0
 40
0.0255905507
  0
CIRCLE
  5
9F7
  8
0
  6
CONTINUOUS
 62
     7
 10
5.8016635790110049
 20
5.0830790278508848
 30
0.0
 40
0.0255905507
  0
CIRCLE
  5
9F8
  8
0
  6
CONTINUOUS
 62
     7
 10
5.8016635790110049
 20
5.1830790259708692
 30
0.0
 40
0.0255905507
  0
CIRCLE
  5
9F9
  8
0
  6
CONTINUOUS
 62
     7
 10
5.8016635790110049
 20
5.2830790240908518
 30
0.0
 40
0.0255905507
  0
CIRCLE
  5
9FA
  8
0
  6
CONTINUOUS
 62
     7
 10
5.8016635790110049
 20
5.3830790222108362
 30
0.0
 40
0.0255905507
  0
CIRCLE
  5
9FB
  8
0
  6
CONTINUOUS
 62
     7
 10
5.8016635790110049
 20
5.4830790203308188
 30
0.0
 40
0.0255905507
  0
CIRCLE
  5
9FC
  8
0
  6
CONTINUOUS
 62
     7
 10
5.8016635790110049
 20
5.583079018450916
 30
0.0
 40
0.0255905507
  0
CIRCLE
  5
9FD
  8
0
  6
CONTINUOUS
 62
     7
 10
5.8016635790110049
 20
5.6830790165709004
 30
0.0
 40
0.0255905507
  0
CIRCLE
  5
9FE
  8
0
  6
CONTINUOUS
 62
     7
 10
5.8016635790110049
 20
5.783079014690883
 30
0.0
 40
0.0255905507
  0
CIRCLE
  5
9FF
  8
0
  6
CONTINUOUS
 62
     7
 10
5.8016635790110049
 20
5.8830790128108674
 30
0.0
 40
0.0255905507
  0
CIRCLE
  5
A00
  8
0
  6
CONTINUOUS
 62
     7
 10
5.8016635790110049
 20
5.98307901093085
 30
0.0
 40
0.0255905507
  0
CIRCLE
  5
A01
  8
0
  6
CONTINUOUS
 62
     7
 10
5.8016635790110049
 20
6.0830790090508344
 30
0.0
 40
0.0255905507
  0
CIRCLE
  5
A02
  8
0
  6
CONTINUOUS
 62
     7
 10
5.8016635790110049
 20
6.183079007170817
 30
0.0
 40
0.0255905507
  0
CIRCLE
  5
A03
  8
0
  6
CONTINUOUS
 62
     7
 10
5.8016635790110049
 20
6.2830790052908014
 30
0.0
 40
0.0255905507
  0
CIRCLE
  5
A04
  8
0
  6
CONTINUOUS
 62
     7
 10
5.8016635790110049
 20
6.3830790034108977
 30
0.0
 40
0.0255905507
  0
CIRCLE
  5
A05
  8
0
  6
CONTINUOUS
 62
     7
 10
5.7016635808910223
 20
4.483079039130871
 30
0.0
 40
0.0255905507
  0
CIRCLE
  5
A06
  8
0
  6
CONTINUOUS
 62
     7
 10
5.7016635808910223
 20
4.5830790372508536
 30
0.0
 40
0.0255905507
  0
CIRCLE
  5
A07
  8
0
  6
CONTINUOUS
 62
     7
 10
5.7016635808910223
 20
4.683079035370838
 30
0.0
 40
0.0255905507
  0
CIRCLE
  5
A08
  8
0
  6
CONTINUOUS
 62
     7
 10
5.7016635808910223
 20
4.7830790334908206
 30
0.0
 40
0.0255905507
  0
CIRCLE
  5
A09
  8
0
  6
CONTINUOUS
 62
     7
 10
5.7016635808910223
 20
4.8830790316109178
 30
0.0
 40
0.0255905507
  0
CIRCLE
  5
A0A
  8
0
  6
CONTINUOUS
 62
     7
 10
5.7016635808910223
 20
4.9830790297309022
 30
0.0
 40
0.0255905507
  0
CIRCLE
  5
A0B
  8
0
  6
CONTINUOUS
 62
     7
 10
5.7016635808910223
 20
5.0830790278508848
 30
0.0
 40
0.0255905507
  0
CIRCLE
  5
A0C
  8
0
  6
CONTINUOUS
 62
     7
 10
5.7016635808910223
 20
5.1830790259708692
 30
0.0
 40
0.0255905507
  0
CIRCLE
  5
A0D
  8
0
  6
CONTINUOUS
 62
     7
 10
5.7016635808910223
 20
5.2830790240908518
 30
0.0
 40
0.0255905507
  0
CIRCLE
  5
A0E
  8
0
  6
CONTINUOUS
 62
     7
 10
5.7016635808910223
 20
5.3830790222108362
 30
0.0
 40
0.0255905507
  0
CIRCLE
  5
A0F
  8
0
  6
CONTINUOUS
 62
     7
 10
5.7016635808910223
 20
5.4830790203308188
 30
0.0
 40
0.0255905507
  0
CIRCLE
  5
A10
  8
0
  6
CONTINUOUS
 62
     7
 10
5.7016635808910223
 20
5.583079018450916
 30
0.0
 40
0.0255905507
  0
CIRCLE
  5
A11
  8
0
  6
CONTINUOUS
 62
     7
 10
5.7016635808910223
 20
5.6830790165709004
 30
0.0
 40
0.0255905507
  0
CIRCLE
  5
A12
  8
0
  6
CONTINUOUS
 62
     7
 10
5.7016635808910223
 20
5.783079014690883
 30
0.0
 40
0.0255905507
  0
CIRCLE
  5
A13
  8
0
  6
CONTINUOUS
 62
     7
 10
5.7016635808910223
 20
5.8830790128108674
 30
0.0
 40
0.0255905507
  0
CIRCLE
  5
A14
  8
0
  6
CONTINUOUS
 62
     7
 10
5.7016635808910223
 20
5.98307901093085
 30
0.0
 40
0.0255905507
  0
CIRCLE
  5
A15
  8
0
  6
CONTINUOUS
 62
     7
 10
5.7016635808910223
 20
6.0830790090508344
 30
0.0
 40
0.0255905507
  0
CIRCLE
  5
A16
  8
0
  6
CONTINUOUS
 62
     7
 10
5.7016635808910223
 20
6.183079007170817
 30
0.0
 40
0.0255905507
  0
CIRCLE
  5
A17
  8
0
  6
CONTINUOUS
 62
     7
 10
5.7016635808910223
 20
6.2830790052908014
 30
0.0
 40
0.0255905507
  0
CIRCLE
  5
A18
  8
0
  6
CONTINUOUS
 62
     7
 10
5.7016635808910223
 20
6.3830790034108977
 30
0.0
 40
0.0255905507
  0
CIRCLE
  5
A19
  8
0
  6
CONTINUOUS
 62
     7
 10
5.7016635808910223
 20
6.4830790015308821
 30
0.0
 40
0.0255905507
  0
CIRCLE
  5
A1A
  8
0
  6
CONTINUOUS
 62
     7
 10
5.7016635808910223
 20
4.483079039130871
 30
0.0
 40
0.0255905507
  0
CIRCLE
  5
A1B
  8
0
  6
CONTINUOUS
 62
     7
 10
5.7016635808910223
 20
4.5830790372508536
 30
0.0
 40
0.0255905507
  0
CIRCLE
  5
A1C
  8
0
  6
CONTINUOUS
 62
     7
 10
5.7016635808910223
 20
4.683079035370838
 30
0.0
 40
0.0255905507
  0
CIRCLE
  5
A1D
  8
0
  6
CONTINUOUS
 62
     7
 10
5.7016635808910223
 20
4.7830790334908206
 30
0.0
 40
0.0255905507
  0
CIRCLE
  5
A1E
  8
0
  6
CONTINUOUS
 62
     7
 10
5.7016635808910223
 20
4.8830790316109178
 30
0.0
 40
0.0255905507
  0
CIRCLE
  5
A1F
  8
0
  6
CONTINUOUS
 62
     7
 10
5.7016635808910223
 20
4.9830790297309022
 30
0.0
 40
0.0255905507
  0
CIRCLE
  5
A20
  8
0
  6
CONTINUOUS
 62
     7
 10
5.7016635808910223
 20
5.0830790278508848
 30
0.0
 40
0.0255905507
  0
CIRCLE
  5
A21
  8
0
  6
CONTINUOUS
 62
     7
 10
5.7016635808910223
 20
5.1830790259708692
 30
0.0
 40
0.0255905507
  0
CIRCLE
  5
A22
  8
0
  6
CONTINUOUS
 62
     7
 10
5.7016635808910223
 20
5.2830790240908518
 30
0.0
 40
0.0255905507
  0
CIRCLE
  5
A23
  8
0
  6
CONTINUOUS
 62
     7
 10
5.7016635808910223
 20
5.3830790222108362
 30
0.0
 40
0.0255905507
  0
CIRCLE
  5
A24
  8
0
  6
CONTINUOUS
 62
     7
 10
5.7016635808910223
 20
5.4830790203308188
 30
0.0
 40
0.0255905507
  0
CIRCLE
  5
A25
  8
0
  6
CONTINUOUS
 62
     7
 10
5.7016635808910223
 20
5.583079018450916
 30
0.0
 40
0.0255905507
  0
CIRCLE
  5
A26
  8
0
  6
CONTINUOUS
 62
     7
 10
5.7016635808910223
 20
5.6830790165709004
 30
0.0
 40
0.0255905507
  0
CIRCLE
  5
A27
  8
0
  6
CONTINUOUS
 62
     7
 10
5.7016635808910223
 20
5.783079014690883
 30
0.0
 40
0.0255905507
  0
CIRCLE
  5
A28
  8
0
  6
CONTINUOUS
 62
     7
 10
5.7016635808910223
 20
5.8830790128108674
 30
0.0
 40
0.0255905507
  0
CIRCLE
  5
A29
  8
0
  6
CONTINUOUS
 62
     7
 10
5.7016635808910223
 20
5.98307901093085
 30
0.0
 40
0.0255905507
  0
CIRCLE
  5
A2A
  8
0
  6
CONTINUOUS
 62
     7
 10
5.7016635808910223
 20
6.0830790090508344
 30
0.0
 40
0.0255905507
  0
CIRCLE
  5
A2B
  8
0
  6
CONTINUOUS
 62
     7
 10
5.7016635808910223
 20
6.183079007170817
 30
0.0
 40
0.0255905507
  0
CIRCLE
  5
A2C
  8
0
  6
CONTINUOUS
 62
     7
 10
5.7016635808910223
 20
6.2830790052908014
 30
0.0
 40
0.0255905507
  0
CIRCLE
  5
A2D
  8
0
  6
CONTINUOUS
 62
     7
 10
5.7016635808910223
 20
6.3830790034108977
 30
0.0
 40
0.0255905507
  0
CIRCLE
  5
A2E
  8
0
  6
CONTINUOUS
 62
     7
 10
5.6016635827710379
 20
4.483079039130871
 30
0.0
 40
0.0255905507
  0
CIRCLE
  5
A2F
  8
0
  6
CONTINUOUS
 62
     7
 10
5.6016635827710379
 20
4.5830790372508536
 30
0.0
 40
0.0255905507
  0
CIRCLE
  5
A30
  8
0
  6
CONTINUOUS
 62
     7
 10
5.6016635827710379
 20
4.683079035370838
 30
0.0
 40
0.0255905507
  0
CIRCLE
  5
A31
  8
0
  6
CONTINUOUS
 62
     7
 10
5.6016635827710379
 20
4.7830790334908206
 30
0.0
 40
0.0255905507
  0
CIRCLE
  5
A32
  8
0
  6
CONTINUOUS
 62
     7
 10
5.6016635827710379
 20
4.8830790316109178
 30
0.0
 40
0.0255905507
  0
CIRCLE
  5
A33
  8
0
  6
CONTINUOUS
 62
     7
 10
5.6016635827710379
 20
4.9830790297309022
 30
0.0
 40
0.0255905507
  0
CIRCLE
  5
A34
  8
0
  6
CONTINUOUS
 62
     7
 10
5.6016635827710379
 20
5.0830790278508848
 30
0.0
 40
0.0255905507
  0
CIRCLE
  5
A35
  8
0
  6
CONTINUOUS
 62
     7
 10
5.6016635827710379
 20
5.1830790259708692
 30
0.0
 40
0.0255905507
  0
CIRCLE
  5
A36
  8
0
  6
CONTINUOUS
 62
     7
 10
5.6016635827710379
 20
5.2830790240908518
 30
0.0
 40
0.0255905507
  0
CIRCLE
  5
A37
  8
0
  6
CONTINUOUS
 62
     7
 10
5.6016635827710379
 20
5.3830790222108362
 30
0.0
 40
0.0255905507
  0
CIRCLE
  5
A38
  8
0
  6
CONTINUOUS
 62
     7
 10
5.6016635827710379
 20
5.4830790203308188
 30
0.0
 40
0.0255905507
  0
CIRCLE
  5
A39
  8
0
  6
CONTINUOUS
 62
     7
 10
5.6016635827710379
 20
5.583079018450916
 30
0.0
 40
0.0255905507
  0
CIRCLE
  5
A3A
  8
0
  6
CONTINUOUS
 62
     7
 10
5.6016635827710379
 20
5.6830790165709004
 30
0.0
 40
0.0255905507
  0
CIRCLE
  5
A3B
  8
0
  6
CONTINUOUS
 62
     7
 10
5.6016635827710379
 20
5.783079014690883
 30
0.0
 40
0.0255905507
  0
CIRCLE
  5
A3C
  8
0
  6
CONTINUOUS
 62
     7
 10
5.6016635827710379
 20
5.8830790128108674
 30
0.0
 40
0.0255905507
  0
CIRCLE
  5
A3D
  8
0
  6
CONTINUOUS
 62
     7
 10
5.6016635827710379
 20
5.98307901093085
 30
0.0
 40
0.0255905507
  0
CIRCLE
  5
A3E
  8
0
  6
CONTINUOUS
 62
     7
 10
5.6016635827710379
 20
6.0830790090508344
 30
0.0
 40
0.0255905507
  0
CIRCLE
  5
A3F
  8
0
  6
CONTINUOUS
 62
     7
 10
5.6016635827710379
 20
6.183079007170817
 30
0.0
 40
0.0255905507
  0
CIRCLE
  5
A40
  8
0
  6
CONTINUOUS
 62
     7
 10
5.6016635827710379
 20
6.2830790052908014
 30
0.0
 40
0.0255905507
  0
CIRCLE
  5
A41
  8
0
  6
CONTINUOUS
 62
     7
 10
5.6016635827710379
 20
6.3830790034108977
 30
0.0
 40
0.0255905507
  0
CIRCLE
  5
A42
  8
0
  6
CONTINUOUS
 62
     7
 10
5.6016635827710379
 20
6.4830790015308821
 30
0.0
 40
0.0255905507
  0
CIRCLE
  5
A43
  8
0
  6
CONTINUOUS
 62
     7
 10
5.6016635827710379
 20
4.483079039130871
 30
0.0
 40
0.0255905507
  0
CIRCLE
  5
A44
  8
0
  6
CONTINUOUS
 62
     7
 10
5.6016635827710379
 20
4.5830790372508536
 30
0.0
 40
0.0255905507
  0
CIRCLE
  5
A45
  8
0
  6
CONTINUOUS
 62
     7
 10
5.6016635827710379
 20
4.683079035370838
 30
0.0
 40
0.0255905507
  0
CIRCLE
  5
A46
  8
0
  6
CONTINUOUS
 62
     7
 10
5.6016635827710379
 20
4.7830790334908206
 30
0.0
 40
0.0255905507
  0
CIRCLE
  5
A47
  8
0
  6
CONTINUOUS
 62
     7
 10
5.6016635827710379
 20
4.8830790316109178
 30
0.0
 40
0.0255905507
  0
CIRCLE
  5
A48
  8
0
  6
CONTINUOUS
 62
     7
 10
5.6016635827710379
 20
4.9830790297309022
 30
0.0
 40
0.0255905507
  0
CIRCLE
  5
A49
  8
0
  6
CONTINUOUS
 62
     7
 10
5.6016635827710379
 20
5.0830790278508848
 30
0.0
 40
0.0255905507
  0
CIRCLE
  5
A4A
  8
0
  6
CONTINUOUS
 62
     7
 10
5.6016635827710379
 20
5.1830790259708692
 30
0.0
 40
0.0255905507
  0
CIRCLE
  5
A4B
  8
0
  6
CONTINUOUS
 62
     7
 10
5.6016635827710379
 20
5.2830790240908518
 30
0.0
 40
0.0255905507
  0
CIRCLE
  5
A4C
  8
0
  6
CONTINUOUS
 62
     7
 10
5.6016635827710379
 20
5.3830790222108362
 30
0.0
 40
0.0255905507
  0
CIRCLE
  5
A4D
  8
0
  6
CONTINUOUS
 62
     7
 10
5.6016635827710379
 20
5.4830790203308188
 30
0.0
 40
0.0255905507
  0
CIRCLE
  5
A4E
  8
0
  6
CONTINUOUS
 62
     7
 10
5.6016635827710379
 20
5.583079018450916
 30
0.0
 40
0.0255905507
  0
CIRCLE
  5
A4F
  8
0
  6
CONTINUOUS
 62
     7
 10
5.6016635827710379
 20
5.6830790165709004
 30
0.0
 40
0.0255905507
  0
CIRCLE
  5
A50
  8
0
  6
CONTINUOUS
 62
     7
 10
5.6016635827710379
 20
5.783079014690883
 30
0.0
 40
0.0255905507
  0
CIRCLE
  5
A51
  8
0
  6
CONTINUOUS
 62
     7
 10
5.6016635827710379
 20
5.8830790128108674
 30
0.0
 40
0.0255905507
  0
CIRCLE
  5
A52
  8
0
  6
CONTINUOUS
 62
     7
 10
5.6016635827710379
 20
5.98307901093085
 30
0.0
 40
0.0255905507
  0
CIRCLE
  5
A53
  8
0
  6
CONTINUOUS
 62
     7
 10
5.6016635827710379
 20
6.0830790090508344
 30
0.0
 40
0.0255905507
  0
CIRCLE
  5
A54
  8
0
  6
CONTINUOUS
 62
     7
 10
5.6016635827710379
 20
6.183079007170817
 30
0.0
 40
0.0255905507
  0
CIRCLE
  5
A55
  8
0
  6
CONTINUOUS
 62
     7
 10
5.6016635827710379
 20
6.2830790052908014
 30
0.0
 40
0.0255905507
  0
CIRCLE
  5
A56
  8
0
  6
CONTINUOUS
 62
     7
 10
5.6016635827710379
 20
6.3830790034108977
 30
0.0
 40
0.0255905507
  0
CIRCLE
  5
A57
  8
0
  6
CONTINUOUS
 62
     7
 10
5.5016635846510553
 20
4.483079039130871
 30
0.0
 40
0.0255905507
  0
CIRCLE
  5
A58
  8
0
  6
CONTINUOUS
 62
     7
 10
5.5016635846510553
 20
4.5830790372508536
 30
0.0
 40
0.0255905507
  0
CIRCLE
  5
A59
  8
0
  6
CONTINUOUS
 62
     7
 10
5.5016635846510553
 20
4.683079035370838
 30
0.0
 40
0.0255905507
  0
CIRCLE
  5
A5A
  8
0
  6
CONTINUOUS
 62
     7
 10
5.5016635846510553
 20
4.7830790334908206
 30
0.0
 40
0.0255905507
  0
CIRCLE
  5
A5B
  8
0
  6
CONTINUOUS
 62
     7
 10
5.5016635846510553
 20
4.8830790316109178
 30
0.0
 40
0.0255905507
  0
CIRCLE
  5
A5C
  8
0
  6
CONTINUOUS
 62
     7
 10
5.5016635846510553
 20
4.9830790297309022
 30
0.0
 40
0.0255905507
  0
CIRCLE
  5
A5D
  8
0
  6
CONTINUOUS
 62
     7
 10
5.5016635846510553
 20
5.0830790278508848
 30
0.0
 40
0.0255905507
  0
CIRCLE
  5
A5E
  8
0
  6
CONTINUOUS
 62
     7
 10
5.5016635846510553
 20
5.1830790259708692
 30
0.0
 40
0.0255905507
  0
CIRCLE
  5
A5F
  8
0
  6
CONTINUOUS
 62
     7
 10
5.5016635846510553
 20
5.2830790240908518
 30
0.0
 40
0.0255905507
  0
CIRCLE
  5
A60
  8
0
  6
CONTINUOUS
 62
     7
 10
5.5016635846510553
 20
5.3830790222108362
 30
0.0
 40
0.0255905507
  0
CIRCLE
  5
A61
  8
0
  6
CONTINUOUS
 62
     7
 10
5.5016635846510553
 20
5.4830790203308188
 30
0.0
 40
0.0255905507
  0
CIRCLE
  5
A62
  8
0
  6
CONTINUOUS
 62
     7
 10
5.5016635846510553
 20
5.583079018450916
 30
0.0
 40
0.0255905507
  0
CIRCLE
  5
A63
  8
0
  6
CONTINUOUS
 62
     7
 10
5.5016635846510553
 20
5.6830790165709004
 30
0.0
 40
0.0255905507
  0
CIRCLE
  5
A64
  8
0
  6
CONTINUOUS
 62
     7
 10
5.5016635846510553
 20
5.783079014690883
 30
0.0
 40
0.0255905507
  0
CIRCLE
  5
A65
  8
0
  6
CONTINUOUS
 62
     7
 10
5.5016635846510553
 20
5.8830790128108674
 30
0.0
 40
0.0255905507
  0
CIRCLE
  5
A66
  8
0
  6
CONTINUOUS
 62
     7
 10
5.5016635846510553
 20
5.98307901093085
 30
0.0
 40
0.0255905507
  0
CIRCLE
  5
A67
  8
0
  6
CONTINUOUS
 62
     7
 10
5.5016635846510553
 20
6.0830790090508344
 30
0.0
 40
0.0255905507
  0
CIRCLE
  5
A68
  8
0
  6
CONTINUOUS
 62
     7
 10
5.5016635846510553
 20
6.183079007170817
 30
0.0
 40
0.0255905507
  0
CIRCLE
  5
A69
  8
0
  6
CONTINUOUS
 62
     7
 10
5.5016635846510553
 20
6.2830790052908014
 30
0.0
 40
0.0255905507
  0
CIRCLE
  5
A6A
  8
0
  6
CONTINUOUS
 62
     7
 10
5.5016635846510553
 20
6.3830790034108977
 30
0.0
 40
0.0255905507
  0
CIRCLE
  5
A6B
  8
0
  6
CONTINUOUS
 62
     7
 10
5.5016635846510553
 20
6.4830790015308821
 30
0.0
 40
0.0255905507
  0
CIRCLE
  5
A6C
  8
0
  6
CONTINUOUS
 62
     7
 10
5.5016635846510553
 20
4.483079039130871
 30
0.0
 40
0.0255905507
  0
CIRCLE
  5
A6D
  8
0
  6
CONTINUOUS
 62
     7
 10
5.5016635846510553
 20
4.5830790372508536
 30
0.0
 40
0.0255905507
  0
CIRCLE
  5
A6E
  8
0
  6
CONTINUOUS
 62
     7
 10
5.5016635846510553
 20
4.683079035370838
 30
0.0
 40
0.0255905507
  0
CIRCLE
  5
A6F
  8
0
  6
CONTINUOUS
 62
     7
 10
5.5016635846510553
 20
4.7830790334908206
 30
0.0
 40
0.0255905507
  0
CIRCLE
  5
A70
  8
0
  6
CONTINUOUS
 62
     7
 10
5.5016635846510553
 20
4.8830790316109178
 30
0.0
 40
0.0255905507
  0
CIRCLE
  5
A71
  8
0
  6
CONTINUOUS
 62
     7
 10
5.5016635846510553
 20
4.9830790297309022
 30
0.0
 40
0.0255905507
  0
CIRCLE
  5
A72
  8
0
  6
CONTINUOUS
 62
     7
 10
5.5016635846510553
 20
5.0830790278508848
 30
0.0
 40
0.0255905507
  0
CIRCLE
  5
A73
  8
0
  6
CONTINUOUS
 62
     7
 10
5.5016635846510553
 20
5.1830790259708692
 30
0.0
 40
0.0255905507
  0
CIRCLE
  5
A74
  8
0
  6
CONTINUOUS
 62
     7
 10
5.5016635846510553
 20
5.2830790240908518
 30
0.0
 40
0.0255905507
  0
CIRCLE
  5
A75
  8
0
  6
CONTINUOUS
 62
     7
 10
5.5016635846510553
 20
5.3830790222108362
 30
0.0
 40
0.0255905507
  0
CIRCLE
  5
A76
  8
0
  6
CONTINUOUS
 62
     7
 10
5.5016635846510553
 20
5.4830790203308188
 30
0.0
 40
0.0255905507
  0
CIRCLE
  5
A77
  8
0
  6
CONTINUOUS
 62
     7
 10
5.5016635846510553
 20
5.583079018450916
 30
0.0
 40
0.0255905507
  0
CIRCLE
  5
A78
  8
0
  6
CONTINUOUS
 62
     7
 10
5.5016635846510553
 20
5.6830790165709004
 30
0.0
 40
0.0255905507
  0
CIRCLE
  5
A79
  8
0
  6
CONTINUOUS
 62
     7
 10
5.5016635846510553
 20
5.783079014690883
 30
0.0
 40
0.0255905507
  0
CIRCLE
  5
A7A
  8
0
  6
CONTINUOUS
 62
     7
 10
5.5016635846510553
 20
5.8830790128108674
 30
0.0
 40
0.0255905507
  0
CIRCLE
  5
A7B
  8
0
  6
CONTINUOUS
 62
     7
 10
5.5016635846510553
 20
5.98307901093085
 30
0.0
 40
0.0255905507
  0
CIRCLE
  5
A7C
  8
0
  6
CONTINUOUS
 62
     7
 10
5.5016635846510553
 20
6.0830790090508344
 30
0.0
 40
0.0255905507
  0
CIRCLE
  5
A7D
  8
0
  6
CONTINUOUS
 62
     7
 10
5.5016635846510553
 20
6.183079007170817
 30
0.0
 40
0.0255905507
  0
CIRCLE
  5
A7E
  8
0
  6
CONTINUOUS
 62
     7
 10
5.5016635846510553
 20
6.2830790052908014
 30
0.0
 40
0.0255905507
  0
CIRCLE
  5
A7F
  8
0
  6
CONTINUOUS
 62
     7
 10
5.5016635846510553
 20
6.3830790034108977
 30
0.0
 40
0.0255905507
  0
CIRCLE
  5
A80
  8
0
  6
CONTINUOUS
 62
     7
 10
5.4016635865309581
 20
4.483079039130871
 30
0.0
 40
0.0255905507
  0
CIRCLE
  5
A81
  8
0
  6
CONTINUOUS
 62
     7
 10
5.4016635865309581
 20
4.5830790372508536
 30
0.0
 40
0.0255905507
  0
CIRCLE
  5
A82
  8
0
  6
CONTINUOUS
 62
     7
 10
5.4016635865309581
 20
4.683079035370838
 30
0.0
 40
0.0255905507
  0
CIRCLE
  5
A83
  8
0
  6
CONTINUOUS
 62
     7
 10
5.4016635865309581
 20
4.7830790334908206
 30
0.0
 40
0.0255905507
  0
CIRCLE
  5
A84
  8
0
  6
CONTINUOUS
 62
     7
 10
5.4016635865309581
 20
4.8830790316109178
 30
0.0
 40
0.0255905507
  0
CIRCLE
  5
A85
  8
0
  6
CONTINUOUS
 62
     7
 10
5.4016635865309581
 20
4.9830790297309022
 30
0.0
 40
0.0255905507
  0
CIRCLE
  5
A86
  8
0
  6
CONTINUOUS
 62
     7
 10
5.4016635865309581
 20
5.0830790278508848
 30
0.0
 40
0.0255905507
  0
CIRCLE
  5
A87
  8
0
  6
CONTINUOUS
 62
     7
 10
5.4016635865309581
 20
5.1830790259708692
 30
0.0
 40
0.0255905507
  0
CIRCLE
  5
A88
  8
0
  6
CONTINUOUS
 62
     7
 10
5.4016635865309581
 20
5.2830790240908518
 30
0.0
 40
0.0255905507
  0
CIRCLE
  5
A89
  8
0
  6
CONTINUOUS
 62
     7
 10
5.4016635865309581
 20
5.3830790222108362
 30
0.0
 40
0.0255905507
  0
CIRCLE
  5
A8A
  8
0
  6
CONTINUOUS
 62
     7
 10
5.4016635865309581
 20
5.4830790203308188
 30
0.0
 40
0.0255905507
  0
CIRCLE
  5
A8B
  8
0
  6
CONTINUOUS
 62
     7
 10
5.4016635865309581
 20
5.583079018450916
 30
0.0
 40
0.0255905507
  0
CIRCLE
  5
A8C
  8
0
  6
CONTINUOUS
 62
     7
 10
5.4016635865309581
 20
5.6830790165709004
 30
0.0
 40
0.0255905507
  0
CIRCLE
  5
A8D
  8
0
  6
CONTINUOUS
 62
     7
 10
5.4016635865309581
 20
5.783079014690883
 30
0.0
 40
0.0255905507
  0
CIRCLE
  5
A8E
  8
0
  6
CONTINUOUS
 62
     7
 10
5.4016635865309581
 20
5.8830790128108674
 30
0.0
 40
0.0255905507
  0
CIRCLE
  5
A8F
  8
0
  6
CONTINUOUS
 62
     7
 10
5.4016635865309581
 20
5.98307901093085
 30
0.0
 40
0.0255905507
  0
CIRCLE
  5
A90
  8
0
  6
CONTINUOUS
 62
     7
 10
5.4016635865309581
 20
6.0830790090508344
 30
0.0
 40
0.0255905507
  0
CIRCLE
  5
A91
  8
0
  6
CONTINUOUS
 62
     7
 10
5.4016635865309581
 20
6.183079007170817
 30
0.0
 40
0.0255905507
  0
CIRCLE
  5
A92
  8
0
  6
CONTINUOUS
 62
     7
 10
5.4016635865309581
 20
6.2830790052908014
 30
0.0
 40
0.0255905507
  0
CIRCLE
  5
A93
  8
0
  6
CONTINUOUS
 62
     7
 10
5.4016635865309581
 20
6.3830790034108977
 30
0.0
 40
0.0255905507
  0
CIRCLE
  5
A94
  8
0
  6
CONTINUOUS
 62
     7
 10
5.4016635865309581
 20
6.4830790015308821
 30
0.0
 40
0.0255905507
  0
CIRCLE
  5
A95
  8
0
  6
CONTINUOUS
 62
     7
 10
5.4016635865309581
 20
4.483079039130871
 30
0.0
 40
0.0255905507
  0
CIRCLE
  5
A96
  8
0
  6
CONTINUOUS
 62
     7
 10
5.4016635865309581
 20
4.5830790372508536
 30
0.0
 40
0.0255905507
  0
CIRCLE
  5
A97
  8
0
  6
CONTINUOUS
 62
     7
 10
5.4016635865309581
 20
4.683079035370838
 30
0.0
 40
0.0255905507
  0
CIRCLE
  5
A98
  8
0
  6
CONTINUOUS
 62
     7
 10
5.4016635865309581
 20
4.7830790334908206
 30
0.0
 40
0.0255905507
  0
CIRCLE
  5
A99
  8
0
  6
CONTINUOUS
 62
     7
 10
5.4016635865309581
 20
4.8830790316109178
 30
0.0
 40
0.0255905507
  0
CIRCLE
  5
A9A
  8
0
  6
CONTINUOUS
 62
     7
 10
5.4016635865309581
 20
4.9830790297309022
 30
0.0
 40
0.0255905507
  0
CIRCLE
  5
A9B
  8
0
  6
CONTINUOUS
 62
     7
 10
5.4016635865309581
 20
5.0830790278508848
 30
0.0
 40
0.0255905507
  0
CIRCLE
  5
A9C
  8
0
  6
CONTINUOUS
 62
     7
 10
5.4016635865309581
 20
5.1830790259708692
 30
0.0
 40
0.0255905507
  0
CIRCLE
  5
A9D
  8
0
  6
CONTINUOUS
 62
     7
 10
5.4016635865309581
 20
5.2830790240908518
 30
0.0
 40
0.0255905507
  0
CIRCLE
  5
A9E
  8
0
  6
CONTINUOUS
 62
     7
 10
5.4016635865309581
 20
5.3830790222108362
 30
0.0
 40
0.0255905507
  0
CIRCLE
  5
A9F
  8
0
  6
CONTINUOUS
 62
     7
 10
5.4016635865309581
 20
5.4830790203308188
 30
0.0
 40
0.0255905507
  0
CIRCLE
  5
AA0
  8
0
  6
CONTINUOUS
 62
     7
 10
5.4016635865309581
 20
5.583079018450916
 30
0.0
 40
0.0255905507
  0
CIRCLE
  5
AA1
  8
0
  6
CONTINUOUS
 62
     7
 10
5.4016635865309581
 20
5.6830790165709004
 30
0.0
 40
0.0255905507
  0
CIRCLE
  5
AA2
  8
0
  6
CONTINUOUS
 62
     7
 10
5.4016635865309581
 20
5.783079014690883
 30
0.0
 40
0.0255905507
  0
CIRCLE
  5
AA3
  8
0
  6
CONTINUOUS
 62
     7
 10
5.4016635865309581
 20
5.8830790128108674
 30
0.0
 40
0.0255905507
  0
CIRCLE
  5
AA4
  8
0
  6
CONTINUOUS
 62
     7
 10
5.4016635865309581
 20
5.98307901093085
 30
0.0
 40
0.0255905507
  0
CIRCLE
  5
AA5
  8
0
  6
CONTINUOUS
 62
     7
 10
5.4016635865309581
 20
6.0830790090508344
 30
0.0
 40
0.0255905507
  0
CIRCLE
  5
AA6
  8
0
  6
CONTINUOUS
 62
     7
 10
5.4016635865309581
 20
6.183079007170817
 30
0.0
 40
0.0255905507
  0
CIRCLE
  5
AA7
  8
0
  6
CONTINUOUS
 62
     7
 10
5.4016635865309581
 20
6.2830790052908014
 30
0.0
 40
0.0255905507
  0
CIRCLE
  5
AA8
  8
0
  6
CONTINUOUS
 62
     7
 10
5.4016635865309581
 20
6.3830790034108977
 30
0.0
 40
0.0255905507
  0
CIRCLE
  5
AA9
  8
0
  6
CONTINUOUS
 62
     7
 10
5.3016635884109737
 20
4.483079039130871
 30
0.0
 40
0.0255905507
  0
CIRCLE
  5
AAA
  8
0
  6
CONTINUOUS
 62
     7
 10
5.3016635884109737
 20
4.5830790372508536
 30
0.0
 40
0.0255905507
  0
CIRCLE
  5
AAB
  8
0
  6
CONTINUOUS
 62
     7
 10
5.3016635884109737
 20
4.683079035370838
 30
0.0
 40
0.0255905507
  0
CIRCLE
  5
AAC
  8
0
  6
CONTINUOUS
 62
     7
 10
5.3016635884109737
 20
4.7830790334908206
 30
0.0
 40
0.0255905507
  0
CIRCLE
  5
AAD
  8
0
  6
CONTINUOUS
 62
     7
 10
5.3016635884109737
 20
4.8830790316109178
 30
0.0
 40
0.0255905507
  0
CIRCLE
  5
AAE
  8
0
  6
CONTINUOUS
 62
     7
 10
5.3016635884109737
 20
4.9830790297309022
 30
0.0
 40
0.0255905507
  0
CIRCLE
  5
AAF
  8
0
  6
CONTINUOUS
 62
     7
 10
5.3016635884109737
 20
5.0830790278508848
 30
0.0
 40
0.0255905507
  0
CIRCLE
  5
AB0
  8
0
  6
CONTINUOUS
 62
     7
 10
5.3016635884109737
 20
5.1830790259708692
 30
0.0
 40
0.0255905507
  0
CIRCLE
  5
AB1
  8
0
  6
CONTINUOUS
 62
     7
 10
5.3016635884109737
 20
5.2830790240908518
 30
0.0
 40
0.0255905507
  0
CIRCLE
  5
AB2
  8
0
  6
CONTINUOUS
 62
     7
 10
5.3016635884109737
 20
5.3830790222108362
 30
0.0
 40
0.0255905507
  0
CIRCLE
  5
AB3
  8
0
  6
CONTINUOUS
 62
     7
 10
5.3016635884109737
 20
5.4830790203308188
 30
0.0
 40
0.0255905507
  0
CIRCLE
  5
AB4
  8
0
  6
CONTINUOUS
 62
     7
 10
5.3016635884109737
 20
5.583079018450916
 30
0.0
 40
0.0255905507
  0
CIRCLE
  5
AB5
  8
0
  6
CONTINUOUS
 62
     7
 10
5.3016635884109737
 20
5.6830790165709004
 30
0.0
 40
0.0255905507
  0
CIRCLE
  5
AB6
  8
0
  6
CONTINUOUS
 62
     7
 10
5.3016635884109737
 20
5.783079014690883
 30
0.0
 40
0.0255905507
  0
CIRCLE
  5
AB7
  8
0
  6
CONTINUOUS
 62
     7
 10
5.3016635884109737
 20
5.8830790128108674
 30
0.0
 40
0.0255905507
  0
CIRCLE
  5
AB8
  8
0
  6
CONTINUOUS
 62
     7
 10
5.3016635884109737
 20
5.98307901093085
 30
0.0
 40
0.0255905507
  0
CIRCLE
  5
AB9
  8
0
  6
CONTINUOUS
 62
     7
 10
5.3016635884109737
 20
6.0830790090508344
 30
0.0
 40
0.0255905507
  0
CIRCLE
  5
ABA
  8
0
  6
CONTINUOUS
 62
     7
 10
5.3016635884109737
 20
6.183079007170817
 30
0.0
 40
0.0255905507
  0
CIRCLE
  5
ABB
  8
0
  6
CONTINUOUS
 62
     7
 10
5.3016635884109737
 20
6.2830790052908014
 30
0.0
 40
0.0255905507
  0
CIRCLE
  5
ABC
  8
0
  6
CONTINUOUS
 62
     7
 10
5.3016635884109737
 20
6.3830790034108977
 30
0.0
 40
0.0255905507
  0
CIRCLE
  5
ABD
  8
0
  6
CONTINUOUS
 62
     7
 10
5.3016635884109737
 20
6.4830790015308821
 30
0.0
 40
0.0255905507
  0
CIRCLE
  5
ABE
  8
0
  6
CONTINUOUS
 62
     7
 10
5.3016635884109737
 20
4.483079039130871
 30
0.0
 40
0.0255905507
  0
CIRCLE
  5
ABF
  8
0
  6
CONTINUOUS
 62
     7
 10
5.3016635884109737
 20
4.5830790372508536
 30
0.0
 40
0.0255905507
  0
CIRCLE
  5
AC0
  8
0
  6
CONTINUOUS
 62
     7
 10
5.3016635884109737
 20
4.683079035370838
 30
0.0
 40
0.0255905507
  0
CIRCLE
  5
AC1
  8
0
  6
CONTINUOUS
 62
     7
 10
5.3016635884109737
 20
4.7830790334908206
 30
0.0
 40
0.0255905507
  0
CIRCLE
  5
AC2
  8
0
  6
CONTINUOUS
 62
     7
 10
5.3016635884109737
 20
4.8830790316109178
 30
0.0
 40
0.0255905507
  0
CIRCLE
  5
AC3
  8
0
  6
CONTINUOUS
 62
     7
 10
5.3016635884109737
 20
4.9830790297309022
 30
0.0
 40
0.0255905507
  0
CIRCLE
  5
AC4
  8
0
  6
CONTINUOUS
 62
     7
 10
5.3016635884109737
 20
5.0830790278508848
 30
0.0
 40
0.0255905507
  0
CIRCLE
  5
AC5
  8
0
  6
CONTINUOUS
 62
     7
 10
5.3016635884109737
 20
5.1830790259708692
 30
0.0
 40
0.0255905507
  0
CIRCLE
  5
AC6
  8
0
  6
CONTINUOUS
 62
     7
 10
5.3016635884109737
 20
5.2830790240908518
 30
0.0
 40
0.0255905507
  0
CIRCLE
  5
AC7
  8
0
  6
CONTINUOUS
 62
     7
 10
5.3016635884109737
 20
5.3830790222108362
 30
0.0
 40
0.0255905507
  0
CIRCLE
  5
AC8
  8
0
  6
CONTINUOUS
 62
     7
 10
5.3016635884109737
 20
5.4830790203308188
 30
0.0
 40
0.0255905507
  0
CIRCLE
  5
AC9
  8
0
  6
CONTINUOUS
 62
     7
 10
5.3016635884109737
 20
5.583079018450916
 30
0.0
 40
0.0255905507
  0
CIRCLE
  5
ACA
  8
0
  6
CONTINUOUS
 62
     7
 10
5.3016635884109737
 20
5.6830790165709004
 30
0.0
 40
0.0255905507
  0
CIRCLE
  5
ACB
  8
0
  6
CONTINUOUS
 62
     7
 10
5.3016635884109737
 20
5.783079014690883
 30
0.0
 40
0.0255905507
  0
CIRCLE
  5
ACC
  8
0
  6
CONTINUOUS
 62
     7
 10
5.3016635884109737
 20
5.8830790128108674
 30
0.0
 40
0.0255905507
  0
CIRCLE
  5
ACD
  8
0
  6
CONTINUOUS
 62
     7
 10
5.3016635884109737
 20
5.98307901093085
 30
0.0
 40
0.0255905507
  0
CIRCLE
  5
ACE
  8
0
  6
CONTINUOUS
 62
     7
 10
5.3016635884109737
 20
6.0830790090508344
 30
0.0
 40
0.0255905507
  0
CIRCLE
  5
ACF
  8
0
  6
CONTINUOUS
 62
     7
 10
5.3016635884109737
 20
6.183079007170817
 30
0.0
 40
0.0255905507
  0
CIRCLE
  5
AD0
  8
0
  6
CONTINUOUS
 62
     7
 10
5.3016635884109737
 20
6.2830790052908014
 30
0.0
 40
0.0255905507
  0
CIRCLE
  5
AD1
  8
0
  6
CONTINUOUS
 62
     7
 10
5.3016635884109737
 20
6.3830790034108977
 30
0.0
 40
0.0255905507
  0
CIRCLE
  5
AD2
  8
0
  6
CONTINUOUS
 62
     7
 10
5.2016635902909911
 20
4.483079039130871
 30
0.0
 40
0.0255905507
  0
CIRCLE
  5
AD3
  8
0
  6
CONTINUOUS
 62
     7
 10
5.2016635902909911
 20
4.5830790372508536
 30
0.0
 40
0.0255905507
  0
CIRCLE
  5
AD4
  8
0
  6
CONTINUOUS
 62
     7
 10
5.2016635902909911
 20
4.683079035370838
 30
0.0
 40
0.0255905507
  0
CIRCLE
  5
AD5
  8
0
  6
CONTINUOUS
 62
     7
 10
5.2016635902909911
 20
4.7830790334908206
 30
0.0
 40
0.0255905507
  0
CIRCLE
  5
AD6
  8
0
  6
CONTINUOUS
 62
     7
 10
5.2016635902909911
 20
4.8830790316109178
 30
0.0
 40
0.0255905507
  0
CIRCLE
  5
AD7
  8
0
  6
CONTINUOUS
 62
     7
 10
5.2016635902909911
 20
4.9830790297309022
 30
0.0
 40
0.0255905507
  0
CIRCLE
  5
AD8
  8
0
  6
CONTINUOUS
 62
     7
 10
5.2016635902909911
 20
5.0830790278508848
 30
0.0
 40
0.0255905507
  0
CIRCLE
  5
AD9
  8
0
  6
CONTINUOUS
 62
     7
 10
5.2016635902909911
 20
5.1830790259708692
 30
0.0
 40
0.0255905507
  0
CIRCLE
  5
ADA
  8
0
  6
CONTINUOUS
 62
     7
 10
5.2016635902909911
 20
5.2830790240908518
 30
0.0
 40
0.0255905507
  0
CIRCLE
  5
ADB
  8
0
  6
CONTINUOUS
 62
     7
 10
5.2016635902909911
 20
5.3830790222108362
 30
0.0
 40
0.0255905507
  0
CIRCLE
  5
ADC
  8
0
  6
CONTINUOUS
 62
     7
 10
5.2016635902909911
 20
5.4830790203308188
 30
0.0
 40
0.0255905507
  0
CIRCLE
  5
ADD
  8
0
  6
CONTINUOUS
 62
     7
 10
5.2016635902909911
 20
5.583079018450916
 30
0.0
 40
0.0255905507
  0
CIRCLE
  5
ADE
  8
0
  6
CONTINUOUS
 62
     7
 10
5.2016635902909911
 20
5.6830790165709004
 30
0.0
 40
0.0255905507
  0
CIRCLE
  5
ADF
  8
0
  6
CONTINUOUS
 62
     7
 10
5.2016635902909911
 20
5.783079014690883
 30
0.0
 40
0.0255905507
  0
CIRCLE
  5
AE0
  8
0
  6
CONTINUOUS
 62
     7
 10
5.2016635902909911
 20
5.8830790128108674
 30
0.0
 40
0.0255905507
  0
CIRCLE
  5
AE1
  8
0
  6
CONTINUOUS
 62
     7
 10
5.2016635902909911
 20
5.98307901093085
 30
0.0
 40
0.0255905507
  0
CIRCLE
  5
AE2
  8
0
  6
CONTINUOUS
 62
     7
 10
5.2016635902909911
 20
6.0830790090508344
 30
0.0
 40
0.0255905507
  0
CIRCLE
  5
AE3
  8
0
  6
CONTINUOUS
 62
     7
 10
5.2016635902909911
 20
6.183079007170817
 30
0.0
 40
0.0255905507
  0
CIRCLE
  5
AE4
  8
0
  6
CONTINUOUS
 62
     7
 10
5.2016635902909911
 20
6.2830790052908014
 30
0.0
 40
0.0255905507
  0
CIRCLE
  5
AE5
  8
0
  6
CONTINUOUS
 62
     7
 10
5.2016635902909911
 20
6.3830790034108977
 30
0.0
 40
0.0255905507
  0
CIRCLE
  5
AE6
  8
0
  6
CONTINUOUS
 62
     7
 10
5.2016635902909911
 20
6.4830790015308821
 30
0.0
 40
0.0255905507
  0
CIRCLE
  5
AE7
  8
0
  6
CONTINUOUS
 62
     7
 10
5.2016635902909911
 20
4.483079039130871
 30
0.0
 40
0.0255905507
  0
CIRCLE
  5
AE8
  8
0
  6
CONTINUOUS
 62
     7
 10
5.2016635902909911
 20
4.5830790372508536
 30
0.0
 40
0.0255905507
  0
CIRCLE
  5
AE9
  8
0
  6
CONTINUOUS
 62
     7
 10
5.2016635902909911
 20
4.683079035370838
 30
0.0
 40
0.0255905507
  0
CIRCLE
  5
AEA
  8
0
  6
CONTINUOUS
 62
     7
 10
5.2016635902909911
 20
4.7830790334908206
 30
0.0
 40
0.0255905507
  0
CIRCLE
  5
AEB
  8
0
  6
CONTINUOUS
 62
     7
 10
5.2016635902909911
 20
4.8830790316109178
 30
0.0
 40
0.0255905507
  0
CIRCLE
  5
AEC
  8
0
  6
CONTINUOUS
 62
     7
 10
5.2016635902909911
 20
4.9830790297309022
 30
0.0
 40
0.0255905507
  0
CIRCLE
  5
AED
  8
0
  6
CONTINUOUS
 62
     7
 10
5.2016635902909911
 20
5.0830790278508848
 30
0.0
 40
0.0255905507
  0
CIRCLE
  5
AEE
  8
0
  6
CONTINUOUS
 62
     7
 10
5.2016635902909911
 20
5.1830790259708692
 30
0.0
 40
0.0255905507
  0
CIRCLE
  5
AEF
  8
0
  6
CONTINUOUS
 62
     7
 10
5.2016635902909911
 20
5.2830790240908518
 30
0.0
 40
0.0255905507
  0
CIRCLE
  5
AF0
  8
0
  6
CONTINUOUS
 62
     7
 10
5.2016635902909911
 20
5.3830790222108362
 30
0.0
 40
0.0255905507
  0
CIRCLE
  5
AF1
  8
0
  6
CONTINUOUS
 62
     7
 10
5.2016635902909911
 20
5.4830790203308188
 30
0.0
 40
0.0255905507
  0
CIRCLE
  5
AF2
  8
0
  6
CONTINUOUS
 62
     7
 10
5.2016635902909911
 20
5.583079018450916
 30
0.0
 40
0.0255905507
  0
CIRCLE
  5
AF3
  8
0
  6
CONTINUOUS
 62
     7
 10
5.2016635902909911
 20
5.6830790165709004
 30
0.0
 40
0.0255905507
  0
CIRCLE
  5
AF4
  8
0
  6
CONTINUOUS
 62
     7
 10
5.2016635902909911
 20
5.783079014690883
 30
0.0
 40
0.0255905507
  0
CIRCLE
  5
AF5
  8
0
  6
CONTINUOUS
 62
     7
 10
5.2016635902909911
 20
5.8830790128108674
 30
0.0
 40
0.0255905507
  0
CIRCLE
  5
AF6
  8
0
  6
CONTINUOUS
 62
     7
 10
5.2016635902909911
 20
5.98307901093085
 30
0.0
 40
0.0255905507
  0
CIRCLE
  5
AF7
  8
0
  6
CONTINUOUS
 62
     7
 10
5.2016635902909911
 20
6.0830790090508344
 30
0.0
 40
0.0255905507
  0
CIRCLE
  5
AF8
  8
0
  6
CONTINUOUS
 62
     7
 10
5.2016635902909911
 20
6.183079007170817
 30
0.0
 40
0.0255905507
  0
CIRCLE
  5
AF9
  8
0
  6
CONTINUOUS
 62
     7
 10
5.2016635902909911
 20
6.2830790052908014
 30
0.0
 40
0.0255905507
  0
CIRCLE
  5
AFA
  8
0
  6
CONTINUOUS
 62
     7
 10
5.2016635902909911
 20
6.3830790034108977
 30
0.0
 40
0.0255905507
  0
CIRCLE
  5
AFB
  8
0
  6
CONTINUOUS
 62
     7
 10
5.1016635921710067
 20
4.483079039130871
 30
0.0
 40
0.0255905507
  0
CIRCLE
  5
AFC
  8
0
  6
CONTINUOUS
 62
     7
 10
5.1016635921710067
 20
4.5830790372508536
 30
0.0
 40
0.0255905507
  0
CIRCLE
  5
AFD
  8
0
  6
CONTINUOUS
 62
     7
 10
5.1016635921710067
 20
4.683079035370838
 30
0.0
 40
0.0255905507
  0
CIRCLE
  5
AFE
  8
0
  6
CONTINUOUS
 62
     7
 10
5.1016635921710067
 20
4.7830790334908206
 30
0.0
 40
0.0255905507
  0
CIRCLE
  5
AFF
  8
0
  6
CONTINUOUS
 62
     7
 10
5.1016635921710067
 20
4.8830790316109178
 30
0.0
 40
0.0255905507
  0
CIRCLE
  5
B00
  8
0
  6
CONTINUOUS
 62
     7
 10
5.1016635921710067
 20
4.9830790297309022
 30
0.0
 40
0.0255905507
  0
CIRCLE
  5
B01
  8
0
  6
CONTINUOUS
 62
     7
 10
5.1016635921710067
 20
5.0830790278508848
 30
0.0
 40
0.0255905507
  0
CIRCLE
  5
B02
  8
0
  6
CONTINUOUS
 62
     7
 10
5.1016635921710067
 20
5.1830790259708692
 30
0.0
 40
0.0255905507
  0
CIRCLE
  5
B03
  8
0
  6
CONTINUOUS
 62
     7
 10
5.1016635921710067
 20
5.2830790240908518
 30
0.0
 40
0.0255905507
  0
CIRCLE
  5
B04
  8
0
  6
CONTINUOUS
 62
     7
 10
5.1016635921710067
 20
5.3830790222108362
 30
0.0
 40
0.0255905507
  0
CIRCLE
  5
B05
  8
0
  6
CONTINUOUS
 62
     7
 10
5.1016635921710067
 20
5.4830790203308188
 30
0.0
 40
0.0255905507
  0
CIRCLE
  5
B06
  8
0
  6
CONTINUOUS
 62
     7
 10
5.1016635921710067
 20
5.583079018450916
 30
0.0
 40
0.0255905507
  0
CIRCLE
  5
B07
  8
0
  6
CONTINUOUS
 62
     7
 10
5.1016635921710067
 20
5.6830790165709004
 30
0.0
 40
0.0255905507
  0
CIRCLE
  5
B08
  8
0
  6
CONTINUOUS
 62
     7
 10
5.1016635921710067
 20
5.783079014690883
 30
0.0
 40
0.0255905507
  0
CIRCLE
  5
B09
  8
0
  6
CONTINUOUS
 62
     7
 10
5.1016635921710067
 20
5.8830790128108674
 30
0.0
 40
0.0255905507
  0
CIRCLE
  5
B0A
  8
0
  6
CONTINUOUS
 62
     7
 10
5.1016635921710067
 20
5.98307901093085
 30
0.0
 40
0.0255905507
  0
CIRCLE
  5
B0B
  8
0
  6
CONTINUOUS
 62
     7
 10
5.1016635921710067
 20
6.0830790090508344
 30
0.0
 40
0.0255905507
  0
CIRCLE
  5
B0C
  8
0
  6
CONTINUOUS
 62
     7
 10
5.1016635921710067
 20
6.183079007170817
 30
0.0
 40
0.0255905507
  0
CIRCLE
  5
B0D
  8
0
  6
CONTINUOUS
 62
     7
 10
5.1016635921710067
 20
6.2830790052908014
 30
0.0
 40
0.0255905507
  0
CIRCLE
  5
B0E
  8
0
  6
CONTINUOUS
 62
     7
 10
5.1016635921710067
 20
6.3830790034108977
 30
0.0
 40
0.0255905507
  0
CIRCLE
  5
B0F
  8
0
  6
CONTINUOUS
 62
     7
 10
5.1016635921710067
 20
6.4830790015308821
 30
0.0
 40
0.0255905507
  0
CIRCLE
  5
B10
  8
0
  6
CONTINUOUS
 62
     7
 10
5.1016635921710067
 20
4.483079039130871
 30
0.0
 40
0.0255905507
  0
CIRCLE
  5
B11
  8
0
  6
CONTINUOUS
 62
     7
 10
5.1016635921710067
 20
4.5830790372508536
 30
0.0
 40
0.0255905507
  0
CIRCLE
  5
B12
  8
0
  6
CONTINUOUS
 62
     7
 10
5.1016635921710067
 20
4.683079035370838
 30
0.0
 40
0.0255905507
  0
CIRCLE
  5
B13
  8
0
  6
CONTINUOUS
 62
     7
 10
5.1016635921710067
 20
4.7830790334908206
 30
0.0
 40
0.0255905507
  0
CIRCLE
  5
B14
  8
0
  6
CONTINUOUS
 62
     7
 10
5.1016635921710067
 20
4.8830790316109178
 30
0.0
 40
0.0255905507
  0
CIRCLE
  5
B15
  8
0
  6
CONTINUOUS
 62
     7
 10
5.1016635921710067
 20
4.9830790297309022
 30
0.0
 40
0.0255905507
  0
CIRCLE
  5
B16
  8
0
  6
CONTINUOUS
 62
     7
 10
5.1016635921710067
 20
5.0830790278508848
 30
0.0
 40
0.0255905507
  0
CIRCLE
  5
B17
  8
0
  6
CONTINUOUS
 62
     7
 10
5.1016635921710067
 20
5.1830790259708692
 30
0.0
 40
0.0255905507
  0
CIRCLE
  5
B18
  8
0
  6
CONTINUOUS
 62
     7
 10
5.1016635921710067
 20
5.2830790240908518
 30
0.0
 40
0.0255905507
  0
CIRCLE
  5
B19
  8
0
  6
CONTINUOUS
 62
     7
 10
5.1016635921710067
 20
5.3830790222108362
 30
0.0
 40
0.0255905507
  0
CIRCLE
  5
B1A
  8
0
  6
CONTINUOUS
 62
     7
 10
5.1016635921710067
 20
5.4830790203308188
 30
0.0
 40
0.0255905507
  0
CIRCLE
  5
B1B
  8
0
  6
CONTINUOUS
 62
     7
 10
5.1016635921710067
 20
5.583079018450916
 30
0.0
 40
0.0255905507
  0
CIRCLE
  5
B1C
  8
0
  6
CONTINUOUS
 62
     7
 10
5.1016635921710067
 20
5.6830790165709004
 30
0.0
 40
0.0255905507
  0
CIRCLE
  5
B1D
  8
0
  6
CONTINUOUS
 62
     7
 10
5.1016635921710067
 20
5.783079014690883
 30
0.0
 40
0.0255905507
  0
CIRCLE
  5
B1E
  8
0
  6
CONTINUOUS
 62
     7
 10
5.1016635921710067
 20
5.8830790128108674
 30
0.0
 40
0.0255905507
  0
CIRCLE
  5
B1F
  8
0
  6
CONTINUOUS
 62
     7
 10
5.1016635921710067
 20
5.98307901093085
 30
0.0
 40
0.0255905507
  0
CIRCLE
  5
B20
  8
0
  6
CONTINUOUS
 62
     7
 10
5.1016635921710067
 20
6.0830790090508344
 30
0.0
 40
0.0255905507
  0
CIRCLE
  5
B21
  8
0
  6
CONTINUOUS
 62
     7
 10
5.1016635921710067
 20
6.183079007170817
 30
0.0
 40
0.0255905507
  0
CIRCLE
  5
B22
  8
0
  6
CONTINUOUS
 62
     7
 10
5.1016635921710067
 20
6.2830790052908014
 30
0.0
 40
0.0255905507
  0
CIRCLE
  5
B23
  8
0
  6
CONTINUOUS
 62
     7
 10
5.1016635921710067
 20
6.3830790034108977
 30
0.0
 40
0.0255905507
  0
CIRCLE
  5
B24
  8
0
  6
CONTINUOUS
 62
     7
 10
5.0016635940510241
 20
4.483079039130871
 30
0.0
 40
0.0255905507
  0
CIRCLE
  5
B25
  8
0
  6
CONTINUOUS
 62
     7
 10
5.0016635940510241
 20
4.5830790372508536
 30
0.0
 40
0.0255905507
  0
CIRCLE
  5
B26
  8
0
  6
CONTINUOUS
 62
     7
 10
5.0016635940510241
 20
4.683079035370838
 30
0.0
 40
0.0255905507
  0
CIRCLE
  5
B27
  8
0
  6
CONTINUOUS
 62
     7
 10
5.0016635940510241
 20
4.7830790334908206
 30
0.0
 40
0.0255905507
  0
CIRCLE
  5
B28
  8
0
  6
CONTINUOUS
 62
     7
 10
5.0016635940510241
 20
4.8830790316109178
 30
0.0
 40
0.0255905507
  0
CIRCLE
  5
B29
  8
0
  6
CONTINUOUS
 62
     7
 10
5.0016635940510241
 20
4.9830790297309022
 30
0.0
 40
0.0255905507
  0
CIRCLE
  5
B2A
  8
0
  6
CONTINUOUS
 62
     7
 10
5.0016635940510241
 20
5.0830790278508848
 30
0.0
 40
0.0255905507
  0
CIRCLE
  5
B2B
  8
0
  6
CONTINUOUS
 62
     7
 10
5.0016635940510241
 20
5.1830790259708692
 30
0.0
 40
0.0255905507
  0
CIRCLE
  5
B2C
  8
0
  6
CONTINUOUS
 62
     7
 10
5.0016635940510241
 20
5.2830790240908518
 30
0.0
 40
0.0255905507
  0
CIRCLE
  5
B2D
  8
0
  6
CONTINUOUS
 62
     7
 10
5.0016635940510241
 20
5.3830790222108362
 30
0.0
 40
0.0255905507
  0
CIRCLE
  5
B2E
  8
0
  6
CONTINUOUS
 62
     7
 10
5.0016635940510241
 20
5.4830790203308188
 30
0.0
 40
0.0255905507
  0
CIRCLE
  5
B2F
  8
0
  6
CONTINUOUS
 62
     7
 10
5.0016635940510241
 20
5.583079018450916
 30
0.0
 40
0.0255905507
  0
CIRCLE
  5
B30
  8
0
  6
CONTINUOUS
 62
     7
 10
5.0016635940510241
 20
5.6830790165709004
 30
0.0
 40
0.0255905507
  0
CIRCLE
  5
B31
  8
0
  6
CONTINUOUS
 62
     7
 10
5.0016635940510241
 20
5.783079014690883
 30
0.0
 40
0.0255905507
  0
CIRCLE
  5
B32
  8
0
  6
CONTINUOUS
 62
     7
 10
5.0016635940510241
 20
5.8830790128108674
 30
0.0
 40
0.0255905507
  0
CIRCLE
  5
B33
  8
0
  6
CONTINUOUS
 62
     7
 10
5.0016635940510241
 20
5.98307901093085
 30
0.0
 40
0.0255905507
  0
CIRCLE
  5
B34
  8
0
  6
CONTINUOUS
 62
     7
 10
5.0016635940510241
 20
6.0830790090508344
 30
0.0
 40
0.0255905507
  0
CIRCLE
  5
B35
  8
0
  6
CONTINUOUS
 62
     7
 10
5.0016635940510241
 20
6.183079007170817
 30
0.0
 40
0.0255905507
  0
CIRCLE
  5
B36
  8
0
  6
CONTINUOUS
 62
     7
 10
5.0016635940510241
 20
6.2830790052908014
 30
0.0
 40
0.0255905507
  0
CIRCLE
  5
B37
  8
0
  6
CONTINUOUS
 62
     7
 10
5.0016635940510241
 20
6.3830790034108977
 30
0.0
 40
0.0255905507
  0
CIRCLE
  5
B38
  8
0
  6
CONTINUOUS
 62
     7
 10
5.0016635940510241
 20
6.4830790015308821
 30
0.0
 40
0.0255905507
  0
CIRCLE
  5
B39
  8
0
  6
CONTINUOUS
 62
     7
 10
5.0016635940510241
 20
4.483079039130871
 30
0.0
 40
0.0255905507
  0
CIRCLE
  5
B3A
  8
0
  6
CONTINUOUS
 62
     7
 10
5.0016635940510241
 20
4.5830790372508536
 30
0.0
 40
0.0255905507
  0
CIRCLE
  5
B3B
  8
0
  6
CONTINUOUS
 62
     7
 10
5.0016635940510241
 20
4.683079035370838
 30
0.0
 40
0.0255905507
  0
CIRCLE
  5
B3C
  8
0
  6
CONTINUOUS
 62
     7
 10
5.0016635940510241
 20
4.7830790334908206
 30
0.0
 40
0.0255905507
  0
CIRCLE
  5
B3D
  8
0
  6
CONTINUOUS
 62
     7
 10
5.0016635940510241
 20
4.8830790316109178
 30
0.0
 40
0.0255905507
  0
CIRCLE
  5
B3E
  8
0
  6
CONTINUOUS
 62
     7
 10
5.0016635940510241
 20
4.9830790297309022
 30
0.0
 40
0.0255905507
  0
CIRCLE
  5
B3F
  8
0
  6
CONTINUOUS
 62
     7
 10
5.0016635940510241
 20
5.0830790278508848
 30
0.0
 40
0.0255905507
  0
CIRCLE
  5
B40
  8
0
  6
CONTINUOUS
 62
     7
 10
5.0016635940510241
 20
5.1830790259708692
 30
0.0
 40
0.0255905507
  0
CIRCLE
  5
B41
  8
0
  6
CONTINUOUS
 62
     7
 10
5.0016635940510241
 20
5.2830790240908518
 30
0.0
 40
0.0255905507
  0
CIRCLE
  5
B42
  8
0
  6
CONTINUOUS
 62
     7
 10
5.0016635940510241
 20
5.3830790222108362
 30
0.0
 40
0.0255905507
  0
CIRCLE
  5
B43
  8
0
  6
CONTINUOUS
 62
     7
 10
5.0016635940510241
 20
5.4830790203308188
 30
0.0
 40
0.0255905507
  0
CIRCLE
  5
B44
  8
0
  6
CONTINUOUS
 62
     7
 10
5.0016635940510241
 20
5.583079018450916
 30
0.0
 40
0.0255905507
  0
CIRCLE
  5
B45
  8
0
  6
CONTINUOUS
 62
     7
 10
5.0016635940510241
 20
5.6830790165709004
 30
0.0
 40
0.0255905507
  0
CIRCLE
  5
B46
  8
0
  6
CONTINUOUS
 62
     7
 10
5.0016635940510241
 20
5.783079014690883
 30
0.0
 40
0.0255905507
  0
CIRCLE
  5
B47
  8
0
  6
CONTINUOUS
 62
     7
 10
5.0016635940510241
 20
5.8830790128108674
 30
0.0
 40
0.0255905507
  0
CIRCLE
  5
B48
  8
0
  6
CONTINUOUS
 62
     7
 10
5.0016635940510241
 20
5.98307901093085
 30
0.0
 40
0.0255905507
  0
CIRCLE
  5
B49
  8
0
  6
CONTINUOUS
 62
     7
 10
5.0016635940510241
 20
6.0830790090508344
 30
0.0
 40
0.0255905507
  0
CIRCLE
  5
B4A
  8
0
  6
CONTINUOUS
 62
     7
 10
5.0016635940510241
 20
6.183079007170817
 30
0.0
 40
0.0255905507
  0
CIRCLE
  5
B4B
  8
0
  6
CONTINUOUS
 62
     7
 10
5.0016635940510241
 20
6.2830790052908014
 30
0.0
 40
0.0255905507
  0
CIRCLE
  5
B4C
  8
0
  6
CONTINUOUS
 62
     7
 10
5.0016635940510241
 20
6.3830790034108977
 30
0.0
 40
0.0255905507
  0
CIRCLE
  5
B4D
  8
0
  6
CONTINUOUS
 62
     7
 10
4.9016635959310397
 20
4.483079039130871
 30
0.0
 40
0.0255905507
  0
CIRCLE
  5
B4E
  8
0
  6
CONTINUOUS
 62
     7
 10
4.9016635959310397
 20
4.5830790372508536
 30
0.0
 40
0.0255905507
  0
CIRCLE
  5
B4F
  8
0
  6
CONTINUOUS
 62
     7
 10
4.9016635959310397
 20
4.683079035370838
 30
0.0
 40
0.0255905507
  0
CIRCLE
  5
B50
  8
0
  6
CONTINUOUS
 62
     7
 10
4.9016635959310397
 20
4.7830790334908206
 30
0.0
 40
0.0255905507
  0
CIRCLE
  5
B51
  8
0
  6
CONTINUOUS
 62
     7
 10
4.9016635959310397
 20
4.8830790316109178
 30
0.0
 40
0.0255905507
  0
CIRCLE
  5
B52
  8
0
  6
CONTINUOUS
 62
     7
 10
4.9016635959310397
 20
4.9830790297309022
 30
0.0
 40
0.0255905507
  0
CIRCLE
  5
B53
  8
0
  6
CONTINUOUS
 62
     7
 10
4.9016635959310397
 20
5.0830790278508848
 30
0.0
 40
0.0255905507
  0
CIRCLE
  5
B54
  8
0
  6
CONTINUOUS
 62
     7
 10
4.9016635959310397
 20
5.1830790259708692
 30
0.0
 40
0.0255905507
  0
CIRCLE
  5
B55
  8
0
  6
CONTINUOUS
 62
     7
 10
4.9016635959310397
 20
5.2830790240908518
 30
0.0
 40
0.0255905507
  0
CIRCLE
  5
B56
  8
0
  6
CONTINUOUS
 62
     7
 10
4.9016635959310397
 20
5.3830790222108362
 30
0.0
 40
0.0255905507
  0
CIRCLE
  5
B57
  8
0
  6
CONTINUOUS
 62
     7
 10
4.9016635959310397
 20
5.4830790203308188
 30
0.0
 40
0.0255905507
  0
CIRCLE
  5
B58
  8
0
  6
CONTINUOUS
 62
     7
 10
4.9016635959310397
 20
5.583079018450916
 30
0.0
 40
0.0255905507
  0
CIRCLE
  5
B59
  8
0
  6
CONTINUOUS
 62
     7
 10
4.9016635959310397
 20
5.6830790165709004
 30
0.0
 40
0.0255905507
  0
CIRCLE
  5
B5A
  8
0
  6
CONTINUOUS
 62
     7
 10
4.9016635959310397
 20
5.783079014690883
 30
0.0
 40
0.0255905507
  0
CIRCLE
  5
B5B
  8
0
  6
CONTINUOUS
 62
     7
 10
4.9016635959310397
 20
5.8830790128108674
 30
0.0
 40
0.0255905507
  0
CIRCLE
  5
B5C
  8
0
  6
CONTINUOUS
 62
     7
 10
4.9016635959310397
 20
5.98307901093085
 30
0.0
 40
0.0255905507
  0
CIRCLE
  5
B5D
  8
0
  6
CONTINUOUS
 62
     7
 10
4.9016635959310397
 20
6.0830790090508344
 30
0.0
 40
0.0255905507
  0
CIRCLE
  5
B5E
  8
0
  6
CONTINUOUS
 62
     7
 10
4.9016635959310397
 20
6.183079007170817
 30
0.0
 40
0.0255905507
  0
CIRCLE
  5
B5F
  8
0
  6
CONTINUOUS
 62
     7
 10
4.9016635959310397
 20
6.2830790052908014
 30
0.0
 40
0.0255905507
  0
CIRCLE
  5
B60
  8
0
  6
CONTINUOUS
 62
     7
 10
4.9016635959310397
 20
6.3830790034108977
 30
0.0
 40
0.0255905507
  0
CIRCLE
  5
B61
  8
0
  6
CONTINUOUS
 62
     7
 10
4.9016635959310397
 20
6.4830790015308821
 30
0.0
 40
0.0255905507
  0
CIRCLE
  5
B62
  8
0
  6
CONTINUOUS
 62
     7
 10
4.9016635959310397
 20
4.483079039130871
 30
0.0
 40
0.0255905507
  0
CIRCLE
  5
B63
  8
0
  6
CONTINUOUS
 62
     7
 10
4.9016635959310397
 20
4.5830790372508536
 30
0.0
 40
0.0255905507
  0
CIRCLE
  5
B64
  8
0
  6
CONTINUOUS
 62
     7
 10
4.9016635959310397
 20
4.683079035370838
 30
0.0
 40
0.0255905507
  0
CIRCLE
  5
B65
  8
0
  6
CONTINUOUS
 62
     7
 10
4.9016635959310397
 20
4.7830790334908206
 30
0.0
 40
0.0255905507
  0
CIRCLE
  5
B66
  8
0
  6
CONTINUOUS
 62
     7
 10
4.9016635959310397
 20
4.8830790316109178
 30
0.0
 40
0.0255905507
  0
CIRCLE
  5
B67
  8
0
  6
CONTINUOUS
 62
     7
 10
4.9016635959310397
 20
4.9830790297309022
 30
0.0
 40
0.0255905507
  0
CIRCLE
  5
B68
  8
0
  6
CONTINUOUS
 62
     7
 10
4.9016635959310397
 20
5.0830790278508848
 30
0.0
 40
0.0255905507
  0
CIRCLE
  5
B69
  8
0
  6
CONTINUOUS
 62
     7
 10
4.9016635959310397
 20
5.1830790259708692
 30
0.0
 40
0.0255905507
  0
CIRCLE
  5
B6A
  8
0
  6
CONTINUOUS
 62
     7
 10
4.9016635959310397
 20
5.2830790240908518
 30
0.0
 40
0.0255905507
  0
CIRCLE
  5
B6B
  8
0
  6
CONTINUOUS
 62
     7
 10
4.9016635959310397
 20
5.3830790222108362
 30
0.0
 40
0.0255905507
  0
CIRCLE
  5
B6C
  8
0
  6
CONTINUOUS
 62
     7
 10
4.9016635959310397
 20
5.4830790203308188
 30
0.0
 40
0.0255905507
  0
CIRCLE
  5
B6D
  8
0
  6
CONTINUOUS
 62
     7
 10
4.9016635959310397
 20
5.583079018450916
 30
0.0
 40
0.0255905507
  0
CIRCLE
  5
B6E
  8
0
  6
CONTINUOUS
 62
     7
 10
4.9016635959310397
 20
5.6830790165709004
 30
0.0
 40
0.0255905507
  0
CIRCLE
  5
B6F
  8
0
  6
CONTINUOUS
 62
     7
 10
4.9016635959310397
 20
5.783079014690883
 30
0.0
 40
0.0255905507
  0
CIRCLE
  5
B70
  8
0
  6
CONTINUOUS
 62
     7
 10
4.9016635959310397
 20
5.8830790128108674
 30
0.0
 40
0.0255905507
  0
CIRCLE
  5
B71
  8
0
  6
CONTINUOUS
 62
     7
 10
4.9016635959310397
 20
5.98307901093085
 30
0.0
 40
0.0255905507
  0
CIRCLE
  5
B72
  8
0
  6
CONTINUOUS
 62
     7
 10
4.9016635959310397
 20
6.0830790090508344
 30
0.0
 40
0.0255905507
  0
CIRCLE
  5
B73
  8
0
  6
CONTINUOUS
 62
     7
 10
4.9016635959310397
 20
6.183079007170817
 30
0.0
 40
0.0255905507
  0
CIRCLE
  5
B74
  8
0
  6
CONTINUOUS
 62
     7
 10
4.9016635959310397
 20
6.2830790052908014
 30
0.0
 40
0.0255905507
  0
CIRCLE
  5
B75
  8
0
  6
CONTINUOUS
 62
     7
 10
4.9016635959310397
 20
6.3830790034108977
 30
0.0
 40
0.0255905507
  0
CIRCLE
  5
B76
  8
0
  6
CONTINUOUS
 62
     7
 10
4.8016635978110571
 20
4.483079039130871
 30
0.0
 40
0.0255905507
  0
CIRCLE
  5
B77
  8
0
  6
CONTINUOUS
 62
     7
 10
4.8016635978110571
 20
4.5830790372508536
 30
0.0
 40
0.0255905507
  0
CIRCLE
  5
B78
  8
0
  6
CONTINUOUS
 62
     7
 10
4.8016635978110571
 20
4.683079035370838
 30
0.0
 40
0.0255905507
  0
CIRCLE
  5
B79
  8
0
  6
CONTINUOUS
 62
     7
 10
4.8016635978110571
 20
4.7830790334908206
 30
0.0
 40
0.0255905507
  0
CIRCLE
  5
B7A
  8
0
  6
CONTINUOUS
 62
     7
 10
4.8016635978110571
 20
4.8830790316109178
 30
0.0
 40
0.0255905507
  0
CIRCLE
  5
B7B
  8
0
  6
CONTINUOUS
 62
     7
 10
4.8016635978110571
 20
4.9830790297309022
 30
0.0
 40
0.0255905507
  0
CIRCLE
  5
B7C
  8
0
  6
CONTINUOUS
 62
     7
 10
4.8016635978110571
 20
5.0830790278508848
 30
0.0
 40
0.0255905507
  0
CIRCLE
  5
B7D
  8
0
  6
CONTINUOUS
 62
     7
 10
4.8016635978110571
 20
5.1830790259708692
 30
0.0
 40
0.0255905507
  0
CIRCLE
  5
B7E
  8
0
  6
CONTINUOUS
 62
     7
 10
4.8016635978110571
 20
5.2830790240908518
 30
0.0
 40
0.0255905507
  0
CIRCLE
  5
B7F
  8
0
  6
CONTINUOUS
 62
     7
 10
4.8016635978110571
 20
5.3830790222108362
 30
0.0
 40
0.0255905507
  0
CIRCLE
  5
B80
  8
0
  6
CONTINUOUS
 62
     7
 10
4.8016635978110571
 20
5.4830790203308188
 30
0.0
 40
0.0255905507
  0
CIRCLE
  5
B81
  8
0
  6
CONTINUOUS
 62
     7
 10
4.8016635978110571
 20
5.583079018450916
 30
0.0
 40
0.0255905507
  0
CIRCLE
  5
B82
  8
0
  6
CONTINUOUS
 62
     7
 10
4.8016635978110571
 20
5.6830790165709004
 30
0.0
 40
0.0255905507
  0
CIRCLE
  5
B83
  8
0
  6
CONTINUOUS
 62
     7
 10
4.8016635978110571
 20
5.783079014690883
 30
0.0
 40
0.0255905507
  0
CIRCLE
  5
B84
  8
0
  6
CONTINUOUS
 62
     7
 10
4.8016635978110571
 20
5.8830790128108674
 30
0.0
 40
0.0255905507
  0
CIRCLE
  5
B85
  8
0
  6
CONTINUOUS
 62
     7
 10
4.8016635978110571
 20
5.98307901093085
 30
0.0
 40
0.0255905507
  0
CIRCLE
  5
B86
  8
0
  6
CONTINUOUS
 62
     7
 10
4.8016635978110571
 20
6.0830790090508344
 30
0.0
 40
0.0255905507
  0
CIRCLE
  5
B87
  8
0
  6
CONTINUOUS
 62
     7
 10
4.8016635978110571
 20
6.183079007170817
 30
0.0
 40
0.0255905507
  0
CIRCLE
  5
B88
  8
0
  6
CONTINUOUS
 62
     7
 10
4.8016635978110571
 20
6.2830790052908014
 30
0.0
 40
0.0255905507
  0
CIRCLE
  5
B89
  8
0
  6
CONTINUOUS
 62
     7
 10
4.8016635978110571
 20
6.3830790034108977
 30
0.0
 40
0.0255905507
  0
CIRCLE
  5
B8A
  8
0
  6
CONTINUOUS
 62
     7
 10
4.8016635978110571
 20
6.4830790015308821
 30
0.0
 40
0.0255905507
  0
CIRCLE
  5
B8B
  8
0
  6
CONTINUOUS
 62
     7
 10
4.8016635978110571
 20
4.483079039130871
 30
0.0
 40
0.0255905507
  0
CIRCLE
  5
B8C
  8
0
  6
CONTINUOUS
 62
     7
 10
4.8016635978110571
 20
4.5830790372508536
 30
0.0
 40
0.0255905507
  0
CIRCLE
  5
B8D
  8
0
  6
CONTINUOUS
 62
     7
 10
4.8016635978110571
 20
4.683079035370838
 30
0.0
 40
0.0255905507
  0
CIRCLE
  5
B8E
  8
0
  6
CONTINUOUS
 62
     7
 10
4.8016635978110571
 20
4.7830790334908206
 30
0.0
 40
0.0255905507
  0
CIRCLE
  5
B8F
  8
0
  6
CONTINUOUS
 62
     7
 10
4.8016635978110571
 20
4.8830790316109178
 30
0.0
 40
0.0255905507
  0
CIRCLE
  5
B90
  8
0
  6
CONTINUOUS
 62
     7
 10
4.8016635978110571
 20
4.9830790297309022
 30
0.0
 40
0.0255905507
  0
CIRCLE
  5
B91
  8
0
  6
CONTINUOUS
 62
     7
 10
4.8016635978110571
 20
5.0830790278508848
 30
0.0
 40
0.0255905507
  0
CIRCLE
  5
B92
  8
0
  6
CONTINUOUS
 62
     7
 10
4.8016635978110571
 20
5.1830790259708692
 30
0.0
 40
0.0255905507
  0
CIRCLE
  5
B93
  8
0
  6
CONTINUOUS
 62
     7
 10
4.8016635978110571
 20
5.2830790240908518
 30
0.0
 40
0.0255905507
  0
CIRCLE
  5
B94
  8
0
  6
CONTINUOUS
 62
     7
 10
4.8016635978110571
 20
5.3830790222108362
 30
0.0
 40
0.0255905507
  0
CIRCLE
  5
B95
  8
0
  6
CONTINUOUS
 62
     7
 10
4.8016635978110571
 20
5.4830790203308188
 30
0.0
 40
0.0255905507
  0
CIRCLE
  5
B96
  8
0
  6
CONTINUOUS
 62
     7
 10
4.8016635978110571
 20
5.583079018450916
 30
0.0
 40
0.0255905507
  0
CIRCLE
  5
B97
  8
0
  6
CONTINUOUS
 62
     7
 10
4.8016635978110571
 20
5.6830790165709004
 30
0.0
 40
0.0255905507
  0
CIRCLE
  5
B98
  8
0
  6
CONTINUOUS
 62
     7
 10
4.8016635978110571
 20
5.783079014690883
 30
0.0
 40
0.0255905507
  0
CIRCLE
  5
B99
  8
0
  6
CONTINUOUS
 62
     7
 10
4.8016635978110571
 20
5.8830790128108674
 30
0.0
 40
0.0255905507
  0
CIRCLE
  5
B9A
  8
0
  6
CONTINUOUS
 62
     7
 10
4.8016635978110571
 20
5.98307901093085
 30
0.0
 40
0.0255905507
  0
CIRCLE
  5
B9B
  8
0
  6
CONTINUOUS
 62
     7
 10
4.8016635978110571
 20
6.0830790090508344
 30
0.0
 40
0.0255905507
  0
CIRCLE
  5
B9C
  8
0
  6
CONTINUOUS
 62
     7
 10
4.8016635978110571
 20
6.183079007170817
 30
0.0
 40
0.0255905507
  0
CIRCLE
  5
B9D
  8
0
  6
CONTINUOUS
 62
     7
 10
4.8016635978110571
 20
6.2830790052908014
 30
0.0
 40
0.0255905507
  0
CIRCLE
  5
B9E
  8
0
  6
CONTINUOUS
 62
     7
 10
4.8016635978110571
 20
6.3830790034108977
 30
0.0
 40
0.0255905507
  0
CIRCLE
  5
B9F
  8
0
  6
CONTINUOUS
 62
     7
 10
4.701663599690959
 20
4.483079039130871
 30
0.0
 40
0.0255905507
  0
CIRCLE
  5
BA0
  8
0
  6
CONTINUOUS
 62
     7
 10
4.701663599690959
 20
4.5830790372508536
 30
0.0
 40
0.0255905507
  0
CIRCLE
  5
BA1
  8
0
  6
CONTINUOUS
 62
     7
 10
4.701663599690959
 20
4.683079035370838
 30
0.0
 40
0.0255905507
  0
CIRCLE
  5
BA2
  8
0
  6
CONTINUOUS
 62
     7
 10
4.701663599690959
 20
4.7830790334908206
 30
0.0
 40
0.0255905507
  0
CIRCLE
  5
BA3
  8
0
  6
CONTINUOUS
 62
     7
 10
4.701663599690959
 20
4.8830790316109178
 30
0.0
 40
0.0255905507
  0
CIRCLE
  5
BA4
  8
0
  6
CONTINUOUS
 62
     7
 10
4.701663599690959
 20
4.9830790297309022
 30
0.0
 40
0.0255905507
  0
CIRCLE
  5
BA5
  8
0
  6
CONTINUOUS
 62
     7
 10
4.701663599690959
 20
5.0830790278508848
 30
0.0
 40
0.0255905507
  0
CIRCLE
  5
BA6
  8
0
  6
CONTINUOUS
 62
     7
 10
4.701663599690959
 20
5.1830790259708692
 30
0.0
 40
0.0255905507
  0
CIRCLE
  5
BA7
  8
0
  6
CONTINUOUS
 62
     7
 10
4.701663599690959
 20
5.2830790240908518
 30
0.0
 40
0.0255905507
  0
CIRCLE
  5
BA8
  8
0
  6
CONTINUOUS
 62
     7
 10
4.701663599690959
 20
5.3830790222108362
 30
0.0
 40
0.0255905507
  0
CIRCLE
  5
BA9
  8
0
  6
CONTINUOUS
 62
     7
 10
4.701663599690959
 20
5.4830790203308188
 30
0.0
 40
0.0255905507
  0
CIRCLE
  5
BAA
  8
0
  6
CONTINUOUS
 62
     7
 10
4.701663599690959
 20
5.583079018450916
 30
0.0
 40
0.0255905507
  0
CIRCLE
  5
BAB
  8
0
  6
CONTINUOUS
 62
     7
 10
4.701663599690959
 20
5.6830790165709004
 30
0.0
 40
0.0255905507
  0
CIRCLE
  5
BAC
  8
0
  6
CONTINUOUS
 62
     7
 10
4.701663599690959
 20
5.783079014690883
 30
0.0
 40
0.0255905507
  0
CIRCLE
  5
BAD
  8
0
  6
CONTINUOUS
 62
     7
 10
4.701663599690959
 20
5.8830790128108674
 30
0.0
 40
0.0255905507
  0
CIRCLE
  5
BAE
  8
0
  6
CONTINUOUS
 62
     7
 10
4.701663599690959
 20
5.98307901093085
 30
0.0
 40
0.0255905507
  0
CIRCLE
  5
BAF
  8
0
  6
CONTINUOUS
 62
     7
 10
4.701663599690959
 20
6.0830790090508344
 30
0.0
 40
0.0255905507
  0
CIRCLE
  5
BB0
  8
0
  6
CONTINUOUS
 62
     7
 10
4.701663599690959
 20
6.183079007170817
 30
0.0
 40
0.0255905507
  0
CIRCLE
  5
BB1
  8
0
  6
CONTINUOUS
 62
     7
 10
4.701663599690959
 20
6.2830790052908014
 30
0.0
 40
0.0255905507
  0
CIRCLE
  5
BB2
  8
0
  6
CONTINUOUS
 62
     7
 10
4.701663599690959
 20
6.3830790034108977
 30
0.0
 40
0.0255905507
  0
CIRCLE
  5
BB3
  8
0
  6
CONTINUOUS
 62
     7
 10
4.701663599690959
 20
6.4830790015308821
 30
0.0
 40
0.0255905507
  0
CIRCLE
  5
BB4
  8
0
  6
CONTINUOUS
 62
     7
 10
4.701663599690959
 20
4.483079039130871
 30
0.0
 40
0.0255905507
  0
CIRCLE
  5
BB5
  8
0
  6
CONTINUOUS
 62
     7
 10
4.701663599690959
 20
4.5830790372508536
 30
0.0
 40
0.0255905507
  0
CIRCLE
  5
BB6
  8
0
  6
CONTINUOUS
 62
     7
 10
4.701663599690959
 20
4.683079035370838
 30
0.0
 40
0.0255905507
  0
CIRCLE
  5
BB7
  8
0
  6
CONTINUOUS
 62
     7
 10
4.701663599690959
 20
4.7830790334908206
 30
0.0
 40
0.0255905507
  0
CIRCLE
  5
BB8
  8
0
  6
CONTINUOUS
 62
     7
 10
4.701663599690959
 20
4.8830790316109178
 30
0.0
 40
0.0255905507
  0
CIRCLE
  5
BB9
  8
0
  6
CONTINUOUS
 62
     7
 10
4.701663599690959
 20
4.9830790297309022
 30
0.0
 40
0.0255905507
  0
CIRCLE
  5
BBA
  8
0
  6
CONTINUOUS
 62
     7
 10
4.701663599690959
 20
5.0830790278508848
 30
0.0
 40
0.0255905507
  0
CIRCLE
  5
BBB
  8
0
  6
CONTINUOUS
 62
     7
 10
4.701663599690959
 20
5.1830790259708692
 30
0.0
 40
0.0255905507
  0
CIRCLE
  5
BBC
  8
0
  6
CONTINUOUS
 62
     7
 10
4.701663599690959
 20
5.2830790240908518
 30
0.0
 40
0.0255905507
  0
CIRCLE
  5
BBD
  8
0
  6
CONTINUOUS
 62
     7
 10
4.701663599690959
 20
5.3830790222108362
 30
0.0
 40
0.0255905507
  0
CIRCLE
  5
BBE
  8
0
  6
CONTINUOUS
 62
     7
 10
4.701663599690959
 20
5.4830790203308188
 30
0.0
 40
0.0255905507
  0
CIRCLE
  5
BBF
  8
0
  6
CONTINUOUS
 62
     7
 10
4.701663599690959
 20
5.583079018450916
 30
0.0
 40
0.0255905507
  0
CIRCLE
  5
BC0
  8
0
  6
CONTINUOUS
 62
     7
 10
4.701663599690959
 20
5.6830790165709004
 30
0.0
 40
0.0255905507
  0
CIRCLE
  5
BC1
  8
0
  6
CONTINUOUS
 62
     7
 10
4.701663599690959
 20
5.783079014690883
 30
0.0
 40
0.0255905507
  0
CIRCLE
  5
BC2
  8
0
  6
CONTINUOUS
 62
     7
 10
4.701663599690959
 20
5.8830790128108674
 30
0.0
 40
0.0255905507
  0
CIRCLE
  5
BC3
  8
0
  6
CONTINUOUS
 62
     7
 10
4.701663599690959
 20
5.98307901093085
 30
0.0
 40
0.0255905507
  0
CIRCLE
  5
BC4
  8
0
  6
CONTINUOUS
 62
     7
 10
4.701663599690959
 20
6.0830790090508344
 30
0.0
 40
0.0255905507
  0
CIRCLE
  5
BC5
  8
0
  6
CONTINUOUS
 62
     7
 10
4.701663599690959
 20
6.183079007170817
 30
0.0
 40
0.0255905507
  0
CIRCLE
  5
BC6
  8
0
  6
CONTINUOUS
 62
     7
 10
4.701663599690959
 20
6.2830790052908014
 30
0.0
 40
0.0255905507
  0
CIRCLE
  5
BC7
  8
0
  6
CONTINUOUS
 62
     7
 10
4.701663599690959
 20
6.3830790034108977
 30
0.0
 40
0.0255905507
  0
CIRCLE
  5
BC8
  8
0
  6
CONTINUOUS
 62
     7
 10
4.6016636015709764
 20
4.483079039130871
 30
0.0
 40
0.0255905507
  0
CIRCLE
  5
BC9
  8
0
  6
CONTINUOUS
 62
     7
 10
4.6016636015709764
 20
4.5830790372508536
 30
0.0
 40
0.0255905507
  0
CIRCLE
  5
BCA
  8
0
  6
CONTINUOUS
 62
     7
 10
4.6016636015709764
 20
4.683079035370838
 30
0.0
 40
0.0255905507
  0
CIRCLE
  5
BCB
  8
0
  6
CONTINUOUS
 62
     7
 10
4.6016636015709764
 20
4.7830790334908206
 30
0.0
 40
0.0255905507
  0
CIRCLE
  5
BCC
  8
0
  6
CONTINUOUS
 62
     7
 10
4.6016636015709764
 20
4.8830790316109178
 30
0.0
 40
0.0255905507
  0
CIRCLE
  5
BCD
  8
0
  6
CONTINUOUS
 62
     7
 10
4.6016636015709764
 20
4.9830790297309022
 30
0.0
 40
0.0255905507
  0
CIRCLE
  5
BCE
  8
0
  6
CONTINUOUS
 62
     7
 10
4.6016636015709764
 20
5.0830790278508848
 30
0.0
 40
0.0255905507
  0
CIRCLE
  5
BCF
  8
0
  6
CONTINUOUS
 62
     7
 10
4.6016636015709764
 20
5.1830790259708692
 30
0.0
 40
0.0255905507
  0
CIRCLE
  5
BD0
  8
0
  6
CONTINUOUS
 62
     7
 10
4.6016636015709764
 20
5.2830790240908518
 30
0.0
 40
0.0255905507
  0
CIRCLE
  5
BD1
  8
0
  6
CONTINUOUS
 62
     7
 10
4.6016636015709764
 20
5.3830790222108362
 30
0.0
 40
0.0255905507
  0
CIRCLE
  5
BD2
  8
0
  6
CONTINUOUS
 62
     7
 10
4.6016636015709764
 20
5.4830790203308188
 30
0.0
 40
0.0255905507
  0
CIRCLE
  5
BD3
  8
0
  6
CONTINUOUS
 62
     7
 10
4.6016636015709764
 20
5.583079018450916
 30
0.0
 40
0.0255905507
  0
CIRCLE
  5
BD4
  8
0
  6
CONTINUOUS
 62
     7
 10
4.6016636015709764
 20
5.6830790165709004
 30
0.0
 40
0.0255905507
  0
CIRCLE
  5
BD5
  8
0
  6
CONTINUOUS
 62
     7
 10
4.6016636015709764
 20
5.783079014690883
 30
0.0
 40
0.0255905507
  0
CIRCLE
  5
BD6
  8
0
  6
CONTINUOUS
 62
     7
 10
4.6016636015709764
 20
5.8830790128108674
 30
0.0
 40
0.0255905507
  0
CIRCLE
  5
BD7
  8
0
  6
CONTINUOUS
 62
     7
 10
4.6016636015709764
 20
5.98307901093085
 30
0.0
 40
0.0255905507
  0
CIRCLE
  5
BD8
  8
0
  6
CONTINUOUS
 62
     7
 10
4.6016636015709764
 20
6.0830790090508344
 30
0.0
 40
0.0255905507
  0
CIRCLE
  5
BD9
  8
0
  6
CONTINUOUS
 62
     7
 10
4.6016636015709764
 20
6.183079007170817
 30
0.0
 40
0.0255905507
  0
CIRCLE
  5
BDA
  8
0
  6
CONTINUOUS
 62
     7
 10
4.6016636015709764
 20
6.2830790052908014
 30
0.0
 40
0.0255905507
  0
CIRCLE
  5
BDB
  8
0
  6
CONTINUOUS
 62
     7
 10
4.6016636015709764
 20
6.3830790034108977
 30
0.0
 40
0.0255905507
  0
CIRCLE
  5
BDC
  8
0
  6
CONTINUOUS
 62
     7
 10
4.6016636015709764
 20
6.4830790015308821
 30
0.0
 40
0.0255905507
  0
CIRCLE
  5
BDD
  8
0
  6
CONTINUOUS
 62
     7
 10
4.6016636015709764
 20
4.483079039130871
 30
0.0
 40
0.0255905507
  0
CIRCLE
  5
BDE
  8
0
  6
CONTINUOUS
 62
     7
 10
4.6016636015709764
 20
4.5830790372508536
 30
0.0
 40
0.0255905507
  0
CIRCLE
  5
BDF
  8
0
  6
CONTINUOUS
 62
     7
 10
4.6016636015709764
 20
4.683079035370838
 30
0.0
 40
0.0255905507
  0
CIRCLE
  5
BE0
  8
0
  6
CONTINUOUS
 62
     7
 10
4.6016636015709764
 20
4.7830790334908206
 30
0.0
 40
0.0255905507
  0
CIRCLE
  5
BE1
  8
0
  6
CONTINUOUS
 62
     7
 10
4.6016636015709764
 20
4.8830790316109178
 30
0.0
 40
0.0255905507
  0
CIRCLE
  5
BE2
  8
0
  6
CONTINUOUS
 62
     7
 10
4.6016636015709764
 20
4.9830790297309022
 30
0.0
 40
0.0255905507
  0
CIRCLE
  5
BE3
  8
0
  6
CONTINUOUS
 62
     7
 10
4.6016636015709764
 20
5.0830790278508848
 30
0.0
 40
0.0255905507
  0
CIRCLE
  5
BE4
  8
0
  6
CONTINUOUS
 62
     7
 10
4.6016636015709764
 20
5.1830790259708692
 30
0.0
 40
0.0255905507
  0
CIRCLE
  5
BE5
  8
0
  6
CONTINUOUS
 62
     7
 10
4.6016636015709764
 20
5.2830790240908518
 30
0.0
 40
0.0255905507
  0
CIRCLE
  5
BE6
  8
0
  6
CONTINUOUS
 62
     7
 10
4.6016636015709764
 20
5.3830790222108362
 30
0.0
 40
0.0255905507
  0
CIRCLE
  5
BE7
  8
0
  6
CONTINUOUS
 62
     7
 10
4.6016636015709764
 20
5.4830790203308188
 30
0.0
 40
0.0255905507
  0
CIRCLE
  5
BE8
  8
0
  6
CONTINUOUS
 62
     7
 10
4.6016636015709764
 20
5.583079018450916
 30
0.0
 40
0.0255905507
  0
CIRCLE
  5
BE9
  8
0
  6
CONTINUOUS
 62
     7
 10
4.6016636015709764
 20
5.6830790165709004
 30
0.0
 40
0.0255905507
  0
CIRCLE
  5
BEA
  8
0
  6
CONTINUOUS
 62
     7
 10
4.6016636015709764
 20
5.783079014690883
 30
0.0
 40
0.0255905507
  0
CIRCLE
  5
BEB
  8
0
  6
CONTINUOUS
 62
     7
 10
4.6016636015709764
 20
5.8830790128108674
 30
0.0
 40
0.0255905507
  0
CIRCLE
  5
BEC
  8
0
  6
CONTINUOUS
 62
     7
 10
4.6016636015709764
 20
5.98307901093085
 30
0.0
 40
0.0255905507
  0
CIRCLE
  5
BED
  8
0
  6
CONTINUOUS
 62
     7
 10
4.6016636015709764
 20
6.0830790090508344
 30
0.0
 40
0.0255905507
  0
CIRCLE
  5
BEE
  8
0
  6
CONTINUOUS
 62
     7
 10
4.6016636015709764
 20
6.183079007170817
 30
0.0
 40
0.0255905507
  0
CIRCLE
  5
BEF
  8
0
  6
CONTINUOUS
 62
     7
 10
4.6016636015709764
 20
6.2830790052908014
 30
0.0
 40
0.0255905507
  0
CIRCLE
  5
BF0
  8
0
  6
CONTINUOUS
 62
     7
 10
4.6016636015709764
 20
6.3830790034108977
 30
0.0
 40
0.0255905507
  0
CIRCLE
  5
BF1
  8
0
  6
CONTINUOUS
 62
     7
 10
4.501663603450992
 20
4.483079039130871
 30
0.0
 40
0.0255905507
  0
CIRCLE
  5
BF2
  8
0
  6
CONTINUOUS
 62
     7
 10
4.501663603450992
 20
4.5830790372508536
 30
0.0
 40
0.0255905507
  0
CIRCLE
  5
BF3
  8
0
  6
CONTINUOUS
 62
     7
 10
4.501663603450992
 20
4.683079035370838
 30
0.0
 40
0.0255905507
  0
CIRCLE
  5
BF4
  8
0
  6
CONTINUOUS
 62
     7
 10
4.501663603450992
 20
4.7830790334908206
 30
0.0
 40
0.0255905507
  0
CIRCLE
  5
BF5
  8
0
  6
CONTINUOUS
 62
     7
 10
4.501663603450992
 20
4.8830790316109178
 30
0.0
 40
0.0255905507
  0
CIRCLE
  5
BF6
  8
0
  6
CONTINUOUS
 62
     7
 10
4.501663603450992
 20
4.9830790297309022
 30
0.0
 40
0.0255905507
  0
CIRCLE
  5
BF7
  8
0
  6
CONTINUOUS
 62
     7
 10
4.501663603450992
 20
5.0830790278508848
 30
0.0
 40
0.0255905507
  0
CIRCLE
  5
BF8
  8
0
  6
CONTINUOUS
 62
     7
 10
4.501663603450992
 20
5.1830790259708692
 30
0.0
 40
0.0255905507
  0
CIRCLE
  5
BF9
  8
0
  6
CONTINUOUS
 62
     7
 10
4.501663603450992
 20
5.2830790240908518
 30
0.0
 40
0.0255905507
  0
CIRCLE
  5
BFA
  8
0
  6
CONTINUOUS
 62
     7
 10
4.501663603450992
 20
5.3830790222108362
 30
0.0
 40
0.0255905507
  0
CIRCLE
  5
BFB
  8
0
  6
CONTINUOUS
 62
     7
 10
4.501663603450992
 20
5.4830790203308188
 30
0.0
 40
0.0255905507
  0
CIRCLE
  5
BFC
  8
0
  6
CONTINUOUS
 62
     7
 10
4.501663603450992
 20
5.583079018450916
 30
0.0
 40
0.0255905507
  0
CIRCLE
  5
BFD
  8
0
  6
CONTINUOUS
 62
     7
 10
4.501663603450992
 20
5.6830790165709004
 30
0.0
 40
0.0255905507
  0
CIRCLE
  5
BFE
  8
0
  6
CONTINUOUS
 62
     7
 10
4.501663603450992
 20
5.783079014690883
 30
0.0
 40
0.0255905507
  0
CIRCLE
  5
BFF
  8
0
  6
CONTINUOUS
 62
     7
 10
4.501663603450992
 20
5.8830790128108674
 30
0.0
 40
0.0255905507
  0
CIRCLE
  5
C00
  8
0
  6
CONTINUOUS
 62
     7
 10
4.501663603450992
 20
5.98307901093085
 30
0.0
 40
0.0255905507
  0
CIRCLE
  5
C01
  8
0
  6
CONTINUOUS
 62
     7
 10
4.501663603450992
 20
6.0830790090508344
 30
0.0
 40
0.0255905507
  0
CIRCLE
  5
C02
  8
0
  6
CONTINUOUS
 62
     7
 10
4.501663603450992
 20
6.183079007170817
 30
0.0
 40
0.0255905507
  0
CIRCLE
  5
C03
  8
0
  6
CONTINUOUS
 62
     7
 10
4.501663603450992
 20
6.2830790052908014
 30
0.0
 40
0.0255905507
  0
CIRCLE
  5
C04
  8
0
  6
CONTINUOUS
 62
     7
 10
4.501663603450992
 20
6.3830790034108977
 30
0.0
 40
0.0255905507
  0
CIRCLE
  5
C05
  8
0
  6
CONTINUOUS
 62
     7
 10
4.501663603450992
 20
6.4830790015308821
 30
0.0
 40
0.0255905507
  0
CIRCLE
  5
C06
  8
0
  6
CONTINUOUS
 62
     7
 10
4.501663603450992
 20
4.483079039130871
 30
0.0
 40
0.0255905507
  0
CIRCLE
  5
C07
  8
0
  6
CONTINUOUS
 62
     7
 10
4.501663603450992
 20
4.5830790372508536
 30
0.0
 40
0.0255905507
  0
CIRCLE
  5
C08
  8
0
  6
CONTINUOUS
 62
     7
 10
4.501663603450992
 20
4.683079035370838
 30
0.0
 40
0.0255905507
  0
CIRCLE
  5
C09
  8
0
  6
CONTINUOUS
 62
     7
 10
4.501663603450992
 20
4.7830790334908206
 30
0.0
 40
0.0255905507
  0
CIRCLE
  5
C0A
  8
0
  6
CONTINUOUS
 62
     7
 10
4.501663603450992
 20
4.8830790316109178
 30
0.0
 40
0.0255905507
  0
CIRCLE
  5
C0B
  8
0
  6
CONTINUOUS
 62
     7
 10
4.501663603450992
 20
4.9830790297309022
 30
0.0
 40
0.0255905507
  0
CIRCLE
  5
C0C
  8
0
  6
CONTINUOUS
 62
     7
 10
4.501663603450992
 20
5.0830790278508848
 30
0.0
 40
0.0255905507
  0
CIRCLE
  5
C0D
  8
0
  6
CONTINUOUS
 62
     7
 10
4.501663603450992
 20
5.1830790259708692
 30
0.0
 40
0.0255905507
  0
CIRCLE
  5
C0E
  8
0
  6
CONTINUOUS
 62
     7
 10
4.501663603450992
 20
5.2830790240908518
 30
0.0
 40
0.0255905507
  0
CIRCLE
  5
C0F
  8
0
  6
CONTINUOUS
 62
     7
 10
4.501663603450992
 20
5.3830790222108362
 30
0.0
 40
0.0255905507
  0
CIRCLE
  5
C10
  8
0
  6
CONTINUOUS
 62
     7
 10
4.501663603450992
 20
5.4830790203308188
 30
0.0
 40
0.0255905507
  0
CIRCLE
  5
C11
  8
0
  6
CONTINUOUS
 62
     7
 10
4.501663603450992
 20
5.583079018450916
 30
0.0
 40
0.0255905507
  0
CIRCLE
  5
C12
  8
0
  6
CONTINUOUS
 62
     7
 10
4.501663603450992
 20
5.6830790165709004
 30
0.0
 40
0.0255905507
  0
CIRCLE
  5
C13
  8
0
  6
CONTINUOUS
 62
     7
 10
4.501663603450992
 20
5.783079014690883
 30
0.0
 40
0.0255905507
  0
CIRCLE
  5
C14
  8
0
  6
CONTINUOUS
 62
     7
 10
4.501663603450992
 20
5.8830790128108674
 30
0.0
 40
0.0255905507
  0
CIRCLE
  5
C15
  8
0
  6
CONTINUOUS
 62
     7
 10
4.501663603450992
 20
5.98307901093085
 30
0.0
 40
0.0255905507
  0
CIRCLE
  5
C16
  8
0
  6
CONTINUOUS
 62
     7
 10
4.501663603450992
 20
6.0830790090508344
 30
0.0
 40
0.0255905507
  0
CIRCLE
  5
C17
  8
0
  6
CONTINUOUS
 62
     7
 10
4.501663603450992
 20
6.183079007170817
 30
0.0
 40
0.0255905507
  0
CIRCLE
  5
C18
  8
0
  6
CONTINUOUS
 62
     7
 10
4.501663603450992
 20
6.2830790052908014
 30
0.0
 40
0.0255905507
  0
CIRCLE
  5
C19
  8
0
  6
CONTINUOUS
 62
     7
 10
4.501663603450992
 20
6.3830790034108977
 30
0.0
 40
0.0255905507
  0
CIRCLE
  5
C1A
  8
0
  6
CONTINUOUS
 62
     7
 10
4.4016636053310094
 20
4.483079039130871
 30
0.0
 40
0.0255905507
  0
CIRCLE
  5
C1B
  8
0
  6
CONTINUOUS
 62
     7
 10
4.4016636053310094
 20
4.5830790372508536
 30
0.0
 40
0.0255905507
  0
CIRCLE
  5
C1C
  8
0
  6
CONTINUOUS
 62
     7
 10
4.4016636053310094
 20
4.683079035370838
 30
0.0
 40
0.0255905507
  0
CIRCLE
  5
C1D
  8
0
  6
CONTINUOUS
 62
     7
 10
4.4016636053310094
 20
4.7830790334908206
 30
0.0
 40
0.0255905507
  0
CIRCLE
  5
C1E
  8
0
  6
CONTINUOUS
 62
     7
 10
4.4016636053310094
 20
4.8830790316109178
 30
0.0
 40
0.0255905507
  0
CIRCLE
  5
C1F
  8
0
  6
CONTINUOUS
 62
     7
 10
4.4016636053310094
 20
4.9830790297309022
 30
0.0
 40
0.0255905507
  0
CIRCLE
  5
C20
  8
0
  6
CONTINUOUS
 62
     7
 10
4.4016636053310094
 20
5.0830790278508848
 30
0.0
 40
0.0255905507
  0
CIRCLE
  5
C21
  8
0
  6
CONTINUOUS
 62
     7
 10
4.4016636053310094
 20
5.1830790259708692
 30
0.0
 40
0.0255905507
  0
CIRCLE
  5
C22
  8
0
  6
CONTINUOUS
 62
     7
 10
4.4016636053310094
 20
5.2830790240908518
 30
0.0
 40
0.0255905507
  0
CIRCLE
  5
C23
  8
0
  6
CONTINUOUS
 62
     7
 10
4.4016636053310094
 20
5.3830790222108362
 30
0.0
 40
0.0255905507
  0
CIRCLE
  5
C24
  8
0
  6
CONTINUOUS
 62
     7
 10
4.4016636053310094
 20
5.4830790203308188
 30
0.0
 40
0.0255905507
  0
CIRCLE
  5
C25
  8
0
  6
CONTINUOUS
 62
     7
 10
4.4016636053310094
 20
5.583079018450916
 30
0.0
 40
0.0255905507
  0
CIRCLE
  5
C26
  8
0
  6
CONTINUOUS
 62
     7
 10
4.4016636053310094
 20
5.6830790165709004
 30
0.0
 40
0.0255905507
  0
CIRCLE
  5
C27
  8
0
  6
CONTINUOUS
 62
     7
 10
4.4016636053310094
 20
5.783079014690883
 30
0.0
 40
0.0255905507
  0
CIRCLE
  5
C28
  8
0
  6
CONTINUOUS
 62
     7
 10
4.4016636053310094
 20
5.8830790128108674
 30
0.0
 40
0.0255905507
  0
CIRCLE
  5
C29
  8
0
  6
CONTINUOUS
 62
     7
 10
4.4016636053310094
 20
5.98307901093085
 30
0.0
 40
0.0255905507
  0
CIRCLE
  5
C2A
  8
0
  6
CONTINUOUS
 62
     7
 10
4.4016636053310094
 20
6.0830790090508344
 30
0.0
 40
0.0255905507
  0
CIRCLE
  5
C2B
  8
0
  6
CONTINUOUS
 62
     7
 10
4.4016636053310094
 20
6.183079007170817
 30
0.0
 40
0.0255905507
  0
CIRCLE
  5
C2C
  8
0
  6
CONTINUOUS
 62
     7
 10
4.4016636053310094
 20
6.2830790052908014
 30
0.0
 40
0.0255905507
  0
CIRCLE
  5
C2D
  8
0
  6
CONTINUOUS
 62
     7
 10
4.4016636053310094
 20
6.3830790034108977
 30
0.0
 40
0.0255905507
  0
CIRCLE
  5
C2E
  8
0
  6
CONTINUOUS
 62
     7
 10
4.4016636053310094
 20
6.4830790015308821
 30
0.0
 40
0.0255905507
  0
CIRCLE
  5
C2F
  8
0
  6
CONTINUOUS
 62
     7
 10
4.4016636053310094
 20
4.483079039130871
 30
0.0
 40
0.0255905507
  0
CIRCLE
  5
C30
  8
0
  6
CONTINUOUS
 62
     7
 10
4.4016636053310094
 20
4.5830790372508536
 30
0.0
 40
0.0255905507
  0
CIRCLE
  5
C31
  8
0
  6
CONTINUOUS
 62
     7
 10
4.4016636053310094
 20
4.683079035370838
 30
0.0
 40
0.0255905507
  0
CIRCLE
  5
C32
  8
0
  6
CONTINUOUS
 62
     7
 10
4.4016636053310094
 20
4.7830790334908206
 30
0.0
 40
0.0255905507
  0
CIRCLE
  5
C33
  8
0
  6
CONTINUOUS
 62
     7
 10
4.4016636053310094
 20
4.8830790316109178
 30
0.0
 40
0.0255905507
  0
CIRCLE
  5
C34
  8
0
  6
CONTINUOUS
 62
     7
 10
4.4016636053310094
 20
4.9830790297309022
 30
0.0
 40
0.0255905507
  0
CIRCLE
  5
C35
  8
0
  6
CONTINUOUS
 62
     7
 10
4.4016636053310094
 20
5.0830790278508848
 30
0.0
 40
0.0255905507
  0
CIRCLE
  5
C36
  8
0
  6
CONTINUOUS
 62
     7
 10
4.4016636053310094
 20
5.1830790259708692
 30
0.0
 40
0.0255905507
  0
CIRCLE
  5
C37
  8
0
  6
CONTINUOUS
 62
     7
 10
4.4016636053310094
 20
5.2830790240908518
 30
0.0
 40
0.0255905507
  0
CIRCLE
  5
C38
  8
0
  6
CONTINUOUS
 62
     7
 10
4.4016636053310094
 20
5.3830790222108362
 30
0.0
 40
0.0255905507
  0
CIRCLE
  5
C39
  8
0
  6
CONTINUOUS
 62
     7
 10
4.4016636053310094
 20
5.4830790203308188
 30
0.0
 40
0.0255905507
  0
CIRCLE
  5
C3A
  8
0
  6
CONTINUOUS
 62
     7
 10
4.4016636053310094
 20
5.583079018450916
 30
0.0
 40
0.0255905507
  0
CIRCLE
  5
C3B
  8
0
  6
CONTINUOUS
 62
     7
 10
4.4016636053310094
 20
5.6830790165709004
 30
0.0
 40
0.0255905507
  0
CIRCLE
  5
C3C
  8
0
  6
CONTINUOUS
 62
     7
 10
4.4016636053310094
 20
5.783079014690883
 30
0.0
 40
0.0255905507
  0
CIRCLE
  5
C3D
  8
0
  6
CONTINUOUS
 62
     7
 10
4.4016636053310094
 20
5.8830790128108674
 30
0.0
 40
0.0255905507
  0
CIRCLE
  5
C3E
  8
0
  6
CONTINUOUS
 62
     7
 10
4.4016636053310094
 20
5.98307901093085
 30
0.0
 40
0.0255905507
  0
CIRCLE
  5
C3F
  8
0
  6
CONTINUOUS
 62
     7
 10
4.4016636053310094
 20
6.0830790090508344
 30
0.0
 40
0.0255905507
  0
CIRCLE
  5
C40
  8
0
  6
CONTINUOUS
 62
     7
 10
4.4016636053310094
 20
6.183079007170817
 30
0.0
 40
0.0255905507
  0
CIRCLE
  5
C41
  8
0
  6
CONTINUOUS
 62
     7
 10
4.4016636053310094
 20
6.2830790052908014
 30
0.0
 40
0.0255905507
  0
CIRCLE
  5
C42
  8
0
  6
CONTINUOUS
 62
     7
 10
4.4016636053310094
 20
6.3830790034108977
 30
0.0
 40
0.0255905507
  0
CIRCLE
  5
C43
  8
0
  6
CONTINUOUS
 62
     7
 10
4.301663607211025
 20
4.483079039130871
 30
0.0
 40
0.0255905507
  0
CIRCLE
  5
C44
  8
0
  6
CONTINUOUS
 62
     7
 10
4.301663607211025
 20
4.5830790372508536
 30
0.0
 40
0.0255905507
  0
CIRCLE
  5
C45
  8
0
  6
CONTINUOUS
 62
     7
 10
4.301663607211025
 20
4.683079035370838
 30
0.0
 40
0.0255905507
  0
CIRCLE
  5
C46
  8
0
  6
CONTINUOUS
 62
     7
 10
4.301663607211025
 20
4.7830790334908206
 30
0.0
 40
0.0255905507
  0
CIRCLE
  5
C47
  8
0
  6
CONTINUOUS
 62
     7
 10
4.301663607211025
 20
4.8830790316109178
 30
0.0
 40
0.0255905507
  0
CIRCLE
  5
C48
  8
0
  6
CONTINUOUS
 62
     7
 10
4.301663607211025
 20
4.9830790297309022
 30
0.0
 40
0.0255905507
  0
CIRCLE
  5
C49
  8
0
  6
CONTINUOUS
 62
     7
 10
4.301663607211025
 20
5.0830790278508848
 30
0.0
 40
0.0255905507
  0
CIRCLE
  5
C4A
  8
0
  6
CONTINUOUS
 62
     7
 10
4.301663607211025
 20
5.1830790259708692
 30
0.0
 40
0.0255905507
  0
CIRCLE
  5
C4B
  8
0
  6
CONTINUOUS
 62
     7
 10
4.301663607211025
 20
5.2830790240908518
 30
0.0
 40
0.0255905507
  0
CIRCLE
  5
C4C
  8
0
  6
CONTINUOUS
 62
     7
 10
4.301663607211025
 20
5.3830790222108362
 30
0.0
 40
0.0255905507
  0
CIRCLE
  5
C4D
  8
0
  6
CONTINUOUS
 62
     7
 10
4.301663607211025
 20
5.4830790203308188
 30
0.0
 40
0.0255905507
  0
CIRCLE
  5
C4E
  8
0
  6
CONTINUOUS
 62
     7
 10
4.301663607211025
 20
5.583079018450916
 30
0.0
 40
0.0255905507
  0
CIRCLE
  5
C4F
  8
0
  6
CONTINUOUS
 62
     7
 10
4.301663607211025
 20
5.6830790165709004
 30
0.0
 40
0.0255905507
  0
CIRCLE
  5
C50
  8
0
  6
CONTINUOUS
 62
     7
 10
4.301663607211025
 20
5.783079014690883
 30
0.0
 40
0.0255905507
  0
CIRCLE
  5
C51
  8
0
  6
CONTINUOUS
 62
     7
 10
4.301663607211025
 20
5.8830790128108674
 30
0.0
 40
0.0255905507
  0
CIRCLE
  5
C52
  8
0
  6
CONTINUOUS
 62
     7
 10
4.301663607211025
 20
5.98307901093085
 30
0.0
 40
0.0255905507
  0
CIRCLE
  5
C53
  8
0
  6
CONTINUOUS
 62
     7
 10
4.301663607211025
 20
6.0830790090508344
 30
0.0
 40
0.0255905507
  0
CIRCLE
  5
C54
  8
0
  6
CONTINUOUS
 62
     7
 10
4.301663607211025
 20
6.183079007170817
 30
0.0
 40
0.0255905507
  0
CIRCLE
  5
C55
  8
0
  6
CONTINUOUS
 62
     7
 10
4.301663607211025
 20
6.2830790052908014
 30
0.0
 40
0.0255905507
  0
CIRCLE
  5
C56
  8
0
  6
CONTINUOUS
 62
     7
 10
4.301663607211025
 20
6.3830790034108977
 30
0.0
 40
0.0255905507
  0
CIRCLE
  5
C57
  8
0
  6
CONTINUOUS
 62
     7
 10
4.301663607211025
 20
6.4830790015308821
 30
0.0
 40
0.0255905507
  0
CIRCLE
  5
C58
  8
0
  6
CONTINUOUS
 62
     7
 10
4.301663607211025
 20
4.483079039130871
 30
0.0
 40
0.0255905507
  0
CIRCLE
  5
C59
  8
0
  6
CONTINUOUS
 62
     7
 10
4.301663607211025
 20
4.5830790372508536
 30
0.0
 40
0.0255905507
  0
CIRCLE
  5
C5A
  8
0
  6
CONTINUOUS
 62
     7
 10
4.301663607211025
 20
4.683079035370838
 30
0.0
 40
0.0255905507
  0
CIRCLE
  5
C5B
  8
0
  6
CONTINUOUS
 62
     7
 10
4.301663607211025
 20
4.7830790334908206
 30
0.0
 40
0.0255905507
  0
CIRCLE
  5
C5C
  8
0
  6
CONTINUOUS
 62
     7
 10
4.301663607211025
 20
4.8830790316109178
 30
0.0
 40
0.0255905507
  0
CIRCLE
  5
C5D
  8
0
  6
CONTINUOUS
 62
     7
 10
4.301663607211025
 20
4.9830790297309022
 30
0.0
 40
0.0255905507
  0
CIRCLE
  5
C5E
  8
0
  6
CONTINUOUS
 62
     7
 10
4.301663607211025
 20
5.0830790278508848
 30
0.0
 40
0.0255905507
  0
CIRCLE
  5
C5F
  8
0
  6
CONTINUOUS
 62
     7
 10
4.301663607211025
 20
5.1830790259708692
 30
0.0
 40
0.0255905507
  0
CIRCLE
  5
C60
  8
0
  6
CONTINUOUS
 62
     7
 10
4.301663607211025
 20
5.2830790240908518
 30
0.0
 40
0.0255905507
  0
CIRCLE
  5
C61
  8
0
  6
CONTINUOUS
 62
     7
 10
4.301663607211025
 20
5.3830790222108362
 30
0.0
 40
0.0255905507
  0
CIRCLE
  5
C62
  8
0
  6
CONTINUOUS
 62
     7
 10
4.301663607211025
 20
5.4830790203308188
 30
0.0
 40
0.0255905507
  0
CIRCLE
  5
C63
  8
0
  6
CONTINUOUS
 62
     7
 10
4.301663607211025
 20
5.583079018450916
 30
0.0
 40
0.0255905507
  0
CIRCLE
  5
C64
  8
0
  6
CONTINUOUS
 62
     7
 10
4.301663607211025
 20
5.6830790165709004
 30
0.0
 40
0.0255905507
  0
CIRCLE
  5
C65
  8
0
  6
CONTINUOUS
 62
     7
 10
4.301663607211025
 20
5.783079014690883
 30
0.0
 40
0.0255905507
  0
CIRCLE
  5
C66
  8
0
  6
CONTINUOUS
 62
     7
 10
4.301663607211025
 20
5.8830790128108674
 30
0.0
 40
0.0255905507
  0
CIRCLE
  5
C67
  8
0
  6
CONTINUOUS
 62
     7
 10
4.301663607211025
 20
5.98307901093085
 30
0.0
 40
0.0255905507
  0
CIRCLE
  5
C68
  8
0
  6
CONTINUOUS
 62
     7
 10
4.301663607211025
 20
6.0830790090508344
 30
0.0
 40
0.0255905507
  0
CIRCLE
  5
C69
  8
0
  6
CONTINUOUS
 62
     7
 10
4.301663607211025
 20
6.183079007170817
 30
0.0
 40
0.0255905507
  0
CIRCLE
  5
C6A
  8
0
  6
CONTINUOUS
 62
     7
 10
4.301663607211025
 20
6.2830790052908014
 30
0.0
 40
0.0255905507
  0
CIRCLE
  5
C6B
  8
0
  6
CONTINUOUS
 62
     7
 10
4.301663607211025
 20
6.3830790034108977
 30
0.0
 40
0.0255905507
  0
CIRCLE
  5
C6C
  8
0
  6
CONTINUOUS
 62
     7
 10
4.2016636090910424
 20
4.483079039130871
 30
0.0
 40
0.0255905507
  0
CIRCLE
  5
C6D
  8
0
  6
CONTINUOUS
 62
     7
 10
4.2016636090910424
 20
4.5830790372508536
 30
0.0
 40
0.0255905507
  0
CIRCLE
  5
C6E
  8
0
  6
CONTINUOUS
 62
     7
 10
4.2016636090910424
 20
4.683079035370838
 30
0.0
 40
0.0255905507
  0
CIRCLE
  5
C6F
  8
0
  6
CONTINUOUS
 62
     7
 10
4.2016636090910424
 20
4.7830790334908206
 30
0.0
 40
0.0255905507
  0
CIRCLE
  5
C70
  8
0
  6
CONTINUOUS
 62
     7
 10
4.2016636090910424
 20
4.8830790316109178
 30
0.0
 40
0.0255905507
  0
CIRCLE
  5
C71
  8
0
  6
CONTINUOUS
 62
     7
 10
4.2016636090910424
 20
4.9830790297309022
 30
0.0
 40
0.0255905507
  0
CIRCLE
  5
C72
  8
0
  6
CONTINUOUS
 62
     7
 10
4.2016636090910424
 20
5.0830790278508848
 30
0.0
 40
0.0255905507
  0
CIRCLE
  5
C73
  8
0
  6
CONTINUOUS
 62
     7
 10
4.2016636090910424
 20
5.1830790259708692
 30
0.0
 40
0.0255905507
  0
CIRCLE
  5
C74
  8
0
  6
CONTINUOUS
 62
     7
 10
4.2016636090910424
 20
5.2830790240908518
 30
0.0
 40
0.0255905507
  0
CIRCLE
  5
C75
  8
0
  6
CONTINUOUS
 62
     7
 10
4.2016636090910424
 20
5.3830790222108362
 30
0.0
 40
0.0255905507
  0
CIRCLE
  5
C76
  8
0
  6
CONTINUOUS
 62
     7
 10
4.2016636090910424
 20
5.4830790203308188
 30
0.0
 40
0.0255905507
  0
CIRCLE
  5
C77
  8
0
  6
CONTINUOUS
 62
     7
 10
4.2016636090910424
 20
5.583079018450916
 30
0.0
 40
0.0255905507
  0
CIRCLE
  5
C78
  8
0
  6
CONTINUOUS
 62
     7
 10
4.2016636090910424
 20
5.6830790165709004
 30
0.0
 40
0.0255905507
  0
CIRCLE
  5
C79
  8
0
  6
CONTINUOUS
 62
     7
 10
4.2016636090910424
 20
5.783079014690883
 30
0.0
 40
0.0255905507
  0
CIRCLE
  5
C7A
  8
0
  6
CONTINUOUS
 62
     7
 10
4.2016636090910424
 20
5.8830790128108674
 30
0.0
 40
0.0255905507
  0
CIRCLE
  5
C7B
  8
0
  6
CONTINUOUS
 62
     7
 10
4.2016636090910424
 20
5.98307901093085
 30
0.0
 40
0.0255905507
  0
CIRCLE
  5
C7C
  8
0
  6
CONTINUOUS
 62
     7
 10
4.2016636090910424
 20
6.0830790090508344
 30
0.0
 40
0.0255905507
  0
CIRCLE
  5
C7D
  8
0
  6
CONTINUOUS
 62
     7
 10
4.2016636090910424
 20
6.183079007170817
 30
0.0
 40
0.0255905507
  0
CIRCLE
  5
C7E
  8
0
  6
CONTINUOUS
 62
     7
 10
4.2016636090910424
 20
6.2830790052908014
 30
0.0
 40
0.0255905507
  0
CIRCLE
  5
C7F
  8
0
  6
CONTINUOUS
 62
     7
 10
4.2016636090910424
 20
6.3830790034108977
 30
0.0
 40
0.0255905507
  0
CIRCLE
  5
C80
  8
0
  6
CONTINUOUS
 62
     7
 10
4.2016636090910424
 20
6.4830790015308821
 30
0.0
 40
0.0255905507
  0
CIRCLE
  5
C81
  8
0
  6
CONTINUOUS
 62
     7
 10
4.2016636090910424
 20
4.483079039130871
 30
0.0
 40
0.0255905507
  0
CIRCLE
  5
C82
  8
0
  6
CONTINUOUS
 62
     7
 10
4.2016636090910424
 20
4.5830790372508536
 30
0.0
 40
0.0255905507
  0
CIRCLE
  5
C83
  8
0
  6
CONTINUOUS
 62
     7
 10
4.2016636090910424
 20
4.683079035370838
 30
0.0
 40
0.0255905507
  0
CIRCLE
  5
C84
  8
0
  6
CONTINUOUS
 62
     7
 10
4.2016636090910424
 20
4.7830790334908206
 30
0.0
 40
0.0255905507
  0
CIRCLE
  5
C85
  8
0
  6
CONTINUOUS
 62
     7
 10
4.2016636090910424
 20
4.8830790316109178
 30
0.0
 40
0.0255905507
  0
CIRCLE
  5
C86
  8
0
  6
CONTINUOUS
 62
     7
 10
4.2016636090910424
 20
4.9830790297309022
 30
0.0
 40
0.0255905507
  0
CIRCLE
  5
C87
  8
0
  6
CONTINUOUS
 62
     7
 10
4.2016636090910424
 20
5.0830790278508848
 30
0.0
 40
0.0255905507
  0
CIRCLE
  5
C88
  8
0
  6
CONTINUOUS
 62
     7
 10
4.2016636090910424
 20
5.1830790259708692
 30
0.0
 40
0.0255905507
  0
CIRCLE
  5
C89
  8
0
  6
CONTINUOUS
 62
     7
 10
4.2016636090910424
 20
5.2830790240908518
 30
0.0
 40
0.0255905507
  0
CIRCLE
  5
C8A
  8
0
  6
CONTINUOUS
 62
     7
 10
4.2016636090910424
 20
5.3830790222108362
 30
0.0
 40
0.0255905507
  0
CIRCLE
  5
C8B
  8
0
  6
CONTINUOUS
 62
     7
 10
4.2016636090910424
 20
5.4830790203308188
 30
0.0
 40
0.0255905507
  0
CIRCLE
  5
C8C
  8
0
  6
CONTINUOUS
 62
     7
 10
4.2016636090910424
 20
5.583079018450916
 30
0.0
 40
0.0255905507
  0
CIRCLE
  5
C8D
  8
0
  6
CONTINUOUS
 62
     7
 10
4.2016636090910424
 20
5.6830790165709004
 30
0.0
 40
0.0255905507
  0
CIRCLE
  5
C8E
  8
0
  6
CONTINUOUS
 62
     7
 10
4.2016636090910424
 20
5.783079014690883
 30
0.0
 40
0.0255905507
  0
CIRCLE
  5
C8F
  8
0
  6
CONTINUOUS
 62
     7
 10
4.2016636090910424
 20
5.8830790128108674
 30
0.0
 40
0.0255905507
  0
CIRCLE
  5
C90
  8
0
  6
CONTINUOUS
 62
     7
 10
4.2016636090910424
 20
5.98307901093085
 30
0.0
 40
0.0255905507
  0
CIRCLE
  5
C91
  8
0
  6
CONTINUOUS
 62
     7
 10
4.2016636090910424
 20
6.0830790090508344
 30
0.0
 40
0.0255905507
  0
CIRCLE
  5
C92
  8
0
  6
CONTINUOUS
 62
     7
 10
4.2016636090910424
 20
6.183079007170817
 30
0.0
 40
0.0255905507
  0
CIRCLE
  5
C93
  8
0
  6
CONTINUOUS
 62
     7
 10
4.2016636090910424
 20
6.2830790052908014
 30
0.0
 40
0.0255905507
  0
CIRCLE
  5
C94
  8
0
  6
CONTINUOUS
 62
     7
 10
4.2016636090910424
 20
6.3830790034108977
 30
0.0
 40
0.0255905507
  0
CIRCLE
  5
C95
  8
0
  6
CONTINUOUS
 62
     7
 10
4.101663610971058
 20
4.483079039130871
 30
0.0
 40
0.0255905507
  0
CIRCLE
  5
C96
  8
0
  6
CONTINUOUS
 62
     7
 10
4.101663610971058
 20
4.5830790372508536
 30
0.0
 40
0.0255905507
  0
CIRCLE
  5
C97
  8
0
  6
CONTINUOUS
 62
     7
 10
4.101663610971058
 20
4.683079035370838
 30
0.0
 40
0.0255905507
  0
CIRCLE
  5
C98
  8
0
  6
CONTINUOUS
 62
     7
 10
4.101663610971058
 20
4.7830790334908206
 30
0.0
 40
0.0255905507
  0
CIRCLE
  5
C99
  8
0
  6
CONTINUOUS
 62
     7
 10
4.101663610971058
 20
4.8830790316109178
 30
0.0
 40
0.0255905507
  0
CIRCLE
  5
C9A
  8
0
  6
CONTINUOUS
 62
     7
 10
4.101663610971058
 20
4.9830790297309022
 30
0.0
 40
0.0255905507
  0
CIRCLE
  5
C9B
  8
0
  6
CONTINUOUS
 62
     7
 10
4.101663610971058
 20
5.0830790278508848
 30
0.0
 40
0.0255905507
  0
CIRCLE
  5
C9C
  8
0
  6
CONTINUOUS
 62
     7
 10
4.101663610971058
 20
5.1830790259708692
 30
0.0
 40
0.0255905507
  0
CIRCLE
  5
C9D
  8
0
  6
CONTINUOUS
 62
     7
 10
4.101663610971058
 20
5.2830790240908518
 30
0.0
 40
0.0255905507
  0
CIRCLE
  5
C9E
  8
0
  6
CONTINUOUS
 62
     7
 10
4.101663610971058
 20
5.3830790222108362
 30
0.0
 40
0.0255905507
  0
CIRCLE
  5
C9F
  8
0
  6
CONTINUOUS
 62
     7
 10
4.101663610971058
 20
5.4830790203308188
 30
0.0
 40
0.0255905507
  0
CIRCLE
  5
CA0
  8
0
  6
CONTINUOUS
 62
     7
 10
4.101663610971058
 20
5.583079018450916
 30
0.0
 40
0.0255905507
  0
CIRCLE
  5
CA1
  8
0
  6
CONTINUOUS
 62
     7
 10
4.101663610971058
 20
5.6830790165709004
 30
0.0
 40
0.0255905507
  0
CIRCLE
  5
CA2
  8
0
  6
CONTINUOUS
 62
     7
 10
4.101663610971058
 20
5.783079014690883
 30
0.0
 40
0.0255905507
  0
CIRCLE
  5
CA3
  8
0
  6
CONTINUOUS
 62
     7
 10
4.101663610971058
 20
5.8830790128108674
 30
0.0
 40
0.0255905507
  0
CIRCLE
  5
CA4
  8
0
  6
CONTINUOUS
 62
     7
 10
4.101663610971058
 20
5.98307901093085
 30
0.0
 40
0.0255905507
  0
CIRCLE
  5
CA5
  8
0
  6
CONTINUOUS
 62
     7
 10
4.101663610971058
 20
6.0830790090508344
 30
0.0
 40
0.0255905507
  0
CIRCLE
  5
CA6
  8
0
  6
CONTINUOUS
 62
     7
 10
4.101663610971058
 20
6.183079007170817
 30
0.0
 40
0.0255905507
  0
CIRCLE
  5
CA7
  8
0
  6
CONTINUOUS
 62
     7
 10
4.101663610971058
 20
6.2830790052908014
 30
0.0
 40
0.0255905507
  0
CIRCLE
  5
CA8
  8
0
  6
CONTINUOUS
 62
     7
 10
4.101663610971058
 20
6.3830790034108977
 30
0.0
 40
0.0255905507
  0
CIRCLE
  5
CA9
  8
0
  6
CONTINUOUS
 62
     7
 10
4.101663610971058
 20
6.4830790015308821
 30
0.0
 40
0.0255905507
  0
CIRCLE
  5
CAA
  8
0
  6
CONTINUOUS
 62
     7
 10
4.101663610971058
 20
4.483079039130871
 30
0.0
 40
0.0255905507
  0
CIRCLE
  5
CAB
  8
0
  6
CONTINUOUS
 62
     7
 10
4.101663610971058
 20
4.5830790372508536
 30
0.0
 40
0.0255905507
  0
CIRCLE
  5
CAC
  8
0
  6
CONTINUOUS
 62
     7
 10
4.101663610971058
 20
4.683079035370838
 30
0.0
 40
0.0255905507
  0
CIRCLE
  5
CAD
  8
0
  6
CONTINUOUS
 62
     7
 10
4.101663610971058
 20
4.7830790334908206
 30
0.0
 40
0.0255905507
  0
CIRCLE
  5
CAE
  8
0
  6
CONTINUOUS
 62
     7
 10
4.101663610971058
 20
4.8830790316109178
 30
0.0
 40
0.0255905507
  0
CIRCLE
  5
CAF
  8
0
  6
CONTINUOUS
 62
     7
 10
4.101663610971058
 20
4.9830790297309022
 30
0.0
 40
0.0255905507
  0
CIRCLE
  5
CB0
  8
0
  6
CONTINUOUS
 62
     7
 10
4.101663610971058
 20
5.0830790278508848
 30
0.0
 40
0.0255905507
  0
CIRCLE
  5
CB1
  8
0
  6
CONTINUOUS
 62
     7
 10
4.101663610971058
 20
5.1830790259708692
 30
0.0
 40
0.0255905507
  0
CIRCLE
  5
CB2
  8
0
  6
CONTINUOUS
 62
     7
 10
4.101663610971058
 20
5.2830790240908518
 30
0.0
 40
0.0255905507
  0
CIRCLE
  5
CB3
  8
0
  6
CONTINUOUS
 62
     7
 10
4.101663610971058
 20
5.3830790222108362
 30
0.0
 40
0.0255905507
  0
CIRCLE
  5
CB4
  8
0
  6
CONTINUOUS
 62
     7
 10
4.101663610971058
 20
5.4830790203308188
 30
0.0
 40
0.0255905507
  0
CIRCLE
  5
CB5
  8
0
  6
CONTINUOUS
 62
     7
 10
4.101663610971058
 20
5.583079018450916
 30
0.0
 40
0.0255905507
  0
CIRCLE
  5
CB6
  8
0
  6
CONTINUOUS
 62
     7
 10
4.101663610971058
 20
5.6830790165709004
 30
0.0
 40
0.0255905507
  0
CIRCLE
  5
CB7
  8
0
  6
CONTINUOUS
 62
     7
 10
4.101663610971058
 20
5.783079014690883
 30
0.0
 40
0.0255905507
  0
CIRCLE
  5
CB8
  8
0
  6
CONTINUOUS
 62
     7
 10
4.101663610971058
 20
5.8830790128108674
 30
0.0
 40
0.0255905507
  0
CIRCLE
  5
CB9
  8
0
  6
CONTINUOUS
 62
     7
 10
4.101663610971058
 20
5.98307901093085
 30
0.0
 40
0.0255905507
  0
CIRCLE
  5
CBA
  8
0
  6
CONTINUOUS
 62
     7
 10
4.101663610971058
 20
6.0830790090508344
 30
0.0
 40
0.0255905507
  0
CIRCLE
  5
CBB
  8
0
  6
CONTINUOUS
 62
     7
 10
4.101663610971058
 20
6.183079007170817
 30
0.0
 40
0.0255905507
  0
CIRCLE
  5
CBC
  8
0
  6
CONTINUOUS
 62
     7
 10
4.101663610971058
 20
6.2830790052908014
 30
0.0
 40
0.0255905507
  0
CIRCLE
  5
CBD
  8
0
  6
CONTINUOUS
 62
     7
 10
4.101663610971058
 20
6.3830790034108977
 30
0.0
 40
0.0255905507
  0
CIRCLE
  5
CBE
  8
0
  6
CONTINUOUS
 62
     7
 10
4.0016636128509608
 20
4.483079039130871
 30
0.0
 40
0.0255905507
  0
CIRCLE
  5
CBF
  8
0
  6
CONTINUOUS
 62
     7
 10
4.0016636128509608
 20
4.5830790372508536
 30
0.0
 40
0.0255905507
  0
CIRCLE
  5
CC0
  8
0
  6
CONTINUOUS
 62
     7
 10
4.0016636128509608
 20
4.683079035370838
 30
0.0
 40
0.0255905507
  0
CIRCLE
  5
CC1
  8
0
  6
CONTINUOUS
 62
     7
 10
4.0016636128509608
 20
4.7830790334908206
 30
0.0
 40
0.0255905507
  0
CIRCLE
  5
CC2
  8
0
  6
CONTINUOUS
 62
     7
 10
4.0016636128509608
 20
4.8830790316109178
 30
0.0
 40
0.0255905507
  0
CIRCLE
  5
CC3
  8
0
  6
CONTINUOUS
 62
     7
 10
4.0016636128509608
 20
4.9830790297309022
 30
0.0
 40
0.0255905507
  0
CIRCLE
  5
CC4
  8
0
  6
CONTINUOUS
 62
     7
 10
4.0016636128509608
 20
5.0830790278508848
 30
0.0
 40
0.0255905507
  0
CIRCLE
  5
CC5
  8
0
  6
CONTINUOUS
 62
     7
 10
4.0016636128509608
 20
5.1830790259708692
 30
0.0
 40
0.0255905507
  0
CIRCLE
  5
CC6
  8
0
  6
CONTINUOUS
 62
     7
 10
4.0016636128509608
 20
5.2830790240908518
 30
0.0
 40
0.0255905507
  0
CIRCLE
  5
CC7
  8
0
  6
CONTINUOUS
 62
     7
 10
4.0016636128509608
 20
5.3830790222108362
 30
0.0
 40
0.0255905507
  0
CIRCLE
  5
CC8
  8
0
  6
CONTINUOUS
 62
     7
 10
4.0016636128509608
 20
5.4830790203308188
 30
0.0
 40
0.0255905507
  0
CIRCLE
  5
CC9
  8
0
  6
CONTINUOUS
 62
     7
 10
4.0016636128509608
 20
5.583079018450916
 30
0.0
 40
0.0255905507
  0
CIRCLE
  5
CCA
  8
0
  6
CONTINUOUS
 62
     7
 10
4.0016636128509608
 20
5.6830790165709004
 30
0.0
 40
0.0255905507
  0
CIRCLE
  5
CCB
  8
0
  6
CONTINUOUS
 62
     7
 10
4.0016636128509608
 20
5.783079014690883
 30
0.0
 40
0.0255905507
  0
CIRCLE
  5
CCC
  8
0
  6
CONTINUOUS
 62
     7
 10
4.0016636128509608
 20
5.8830790128108674
 30
0.0
 40
0.0255905507
  0
CIRCLE
  5
CCD
  8
0
  6
CONTINUOUS
 62
     7
 10
4.0016636128509608
 20
5.98307901093085
 30
0.0
 40
0.0255905507
  0
CIRCLE
  5
CCE
  8
0
  6
CONTINUOUS
 62
     7
 10
4.0016636128509608
 20
6.0830790090508344
 30
0.0
 40
0.0255905507
  0
CIRCLE
  5
CCF
  8
0
  6
CONTINUOUS
 62
     7
 10
4.0016636128509608
 20
6.183079007170817
 30
0.0
 40
0.0255905507
  0
CIRCLE
  5
CD0
  8
0
  6
CONTINUOUS
 62
     7
 10
4.0016636128509608
 20
6.2830790052908014
 30
0.0
 40
0.0255905507
  0
CIRCLE
  5
CD1
  8
0
  6
CONTINUOUS
 62
     7
 10
4.0016636128509608
 20
6.3830790034108977
 30
0.0
 40
0.0255905507
  0
CIRCLE
  5
CD2
  8
0
  6
CONTINUOUS
 62
     7
 10
4.0016636128509608
 20
6.4830790015308821
 30
0.0
 40
0.0255905507
  0
CIRCLE
  5
CD3
  8
0
  6
CONTINUOUS
 62
     7
 10
4.0016636128509608
 20
4.483079039130871
 30
0.0
 40
0.0255905507
  0
CIRCLE
  5
CD4
  8
0
  6
CONTINUOUS
 62
     7
 10
4.0016636128509608
 20
4.5830790372508536
 30
0.0
 40
0.0255905507
  0
CIRCLE
  5
CD5
  8
0
  6
CONTINUOUS
 62
     7
 10
4.0016636128509608
 20
4.683079035370838
 30
0.0
 40
0.0255905507
  0
CIRCLE
  5
CD6
  8
0
  6
CONTINUOUS
 62
     7
 10
4.0016636128509608
 20
4.7830790334908206
 30
0.0
 40
0.0255905507
  0
CIRCLE
  5
CD7
  8
0
  6
CONTINUOUS
 62
     7
 10
4.0016636128509608
 20
4.8830790316109178
 30
0.0
 40
0.0255905507
  0
CIRCLE
  5
CD8
  8
0
  6
CONTINUOUS
 62
     7
 10
4.0016636128509608
 20
4.9830790297309022
 30
0.0
 40
0.0255905507
  0
CIRCLE
  5
CD9
  8
0
  6
CONTINUOUS
 62
     7
 10
4.0016636128509608
 20
5.0830790278508848
 30
0.0
 40
0.0255905507
  0
CIRCLE
  5
CDA
  8
0
  6
CONTINUOUS
 62
     7
 10
4.0016636128509608
 20
5.1830790259708692
 30
0.0
 40
0.0255905507
  0
CIRCLE
  5
CDB
  8
0
  6
CONTINUOUS
 62
     7
 10
4.0016636128509608
 20
5.2830790240908518
 30
0.0
 40
0.0255905507
  0
CIRCLE
  5
CDC
  8
0
  6
CONTINUOUS
 62
     7
 10
4.0016636128509608
 20
5.3830790222108362
 30
0.0
 40
0.0255905507
  0
CIRCLE
  5
CDD
  8
0
  6
CONTINUOUS
 62
     7
 10
4.0016636128509608
 20
5.4830790203308188
 30
0.0
 40
0.0255905507
  0
CIRCLE
  5
CDE
  8
0
  6
CONTINUOUS
 62
     7
 10
4.0016636128509608
 20
5.583079018450916
 30
0.0
 40
0.0255905507
  0
CIRCLE
  5
CDF
  8
0
  6
CONTINUOUS
 62
     7
 10
4.0016636128509608
 20
5.6830790165709004
 30
0.0
 40
0.0255905507
  0
CIRCLE
  5
CE0
  8
0
  6
CONTINUOUS
 62
     7
 10
4.0016636128509608
 20
5.783079014690883
 30
0.0
 40
0.0255905507
  0
CIRCLE
  5
CE1
  8
0
  6
CONTINUOUS
 62
     7
 10
4.0016636128509608
 20
5.8830790128108674
 30
0.0
 40
0.0255905507
  0
CIRCLE
  5
CE2
  8
0
  6
CONTINUOUS
 62
     7
 10
4.0016636128509608
 20
5.98307901093085
 30
0.0
 40
0.0255905507
  0
CIRCLE
  5
CE3
  8
0
  6
CONTINUOUS
 62
     7
 10
4.0016636128509608
 20
6.0830790090508344
 30
0.0
 40
0.0255905507
  0
CIRCLE
  5
CE4
  8
0
  6
CONTINUOUS
 62
     7
 10
4.0016636128509608
 20
6.183079007170817
 30
0.0
 40
0.0255905507
  0
CIRCLE
  5
CE5
  8
0
  6
CONTINUOUS
 62
     7
 10
4.0016636128509608
 20
6.2830790052908014
 30
0.0
 40
0.0255905507
  0
CIRCLE
  5
CE6
  8
0
  6
CONTINUOUS
 62
     7
 10
4.0016636128509608
 20
6.3830790034108977
 30
0.0
 40
0.0255905507
  0
CIRCLE
  5
CE7
  8
0
  6
CONTINUOUS
 62
     7
 10
3.9016636147309778
 20
4.483079039130871
 30
0.0
 40
0.0255905507
  0
CIRCLE
  5
CE8
  8
0
  6
CONTINUOUS
 62
     7
 10
3.9016636147309778
 20
4.5830790372508536
 30
0.0
 40
0.0255905507
  0
CIRCLE
  5
CE9
  8
0
  6
CONTINUOUS
 62
     7
 10
3.9016636147309778
 20
4.683079035370838
 30
0.0
 40
0.0255905507
  0
CIRCLE
  5
CEA
  8
0
  6
CONTINUOUS
 62
     7
 10
3.9016636147309778
 20
4.7830790334908206
 30
0.0
 40
0.0255905507
  0
CIRCLE
  5
CEB
  8
0
  6
CONTINUOUS
 62
     7
 10
3.9016636147309778
 20
4.8830790316109178
 30
0.0
 40
0.0255905507
  0
CIRCLE
  5
CEC
  8
0
  6
CONTINUOUS
 62
     7
 10
3.9016636147309778
 20
4.9830790297309022
 30
0.0
 40
0.0255905507
  0
CIRCLE
  5
CED
  8
0
  6
CONTINUOUS
 62
     7
 10
3.9016636147309778
 20
5.0830790278508848
 30
0.0
 40
0.0255905507
  0
CIRCLE
  5
CEE
  8
0
  6
CONTINUOUS
 62
     7
 10
3.9016636147309778
 20
5.1830790259708692
 30
0.0
 40
0.0255905507
  0
CIRCLE
  5
CEF
  8
0
  6
CONTINUOUS
 62
     7
 10
3.9016636147309778
 20
5.2830790240908518
 30
0.0
 40
0.0255905507
  0
CIRCLE
  5
CF0
  8
0
  6
CONTINUOUS
 62
     7
 10
3.9016636147309778
 20
5.3830790222108362
 30
0.0
 40
0.0255905507
  0
CIRCLE
  5
CF1
  8
0
  6
CONTINUOUS
 62
     7
 10
3.9016636147309778
 20
5.4830790203308188
 30
0.0
 40
0.0255905507
  0
CIRCLE
  5
CF2
  8
0
  6
CONTINUOUS
 62
     7
 10
3.9016636147309778
 20
5.583079018450916
 30
0.0
 40
0.0255905507
  0
CIRCLE
  5
CF3
  8
0
  6
CONTINUOUS
 62
     7
 10
3.9016636147309778
 20
5.6830790165709004
 30
0.0
 40
0.0255905507
  0
CIRCLE
  5
CF4
  8
0
  6
CONTINUOUS
 62
     7
 10
3.9016636147309778
 20
5.783079014690883
 30
0.0
 40
0.0255905507
  0
CIRCLE
  5
CF5
  8
0
  6
CONTINUOUS
 62
     7
 10
3.9016636147309778
 20
5.8830790128108674
 30
0.0
 40
0.0255905507
  0
CIRCLE
  5
CF6
  8
0
  6
CONTINUOUS
 62
     7
 10
3.9016636147309778
 20
5.98307901093085
 30
0.0
 40
0.0255905507
  0
CIRCLE
  5
CF7
  8
0
  6
CONTINUOUS
 62
     7
 10
3.9016636147309778
 20
6.0830790090508344
 30
0.0
 40
0.0255905507
  0
CIRCLE
  5
CF8
  8
0
  6
CONTINUOUS
 62
     7
 10
3.9016636147309778
 20
6.183079007170817
 30
0.0
 40
0.0255905507
  0
CIRCLE
  5
CF9
  8
0
  6
CONTINUOUS
 62
     7
 10
3.9016636147309778
 20
6.2830790052908014
 30
0.0
 40
0.0255905507
  0
CIRCLE
  5
CFA
  8
0
  6
CONTINUOUS
 62
     7
 10
3.9016636147309778
 20
6.3830790034108977
 30
0.0
 40
0.0255905507
  0
CIRCLE
  5
CFB
  8
0
  6
CONTINUOUS
 62
     7
 10
3.9016636147309778
 20
6.4830790015308821
 30
0.0
 40
0.0255905507
  0
CIRCLE
  5
CFC
  8
0
  6
CONTINUOUS
 62
     7
 10
3.9016636147309778
 20
4.483079039130871
 30
0.0
 40
0.0255905507
  0
CIRCLE
  5
CFD
  8
0
  6
CONTINUOUS
 62
     7
 10
3.9016636147309778
 20
4.5830790372508536
 30
0.0
 40
0.0255905507
  0
CIRCLE
  5
CFE
  8
0
  6
CONTINUOUS
 62
     7
 10
3.9016636147309778
 20
4.683079035370838
 30
0.0
 40
0.0255905507
  0
CIRCLE
  5
CFF
  8
0
  6
CONTINUOUS
 62
     7
 10
3.9016636147309778
 20
4.7830790334908206
 30
0.0
 40
0.0255905507
  0
CIRCLE
  5
D00
  8
0
  6
CONTINUOUS
 62
     7
 10
3.9016636147309778
 20
4.8830790316109178
 30
0.0
 40
0.0255905507
  0
CIRCLE
  5
D01
  8
0
  6
CONTINUOUS
 62
     7
 10
3.9016636147309778
 20
4.9830790297309022
 30
0.0
 40
0.0255905507
  0
CIRCLE
  5
D02
  8
0
  6
CONTINUOUS
 62
     7
 10
3.9016636147309778
 20
5.0830790278508848
 30
0.0
 40
0.0255905507
  0
CIRCLE
  5
D03
  8
0
  6
CONTINUOUS
 62
     7
 10
3.9016636147309778
 20
5.1830790259708692
 30
0.0
 40
0.0255905507
  0
CIRCLE
  5
D04
  8
0
  6
CONTINUOUS
 62
     7
 10
3.9016636147309778
 20
5.2830790240908518
 30
0.0
 40
0.0255905507
  0
CIRCLE
  5
D05
  8
0
  6
CONTINUOUS
 62
     7
 10
3.9016636147309778
 20
5.3830790222108362
 30
0.0
 40
0.0255905507
  0
CIRCLE
  5
D06
  8
0
  6
CONTINUOUS
 62
     7
 10
3.9016636147309778
 20
5.4830790203308188
 30
0.0
 40
0.0255905507
  0
CIRCLE
  5
D07
  8
0
  6
CONTINUOUS
 62
     7
 10
3.9016636147309778
 20
5.583079018450916
 30
0.0
 40
0.0255905507
  0
CIRCLE
  5
D08
  8
0
  6
CONTINUOUS
 62
     7
 10
3.9016636147309778
 20
5.6830790165709004
 30
0.0
 40
0.0255905507
  0
CIRCLE
  5
D09
  8
0
  6
CONTINUOUS
 62
     7
 10
3.9016636147309778
 20
5.783079014690883
 30
0.0
 40
0.0255905507
  0
CIRCLE
  5
D0A
  8
0
  6
CONTINUOUS
 62
     7
 10
3.9016636147309778
 20
5.8830790128108674
 30
0.0
 40
0.0255905507
  0
CIRCLE
  5
D0B
  8
0
  6
CONTINUOUS
 62
     7
 10
3.9016636147309778
 20
5.98307901093085
 30
0.0
 40
0.0255905507
  0
CIRCLE
  5
D0C
  8
0
  6
CONTINUOUS
 62
     7
 10
3.9016636147309778
 20
6.0830790090508344
 30
0.0
 40
0.0255905507
  0
CIRCLE
  5
D0D
  8
0
  6
CONTINUOUS
 62
     7
 10
3.9016636147309778
 20
6.183079007170817
 30
0.0
 40
0.0255905507
  0
CIRCLE
  5
D0E
  8
0
  6
CONTINUOUS
 62
     7
 10
3.9016636147309778
 20
6.2830790052908014
 30
0.0
 40
0.0255905507
  0
CIRCLE
  5
D0F
  8
0
  6
CONTINUOUS
 62
     7
 10
3.9016636147309778
 20
6.3830790034108977
 30
0.0
 40
0.0255905507
  0
CIRCLE
  5
D10
  8
0
  6
CONTINUOUS
 62
     7
 10
3.8016636166109938
 20
4.483079039130871
 30
0.0
 40
0.0255905507
  0
CIRCLE
  5
D11
  8
0
  6
CONTINUOUS
 62
     7
 10
3.8016636166109938
 20
4.5830790372508536
 30
0.0
 40
0.0255905507
  0
CIRCLE
  5
D12
  8
0
  6
CONTINUOUS
 62
     7
 10
3.8016636166109938
 20
4.683079035370838
 30
0.0
 40
0.0255905507
  0
CIRCLE
  5
D13
  8
0
  6
CONTINUOUS
 62
     7
 10
3.8016636166109938
 20
4.7830790334908206
 30
0.0
 40
0.0255905507
  0
CIRCLE
  5
D14
  8
0
  6
CONTINUOUS
 62
     7
 10
3.8016636166109938
 20
4.8830790316109178
 30
0.0
 40
0.0255905507
  0
CIRCLE
  5
D15
  8
0
  6
CONTINUOUS
 62
     7
 10
3.8016636166109938
 20
4.9830790297309022
 30
0.0
 40
0.0255905507
  0
CIRCLE
  5
D16
  8
0
  6
CONTINUOUS
 62
     7
 10
3.8016636166109938
 20
5.0830790278508848
 30
0.0
 40
0.0255905507
  0
CIRCLE
  5
D17
  8
0
  6
CONTINUOUS
 62
     7
 10
3.8016636166109938
 20
5.1830790259708692
 30
0.0
 40
0.0255905507
  0
CIRCLE
  5
D18
  8
0
  6
CONTINUOUS
 62
     7
 10
3.8016636166109938
 20
5.2830790240908518
 30
0.0
 40
0.0255905507
  0
CIRCLE
  5
D19
  8
0
  6
CONTINUOUS
 62
     7
 10
3.8016636166109938
 20
5.3830790222108362
 30
0.0
 40
0.0255905507
  0
CIRCLE
  5
D1A
  8
0
  6
CONTINUOUS
 62
     7
 10
3.8016636166109938
 20
5.4830790203308188
 30
0.0
 40
0.0255905507
  0
CIRCLE
  5
D1B
  8
0
  6
CONTINUOUS
 62
     7
 10
3.8016636166109938
 20
5.583079018450916
 30
0.0
 40
0.0255905507
  0
CIRCLE
  5
D1C
  8
0
  6
CONTINUOUS
 62
     7
 10
3.8016636166109938
 20
5.6830790165709004
 30
0.0
 40
0.0255905507
  0
CIRCLE
  5
D1D
  8
0
  6
CONTINUOUS
 62
     7
 10
3.8016636166109938
 20
5.783079014690883
 30
0.0
 40
0.0255905507
  0
CIRCLE
  5
D1E
  8
0
  6
CONTINUOUS
 62
     7
 10
3.8016636166109938
 20
5.8830790128108674
 30
0.0
 40
0.0255905507
  0
CIRCLE
  5
D1F
  8
0
  6
CONTINUOUS
 62
     7
 10
3.8016636166109938
 20
5.98307901093085
 30
0.0
 40
0.0255905507
  0
CIRCLE
  5
D20
  8
0
  6
CONTINUOUS
 62
     7
 10
3.8016636166109938
 20
6.0830790090508344
 30
0.0
 40
0.0255905507
  0
CIRCLE
  5
D21
  8
0
  6
CONTINUOUS
 62
     7
 10
3.8016636166109938
 20
6.183079007170817
 30
0.0
 40
0.0255905507
  0
CIRCLE
  5
D22
  8
0
  6
CONTINUOUS
 62
     7
 10
3.8016636166109938
 20
6.2830790052908014
 30
0.0
 40
0.0255905507
  0
CIRCLE
  5
D23
  8
0
  6
CONTINUOUS
 62
     7
 10
3.8016636166109938
 20
6.3830790034108977
 30
0.0
 40
0.0255905507
  0
CIRCLE
  5
D24
  8
0
  6
CONTINUOUS
 62
     7
 10
3.8016636166109938
 20
6.4830790015308821
 30
0.0
 40
0.0255905507
  0
CIRCLE
  5
D25
  8
0
  6
CONTINUOUS
 62
     7
 10
3.8016636166109938
 20
4.483079039130871
 30
0.0
 40
0.0255905507
  0
CIRCLE
  5
D26
  8
0
  6
CONTINUOUS
 62
     7
 10
3.8016636166109938
 20
4.5830790372508536
 30
0.0
 40
0.0255905507
  0
CIRCLE
  5
D27
  8
0
  6
CONTINUOUS
 62
     7
 10
3.8016636166109938
 20
4.683079035370838
 30
0.0
 40
0.0255905507
  0
CIRCLE
  5
D28
  8
0
  6
CONTINUOUS
 62
     7
 10
3.8016636166109938
 20
4.7830790334908206
 30
0.0
 40
0.0255905507
  0
CIRCLE
  5
D29
  8
0
  6
CONTINUOUS
 62
     7
 10
3.8016636166109938
 20
4.8830790316109178
 30
0.0
 40
0.0255905507
  0
CIRCLE
  5
D2A
  8
0
  6
CONTINUOUS
 62
     7
 10
3.8016636166109938
 20
4.9830790297309022
 30
0.0
 40
0.0255905507
  0
CIRCLE
  5
D2B
  8
0
  6
CONTINUOUS
 62
     7
 10
3.8016636166109938
 20
5.0830790278508848
 30
0.0
 40
0.0255905507
  0
CIRCLE
  5
D2C
  8
0
  6
CONTINUOUS
 62
     7
 10
3.8016636166109938
 20
5.1830790259708692
 30
0.0
 40
0.0255905507
  0
CIRCLE
  5
D2D
  8
0
  6
CONTINUOUS
 62
     7
 10
3.8016636166109938
 20
5.2830790240908518
 30
0.0
 40
0.0255905507
  0
CIRCLE
  5
D2E
  8
0
  6
CONTINUOUS
 62
     7
 10
3.8016636166109938
 20
5.3830790222108362
 30
0.0
 40
0.0255905507
  0
CIRCLE
  5
D2F
  8
0
  6
CONTINUOUS
 62
     7
 10
3.8016636166109938
 20
5.4830790203308188
 30
0.0
 40
0.0255905507
  0
CIRCLE
  5
D30
  8
0
  6
CONTINUOUS
 62
     7
 10
3.8016636166109938
 20
5.583079018450916
 30
0.0
 40
0.0255905507
  0
CIRCLE
  5
D31
  8
0
  6
CONTINUOUS
 62
     7
 10
3.8016636166109938
 20
5.6830790165709004
 30
0.0
 40
0.0255905507
  0
CIRCLE
  5
D32
  8
0
  6
CONTINUOUS
 62
     7
 10
3.8016636166109938
 20
5.783079014690883
 30
0.0
 40
0.0255905507
  0
CIRCLE
  5
D33
  8
0
  6
CONTINUOUS
 62
     7
 10
3.8016636166109938
 20
5.8830790128108674
 30
0.0
 40
0.0255905507
  0
CIRCLE
  5
D34
  8
0
  6
CONTINUOUS
 62
     7
 10
3.8016636166109938
 20
5.98307901093085
 30
0.0
 40
0.0255905507
  0
CIRCLE
  5
D35
  8
0
  6
CONTINUOUS
 62
     7
 10
3.8016636166109938
 20
6.0830790090508344
 30
0.0
 40
0.0255905507
  0
CIRCLE
  5
D36
  8
0
  6
CONTINUOUS
 62
     7
 10
3.8016636166109938
 20
6.183079007170817
 30
0.0
 40
0.0255905507
  0
CIRCLE
  5
D37
  8
0
  6
CONTINUOUS
 62
     7
 10
3.8016636166109938
 20
6.2830790052908014
 30
0.0
 40
0.0255905507
  0
CIRCLE
  5
D38
  8
0
  6
CONTINUOUS
 62
     7
 10
3.8016636166109938
 20
6.3830790034108977
 30
0.0
 40
0.0255905507
  0
CIRCLE
  5
D39
  8
0
  6
CONTINUOUS
 62
     7
 10
3.7016636184910112
 20
4.483079039130871
 30
0.0
 40
0.0255905507
  0
CIRCLE
  5
D3A
  8
0
  6
CONTINUOUS
 62
     7
 10
3.7016636184910112
 20
4.5830790372508536
 30
0.0
 40
0.0255905507
  0
CIRCLE
  5
D3B
  8
0
  6
CONTINUOUS
 62
     7
 10
3.7016636184910112
 20
4.683079035370838
 30
0.0
 40
0.0255905507
  0
CIRCLE
  5
D3C
  8
0
  6
CONTINUOUS
 62
     7
 10
3.7016636184910112
 20
4.7830790334908206
 30
0.0
 40
0.0255905507
  0
CIRCLE
  5
D3D
  8
0
  6
CONTINUOUS
 62
     7
 10
3.7016636184910112
 20
4.8830790316109178
 30
0.0
 40
0.0255905507
  0
CIRCLE
  5
D3E
  8
0
  6
CONTINUOUS
 62
     7
 10
3.7016636184910112
 20
4.9830790297309022
 30
0.0
 40
0.0255905507
  0
CIRCLE
  5
D3F
  8
0
  6
CONTINUOUS
 62
     7
 10
3.7016636184910112
 20
5.0830790278508848
 30
0.0
 40
0.0255905507
  0
CIRCLE
  5
D40
  8
0
  6
CONTINUOUS
 62
     7
 10
3.7016636184910112
 20
5.1830790259708692
 30
0.0
 40
0.0255905507
  0
CIRCLE
  5
D41
  8
0
  6
CONTINUOUS
 62
     7
 10
3.7016636184910112
 20
5.2830790240908518
 30
0.0
 40
0.0255905507
  0
CIRCLE
  5
D42
  8
0
  6
CONTINUOUS
 62
     7
 10
3.7016636184910112
 20
5.3830790222108362
 30
0.0
 40
0.0255905507
  0
CIRCLE
  5
D43
  8
0
  6
CONTINUOUS
 62
     7
 10
3.7016636184910112
 20
5.4830790203308188
 30
0.0
 40
0.0255905507
  0
CIRCLE
  5
D44
  8
0
  6
CONTINUOUS
 62
     7
 10
3.7016636184910112
 20
5.583079018450916
 30
0.0
 40
0.0255905507
  0
CIRCLE
  5
D45
  8
0
  6
CONTINUOUS
 62
     7
 10
3.7016636184910112
 20
5.6830790165709004
 30
0.0
 40
0.0255905507
  0
CIRCLE
  5
D46
  8
0
  6
CONTINUOUS
 62
     7
 10
3.7016636184910112
 20
5.783079014690883
 30
0.0
 40
0.0255905507
  0
CIRCLE
  5
D47
  8
0
  6
CONTINUOUS
 62
     7
 10
3.7016636184910112
 20
5.8830790128108674
 30
0.0
 40
0.0255905507
  0
CIRCLE
  5
D48
  8
0
  6
CONTINUOUS
 62
     7
 10
3.7016636184910112
 20
5.98307901093085
 30
0.0
 40
0.0255905507
  0
CIRCLE
  5
D49
  8
0
  6
CONTINUOUS
 62
     7
 10
3.7016636184910112
 20
6.0830790090508344
 30
0.0
 40
0.0255905507
  0
CIRCLE
  5
D4A
  8
0
  6
CONTINUOUS
 62
     7
 10
3.7016636184910112
 20
6.183079007170817
 30
0.0
 40
0.0255905507
  0
CIRCLE
  5
D4B
  8
0
  6
CONTINUOUS
 62
     7
 10
3.7016636184910112
 20
6.2830790052908014
 30
0.0
 40
0.0255905507
  0
CIRCLE
  5
D4C
  8
0
  6
CONTINUOUS
 62
     7
 10
3.7016636184910112
 20
6.3830790034108977
 30
0.0
 40
0.0255905507
  0
CIRCLE
  5
D4D
  8
0
  6
CONTINUOUS
 62
     7
 10
3.7016636184910112
 20
6.4830790015308821
 30
0.0
 40
0.0255905507
  0
CIRCLE
  5
D4E
  8
0
  6
CONTINUOUS
 62
     7
 10
3.7016636184910112
 20
4.483079039130871
 30
0.0
 40
0.0255905507
  0
CIRCLE
  5
D4F
  8
0
  6
CONTINUOUS
 62
     7
 10
3.7016636184910112
 20
4.5830790372508536
 30
0.0
 40
0.0255905507
  0
CIRCLE
  5
D50
  8
0
  6
CONTINUOUS
 62
     7
 10
3.7016636184910112
 20
4.683079035370838
 30
0.0
 40
0.0255905507
  0
CIRCLE
  5
D51
  8
0
  6
CONTINUOUS
 62
     7
 10
3.7016636184910112
 20
4.7830790334908206
 30
0.0
 40
0.0255905507
  0
CIRCLE
  5
D52
  8
0
  6
CONTINUOUS
 62
     7
 10
3.7016636184910112
 20
4.8830790316109178
 30
0.0
 40
0.0255905507
  0
CIRCLE
  5
D53
  8
0
  6
CONTINUOUS
 62
     7
 10
3.7016636184910112
 20
4.9830790297309022
 30
0.0
 40
0.0255905507
  0
CIRCLE
  5
D54
  8
0
  6
CONTINUOUS
 62
     7
 10
3.7016636184910112
 20
5.0830790278508848
 30
0.0
 40
0.0255905507
  0
CIRCLE
  5
D55
  8
0
  6
CONTINUOUS
 62
     7
 10
3.7016636184910112
 20
5.1830790259708692
 30
0.0
 40
0.0255905507
  0
CIRCLE
  5
D56
  8
0
  6
CONTINUOUS
 62
     7
 10
3.7016636184910112
 20
5.2830790240908518
 30
0.0
 40
0.0255905507
  0
CIRCLE
  5
D57
  8
0
  6
CONTINUOUS
 62
     7
 10
3.7016636184910112
 20
5.3830790222108362
 30
0.0
 40
0.0255905507
  0
CIRCLE
  5
D58
  8
0
  6
CONTINUOUS
 62
     7
 10
3.7016636184910112
 20
5.4830790203308188
 30
0.0
 40
0.0255905507
  0
CIRCLE
  5
D59
  8
0
  6
CONTINUOUS
 62
     7
 10
3.7016636184910112
 20
5.583079018450916
 30
0.0
 40
0.0255905507
  0
CIRCLE
  5
D5A
  8
0
  6
CONTINUOUS
 62
     7
 10
3.7016636184910112
 20
5.6830790165709004
 30
0.0
 40
0.0255905507
  0
CIRCLE
  5
D5B
  8
0
  6
CONTINUOUS
 62
     7
 10
3.7016636184910112
 20
5.783079014690883
 30
0.0
 40
0.0255905507
  0
CIRCLE
  5
D5C
  8
0
  6
CONTINUOUS
 62
     7
 10
3.7016636184910112
 20
5.8830790128108674
 30
0.0
 40
0.0255905507
  0
CIRCLE
  5
D5D
  8
0
  6
CONTINUOUS
 62
     7
 10
3.7016636184910112
 20
5.98307901093085
 30
0.0
 40
0.0255905507
  0
CIRCLE
  5
D5E
  8
0
  6
CONTINUOUS
 62
     7
 10
3.7016636184910112
 20
6.0830790090508344
 30
0.0
 40
0.0255905507
  0
CIRCLE
  5
D5F
  8
0
  6
CONTINUOUS
 62
     7
 10
3.7016636184910112
 20
6.183079007170817
 30
0.0
 40
0.0255905507
  0
CIRCLE
  5
D60
  8
0
  6
CONTINUOUS
 62
     7
 10
3.7016636184910112
 20
6.2830790052908014
 30
0.0
 40
0.0255905507
  0
CIRCLE
  5
D61
  8
0
  6
CONTINUOUS
 62
     7
 10
3.7016636184910112
 20
6.3830790034108977
 30
0.0
 40
0.0255905507
  0
CIRCLE
  5
D62
  8
0
  6
CONTINUOUS
 62
     7
 10
3.6016636203710268
 20
4.483079039130871
 30
0.0
 40
0.0255905507
  0
CIRCLE
  5
D63
  8
0
  6
CONTINUOUS
 62
     7
 10
3.6016636203710268
 20
4.5830790372508536
 30
0.0
 40
0.0255905507
  0
CIRCLE
  5
D64
  8
0
  6
CONTINUOUS
 62
     7
 10
3.6016636203710268
 20
4.683079035370838
 30
0.0
 40
0.0255905507
  0
CIRCLE
  5
D65
  8
0
  6
CONTINUOUS
 62
     7
 10
3.6016636203710268
 20
4.7830790334908206
 30
0.0
 40
0.0255905507
  0
CIRCLE
  5
D66
  8
0
  6
CONTINUOUS
 62
     7
 10
3.6016636203710268
 20
4.8830790316109178
 30
0.0
 40
0.0255905507
  0
CIRCLE
  5
D67
  8
0
  6
CONTINUOUS
 62
     7
 10
3.6016636203710268
 20
4.9830790297309022
 30
0.0
 40
0.0255905507
  0
CIRCLE
  5
D68
  8
0
  6
CONTINUOUS
 62
     7
 10
3.6016636203710268
 20
5.0830790278508848
 30
0.0
 40
0.0255905507
  0
CIRCLE
  5
D69
  8
0
  6
CONTINUOUS
 62
     7
 10
3.6016636203710268
 20
5.1830790259708692
 30
0.0
 40
0.0255905507
  0
CIRCLE
  5
D6A
  8
0
  6
CONTINUOUS
 62
     7
 10
3.6016636203710268
 20
5.2830790240908518
 30
0.0
 40
0.0255905507
  0
CIRCLE
  5
D6B
  8
0
  6
CONTINUOUS
 62
     7
 10
3.6016636203710268
 20
5.3830790222108362
 30
0.0
 40
0.0255905507
  0
CIRCLE
  5
D6C
  8
0
  6
CONTINUOUS
 62
     7
 10
3.6016636203710268
 20
5.4830790203308188
 30
0.0
 40
0.0255905507
  0
CIRCLE
  5
D6D
  8
0
  6
CONTINUOUS
 62
     7
 10
3.6016636203710268
 20
5.583079018450916
 30
0.0
 40
0.0255905507
  0
CIRCLE
  5
D6E
  8
0
  6
CONTINUOUS
 62
     7
 10
3.6016636203710268
 20
5.6830790165709004
 30
0.0
 40
0.0255905507
  0
CIRCLE
  5
D6F
  8
0
  6
CONTINUOUS
 62
     7
 10
3.6016636203710268
 20
5.783079014690883
 30
0.0
 40
0.0255905507
  0
CIRCLE
  5
D70
  8
0
  6
CONTINUOUS
 62
     7
 10
3.6016636203710268
 20
5.8830790128108674
 30
0.0
 40
0.0255905507
  0
CIRCLE
  5
D71
  8
0
  6
CONTINUOUS
 62
     7
 10
3.6016636203710268
 20
5.98307901093085
 30
0.0
 40
0.0255905507
  0
CIRCLE
  5
D72
  8
0
  6
CONTINUOUS
 62
     7
 10
3.6016636203710268
 20
6.0830790090508344
 30
0.0
 40
0.0255905507
  0
CIRCLE
  5
D73
  8
0
  6
CONTINUOUS
 62
     7
 10
3.6016636203710268
 20
6.183079007170817
 30
0.0
 40
0.0255905507
  0
CIRCLE
  5
D74
  8
0
  6
CONTINUOUS
 62
     7
 10
3.6016636203710268
 20
6.2830790052908014
 30
0.0
 40
0.0255905507
  0
CIRCLE
  5
D75
  8
0
  6
CONTINUOUS
 62
     7
 10
3.6016636203710268
 20
6.3830790034108977
 30
0.0
 40
0.0255905507
  0
CIRCLE
  5
D76
  8
0
  6
CONTINUOUS
 62
     7
 10
3.6016636203710268
 20
6.4830790015308821
 30
0.0
 40
0.0255905507
  0
CIRCLE
  5
D77
  8
0
  6
CONTINUOUS
 62
     7
 10
3.6016636203710268
 20
4.483079039130871
 30
0.0
 40
0.0255905507
  0
CIRCLE
  5
D78
  8
0
  6
CONTINUOUS
 62
     7
 10
3.6016636203710268
 20
4.5830790372508536
 30
0.0
 40
0.0255905507
  0
CIRCLE
  5
D79
  8
0
  6
CONTINUOUS
 62
     7
 10
3.6016636203710268
 20
4.683079035370838
 30
0.0
 40
0.0255905507
  0
CIRCLE
  5
D7A
  8
0
  6
CONTINUOUS
 62
     7
 10
3.6016636203710268
 20
4.7830790334908206
 30
0.0
 40
0.0255905507
  0
CIRCLE
  5
D7B
  8
0
  6
CONTINUOUS
 62
     7
 10
3.6016636203710268
 20
4.8830790316109178
 30
0.0
 40
0.0255905507
  0
CIRCLE
  5
D7C
  8
0
  6
CONTINUOUS
 62
     7
 10
3.6016636203710268
 20
4.9830790297309022
 30
0.0
 40
0.0255905507
  0
CIRCLE
  5
D7D
  8
0
  6
CONTINUOUS
 62
     7
 10
3.6016636203710268
 20
5.0830790278508848
 30
0.0
 40
0.0255905507
  0
CIRCLE
  5
D7E
  8
0
  6
CONTINUOUS
 62
     7
 10
3.6016636203710268
 20
5.1830790259708692
 30
0.0
 40
0.0255905507
  0
CIRCLE
  5
D7F
  8
0
  6
CONTINUOUS
 62
     7
 10
3.6016636203710268
 20
5.2830790240908518
 30
0.0
 40
0.0255905507
  0
CIRCLE
  5
D80
  8
0
  6
CONTINUOUS
 62
     7
 10
3.6016636203710268
 20
5.3830790222108362
 30
0.0
 40
0.0255905507
  0
CIRCLE
  5
D81
  8
0
  6
CONTINUOUS
 62
     7
 10
3.6016636203710268
 20
5.4830790203308188
 30
0.0
 40
0.0255905507
  0
CIRCLE
  5
D82
  8
0
  6
CONTINUOUS
 62
     7
 10
3.6016636203710268
 20
5.583079018450916
 30
0.0
 40
0.0255905507
  0
CIRCLE
  5
D83
  8
0
  6
CONTINUOUS
 62
     7
 10
3.6016636203710268
 20
5.6830790165709004
 30
0.0
 40
0.0255905507
  0
CIRCLE
  5
D84
  8
0
  6
CONTINUOUS
 62
     7
 10
3.6016636203710268
 20
5.783079014690883
 30
0.0
 40
0.0255905507
  0
CIRCLE
  5
D85
  8
0
  6
CONTINUOUS
 62
     7
 10
3.6016636203710268
 20
5.8830790128108674
 30
0.0
 40
0.0255905507
  0
CIRCLE
  5
D86
  8
0
  6
CONTINUOUS
 62
     7
 10
3.6016636203710268
 20
5.98307901093085
 30
0.0
 40
0.0255905507
  0
CIRCLE
  5
D87
  8
0
  6
CONTINUOUS
 62
     7
 10
3.6016636203710268
 20
6.0830790090508344
 30
0.0
 40
0.0255905507
  0
CIRCLE
  5
D88
  8
0
  6
CONTINUOUS
 62
     7
 10
3.6016636203710268
 20
6.183079007170817
 30
0.0
 40
0.0255905507
  0
CIRCLE
  5
D89
  8
0
  6
CONTINUOUS
 62
     7
 10
3.6016636203710268
 20
6.2830790052908014
 30
0.0
 40
0.0255905507
  0
CIRCLE
  5
D8A
  8
0
  6
CONTINUOUS
 62
     7
 10
3.6016636203710268
 20
6.3830790034108977
 30
0.0
 40
0.0255905507
  0
CIRCLE
  5
D8B
  8
0
  6
CONTINUOUS
 62
     7
 10
3.5016636222510442
 20
4.483079039130871
 30
0.0
 40
0.0255905507
  0
CIRCLE
  5
D8C
  8
0
  6
CONTINUOUS
 62
     7
 10
3.5016636222510442
 20
4.5830790372508536
 30
0.0
 40
0.0255905507
  0
CIRCLE
  5
D8D
  8
0
  6
CONTINUOUS
 62
     7
 10
3.5016636222510442
 20
4.683079035370838
 30
0.0
 40
0.0255905507
  0
CIRCLE
  5
D8E
  8
0
  6
CONTINUOUS
 62
     7
 10
3.5016636222510442
 20
4.7830790334908206
 30
0.0
 40
0.0255905507
  0
CIRCLE
  5
D8F
  8
0
  6
CONTINUOUS
 62
     7
 10
3.5016636222510442
 20
4.8830790316109178
 30
0.0
 40
0.0255905507
  0
CIRCLE
  5
D90
  8
0
  6
CONTINUOUS
 62
     7
 10
3.5016636222510442
 20
4.9830790297309022
 30
0.0
 40
0.0255905507
  0
CIRCLE
  5
D91
  8
0
  6
CONTINUOUS
 62
     7
 10
3.5016636222510442
 20
5.0830790278508848
 30
0.0
 40
0.0255905507
  0
CIRCLE
  5
D92
  8
0
  6
CONTINUOUS
 62
     7
 10
3.5016636222510442
 20
5.1830790259708692
 30
0.0
 40
0.0255905507
  0
CIRCLE
  5
D93
  8
0
  6
CONTINUOUS
 62
     7
 10
3.5016636222510442
 20
5.2830790240908518
 30
0.0
 40
0.0255905507
  0
CIRCLE
  5
D94
  8
0
  6
CONTINUOUS
 62
     7
 10
3.5016636222510442
 20
5.3830790222108362
 30
0.0
 40
0.0255905507
  0
CIRCLE
  5
D95
  8
0
  6
CONTINUOUS
 62
     7
 10
3.5016636222510442
 20
5.4830790203308188
 30
0.0
 40
0.0255905507
  0
CIRCLE
  5
D96
  8
0
  6
CONTINUOUS
 62
     7
 10
3.5016636222510442
 20
5.583079018450916
 30
0.0
 40
0.0255905507
  0
CIRCLE
  5
D97
  8
0
  6
CONTINUOUS
 62
     7
 10
3.5016636222510442
 20
5.6830790165709004
 30
0.0
 40
0.0255905507
  0
CIRCLE
  5
D98
  8
0
  6
CONTINUOUS
 62
     7
 10
3.5016636222510442
 20
5.783079014690883
 30
0.0
 40
0.0255905507
  0
CIRCLE
  5
D99
  8
0
  6
CONTINUOUS
 62
     7
 10
3.5016636222510442
 20
5.8830790128108674
 30
0.0
 40
0.0255905507
  0
CIRCLE
  5
D9A
  8
0
  6
CONTINUOUS
 62
     7
 10
3.5016636222510442
 20
5.98307901093085
 30
0.0
 40
0.0255905507
  0
CIRCLE
  5
D9B
  8
0
  6
CONTINUOUS
 62
     7
 10
3.5016636222510442
 20
6.0830790090508344
 30
0.0
 40
0.0255905507
  0
CIRCLE
  5
D9C
  8
0
  6
CONTINUOUS
 62
     7
 10
3.5016636222510442
 20
6.183079007170817
 30
0.0
 40
0.0255905507
  0
CIRCLE
  5
D9D
  8
0
  6
CONTINUOUS
 62
     7
 10
3.5016636222510442
 20
6.2830790052908014
 30
0.0
 40
0.0255905507
  0
CIRCLE
  5
D9E
  8
0
  6
CONTINUOUS
 62
     7
 10
3.5016636222510442
 20
6.3830790034108977
 30
0.0
 40
0.0255905507
  0
CIRCLE
  5
D9F
  8
0
  6
CONTINUOUS
 62
     7
 10
3.5016636222510442
 20
6.4830790015308821
 30
0.0
 40
0.0255905507
  0
CIRCLE
  5
DA0
  8
0
  6
CONTINUOUS
 62
     7
 10
3.5016636222510442
 20
4.483079039130871
 30
0.0
 40
0.0255905507
  0
CIRCLE
  5
DA1
  8
0
  6
CONTINUOUS
 62
     7
 10
3.5016636222510442
 20
4.5830790372508536
 30
0.0
 40
0.0255905507
  0
CIRCLE
  5
DA2
  8
0
  6
CONTINUOUS
 62
     7
 10
3.5016636222510442
 20
4.683079035370838
 30
0.0
 40
0.0255905507
  0
CIRCLE
  5
DA3
  8
0
  6
CONTINUOUS
 62
     7
 10
3.5016636222510442
 20
4.7830790334908206
 30
0.0
 40
0.0255905507
  0
CIRCLE
  5
DA4
  8
0
  6
CONTINUOUS
 62
     7
 10
3.5016636222510442
 20
4.8830790316109178
 30
0.0
 40
0.0255905507
  0
CIRCLE
  5
DA5
  8
0
  6
CONTINUOUS
 62
     7
 10
3.5016636222510442
 20
4.9830790297309022
 30
0.0
 40
0.0255905507
  0
CIRCLE
  5
DA6
  8
0
  6
CONTINUOUS
 62
     7
 10
3.5016636222510442
 20
5.0830790278508848
 30
0.0
 40
0.0255905507
  0
CIRCLE
  5
DA7
  8
0
  6
CONTINUOUS
 62
     7
 10
3.5016636222510442
 20
5.1830790259708692
 30
0.0
 40
0.0255905507
  0
CIRCLE
  5
DA8
  8
0
  6
CONTINUOUS
 62
     7
 10
3.5016636222510442
 20
5.2830790240908518
 30
0.0
 40
0.0255905507
  0
CIRCLE
  5
DA9
  8
0
  6
CONTINUOUS
 62
     7
 10
3.5016636222510442
 20
5.3830790222108362
 30
0.0
 40
0.0255905507
  0
CIRCLE
  5
DAA
  8
0
  6
CONTINUOUS
 62
     7
 10
3.5016636222510442
 20
5.4830790203308188
 30
0.0
 40
0.0255905507
  0
CIRCLE
  5
DAB
  8
0
  6
CONTINUOUS
 62
     7
 10
3.5016636222510442
 20
5.583079018450916
 30
0.0
 40
0.0255905507
  0
CIRCLE
  5
DAC
  8
0
  6
CONTINUOUS
 62
     7
 10
3.5016636222510442
 20
5.6830790165709004
 30
0.0
 40
0.0255905507
  0
CIRCLE
  5
DAD
  8
0
  6
CONTINUOUS
 62
     7
 10
3.5016636222510442
 20
5.783079014690883
 30
0.0
 40
0.0255905507
  0
CIRCLE
  5
DAE
  8
0
  6
CONTINUOUS
 62
     7
 10
3.5016636222510442
 20
5.8830790128108674
 30
0.0
 40
0.0255905507
  0
CIRCLE
  5
DAF
  8
0
  6
CONTINUOUS
 62
     7
 10
3.5016636222510442
 20
5.98307901093085
 30
0.0
 40
0.0255905507
  0
CIRCLE
  5
DB0
  8
0
  6
CONTINUOUS
 62
     7
 10
3.5016636222510442
 20
6.0830790090508344
 30
0.0
 40
0.0255905507
  0
CIRCLE
  5
DB1
  8
0
  6
CONTINUOUS
 62
     7
 10
3.5016636222510442
 20
6.183079007170817
 30
0.0
 40
0.0255905507
  0
CIRCLE
  5
DB2
  8
0
  6
CONTINUOUS
 62
     7
 10
3.5016636222510442
 20
6.2830790052908014
 30
0.0
 40
0.0255905507
  0
CIRCLE
  5
DB3
  8
0
  6
CONTINUOUS
 62
     7
 10
3.5016636222510442
 20
6.3830790034108977
 30
0.0
 40
0.0255905507
  0
CIRCLE
  5
DB4
  8
0
  6
CONTINUOUS
 62
     7
 10
3.4016636241310598
 20
4.483079039130871
 30
0.0
 40
0.0255905507
  0
CIRCLE
  5
DB5
  8
0
  6
CONTINUOUS
 62
     7
 10
3.4016636241310598
 20
4.5830790372508536
 30
0.0
 40
0.0255905507
  0
CIRCLE
  5
DB6
  8
0
  6
CONTINUOUS
 62
     7
 10
3.4016636241310598
 20
4.683079035370838
 30
0.0
 40
0.0255905507
  0
CIRCLE
  5
DB7
  8
0
  6
CONTINUOUS
 62
     7
 10
3.4016636241310598
 20
4.7830790334908206
 30
0.0
 40
0.0255905507
  0
CIRCLE
  5
DB8
  8
0
  6
CONTINUOUS
 62
     7
 10
3.4016636241310598
 20
4.8830790316109178
 30
0.0
 40
0.0255905507
  0
CIRCLE
  5
DB9
  8
0
  6
CONTINUOUS
 62
     7
 10
3.4016636241310598
 20
4.9830790297309022
 30
0.0
 40
0.0255905507
  0
CIRCLE
  5
DBA
  8
0
  6
CONTINUOUS
 62
     7
 10
3.4016636241310598
 20
5.0830790278508848
 30
0.0
 40
0.0255905507
  0
CIRCLE
  5
DBB
  8
0
  6
CONTINUOUS
 62
     7
 10
3.4016636241310598
 20
5.1830790259708692
 30
0.0
 40
0.0255905507
  0
CIRCLE
  5
DBC
  8
0
  6
CONTINUOUS
 62
     7
 10
3.4016636241310598
 20
5.2830790240908518
 30
0.0
 40
0.0255905507
  0
CIRCLE
  5
DBD
  8
0
  6
CONTINUOUS
 62
     7
 10
3.4016636241310598
 20
5.3830790222108362
 30
0.0
 40
0.0255905507
  0
CIRCLE
  5
DBE
  8
0
  6
CONTINUOUS
 62
     7
 10
3.4016636241310598
 20
5.4830790203308188
 30
0.0
 40
0.0255905507
  0
CIRCLE
  5
DBF
  8
0
  6
CONTINUOUS
 62
     7
 10
3.4016636241310598
 20
5.583079018450916
 30
0.0
 40
0.0255905507
  0
CIRCLE
  5
DC0
  8
0
  6
CONTINUOUS
 62
     7
 10
3.4016636241310598
 20
5.6830790165709004
 30
0.0
 40
0.0255905507
  0
CIRCLE
  5
DC1
  8
0
  6
CONTINUOUS
 62
     7
 10
3.4016636241310598
 20
5.783079014690883
 30
0.0
 40
0.0255905507
  0
CIRCLE
  5
DC2
  8
0
  6
CONTINUOUS
 62
     7
 10
3.4016636241310598
 20
5.8830790128108674
 30
0.0
 40
0.0255905507
  0
CIRCLE
  5
DC3
  8
0
  6
CONTINUOUS
 62
     7
 10
3.4016636241310598
 20
5.98307901093085
 30
0.0
 40
0.0255905507
  0
CIRCLE
  5
DC4
  8
0
  6
CONTINUOUS
 62
     7
 10
3.4016636241310598
 20
6.0830790090508344
 30
0.0
 40
0.0255905507
  0
CIRCLE
  5
DC5
  8
0
  6
CONTINUOUS
 62
     7
 10
3.4016636241310598
 20
6.183079007170817
 30
0.0
 40
0.0255905507
  0
CIRCLE
  5
DC6
  8
0
  6
CONTINUOUS
 62
     7
 10
3.4016636241310598
 20
6.2830790052908014
 30
0.0
 40
0.0255905507
  0
CIRCLE
  5
DC7
  8
0
  6
CONTINUOUS
 62
     7
 10
3.4016636241310598
 20
6.3830790034108977
 30
0.0
 40
0.0255905507
  0
CIRCLE
  5
DC8
  8
0
  6
CONTINUOUS
 62
     7
 10
3.4016636241310598
 20
6.4830790015308821
 30
0.0
 40
0.0255905507
  0
CIRCLE
  5
DC9
  8
0
  6
CONTINUOUS
 62
     7
 10
3.4016636241310598
 20
4.483079039130871
 30
0.0
 40
0.0255905507
  0
CIRCLE
  5
DCA
  8
0
  6
CONTINUOUS
 62
     7
 10
3.4016636241310598
 20
4.5830790372508536
 30
0.0
 40
0.0255905507
  0
CIRCLE
  5
DCB
  8
0
  6
CONTINUOUS
 62
     7
 10
3.4016636241310598
 20
4.683079035370838
 30
0.0
 40
0.0255905507
  0
CIRCLE
  5
DCC
  8
0
  6
CONTINUOUS
 62
     7
 10
3.4016636241310598
 20
4.7830790334908206
 30
0.0
 40
0.0255905507
  0
CIRCLE
  5
DCD
  8
0
  6
CONTINUOUS
 62
     7
 10
3.4016636241310598
 20
4.8830790316109178
 30
0.0
 40
0.0255905507
  0
CIRCLE
  5
DCE
  8
0
  6
CONTINUOUS
 62
     7
 10
3.4016636241310598
 20
4.9830790297309022
 30
0.0
 40
0.0255905507
  0
CIRCLE
  5
DCF
  8
0
  6
CONTINUOUS
 62
     7
 10
3.4016636241310598
 20
5.0830790278508848
 30
0.0
 40
0.0255905507
  0
CIRCLE
  5
DD0
  8
0
  6
CONTINUOUS
 62
     7
 10
3.4016636241310598
 20
5.1830790259708692
 30
0.0
 40
0.0255905507
  0
CIRCLE
  5
DD1
  8
0
  6
CONTINUOUS
 62
     7
 10
3.4016636241310598
 20
5.2830790240908518
 30
0.0
 40
0.0255905507
  0
CIRCLE
  5
DD2
  8
0
  6
CONTINUOUS
 62
     7
 10
3.4016636241310598
 20
5.3830790222108362
 30
0.0
 40
0.0255905507
  0
CIRCLE
  5
DD3
  8
0
  6
CONTINUOUS
 62
     7
 10
3.4016636241310598
 20
5.4830790203308188
 30
0.0
 40
0.0255905507
  0
CIRCLE
  5
DD4
  8
0
  6
CONTINUOUS
 62
     7
 10
3.4016636241310598
 20
5.583079018450916
 30
0.0
 40
0.0255905507
  0
CIRCLE
  5
DD5
  8
0
  6
CONTINUOUS
 62
     7
 10
3.4016636241310598
 20
5.6830790165709004
 30
0.0
 40
0.0255905507
  0
CIRCLE
  5
DD6
  8
0
  6
CONTINUOUS
 62
     7
 10
3.4016636241310598
 20
5.783079014690883
 30
0.0
 40
0.0255905507
  0
CIRCLE
  5
DD7
  8
0
  6
CONTINUOUS
 62
     7
 10
3.4016636241310598
 20
5.8830790128108674
 30
0.0
 40
0.0255905507
  0
CIRCLE
  5
DD8
  8
0
  6
CONTINUOUS
 62
     7
 10
3.4016636241310598
 20
5.98307901093085
 30
0.0
 40
0.0255905507
  0
CIRCLE
  5
DD9
  8
0
  6
CONTINUOUS
 62
     7
 10
3.4016636241310598
 20
6.0830790090508344
 30
0.0
 40
0.0255905507
  0
CIRCLE
  5
DDA
  8
0
  6
CONTINUOUS
 62
     7
 10
3.4016636241310598
 20
6.183079007170817
 30
0.0
 40
0.0255905507
  0
CIRCLE
  5
DDB
  8
0
  6
CONTINUOUS
 62
     7
 10
3.4016636241310598
 20
6.2830790052908014
 30
0.0
 40
0.0255905507
  0
CIRCLE
  5
DDC
  8
0
  6
CONTINUOUS
 62
     7
 10
3.4016636241310598
 20
6.3830790034108977
 30
0.0
 40
0.0255905507
  0
CIRCLE
  5
DDD
  8
0
  6
CONTINUOUS
 62
     7
 10
3.3016636260109631
 20
4.483079039130871
 30
0.0
 40
0.0255905507
  0
CIRCLE
  5
DDE
  8
0
  6
CONTINUOUS
 62
     7
 10
3.3016636260109631
 20
4.5830790372508536
 30
0.0
 40
0.0255905507
  0
CIRCLE
  5
DDF
  8
0
  6
CONTINUOUS
 62
     7
 10
3.3016636260109631
 20
4.683079035370838
 30
0.0
 40
0.0255905507
  0
CIRCLE
  5
DE0
  8
0
  6
CONTINUOUS
 62
     7
 10
3.3016636260109631
 20
4.7830790334908206
 30
0.0
 40
0.0255905507
  0
CIRCLE
  5
DE1
  8
0
  6
CONTINUOUS
 62
     7
 10
3.3016636260109631
 20
4.8830790316109178
 30
0.0
 40
0.0255905507
  0
CIRCLE
  5
DE2
  8
0
  6
CONTINUOUS
 62
     7
 10
3.3016636260109631
 20
4.9830790297309022
 30
0.0
 40
0.0255905507
  0
CIRCLE
  5
DE3
  8
0
  6
CONTINUOUS
 62
     7
 10
3.3016636260109631
 20
5.0830790278508848
 30
0.0
 40
0.0255905507
  0
CIRCLE
  5
DE4
  8
0
  6
CONTINUOUS
 62
     7
 10
3.3016636260109631
 20
5.1830790259708692
 30
0.0
 40
0.0255905507
  0
CIRCLE
  5
DE5
  8
0
  6
CONTINUOUS
 62
     7
 10
3.3016636260109631
 20
5.2830790240908518
 30
0.0
 40
0.0255905507
  0
CIRCLE
  5
DE6
  8
0
  6
CONTINUOUS
 62
     7
 10
3.3016636260109631
 20
5.3830790222108362
 30
0.0
 40
0.0255905507
  0
CIRCLE
  5
DE7
  8
0
  6
CONTINUOUS
 62
     7
 10
3.3016636260109631
 20
5.4830790203308188
 30
0.0
 40
0.0255905507
  0
CIRCLE
  5
DE8
  8
0
  6
CONTINUOUS
 62
     7
 10
3.3016636260109631
 20
5.583079018450916
 30
0.0
 40
0.0255905507
  0
CIRCLE
  5
DE9
  8
0
  6
CONTINUOUS
 62
     7
 10
3.3016636260109631
 20
5.6830790165709004
 30
0.0
 40
0.0255905507
  0
CIRCLE
  5
DEA
  8
0
  6
CONTINUOUS
 62
     7
 10
3.3016636260109631
 20
5.783079014690883
 30
0.0
 40
0.0255905507
  0
CIRCLE
  5
DEB
  8
0
  6
CONTINUOUS
 62
     7
 10
3.3016636260109631
 20
5.8830790128108674
 30
0.0
 40
0.0255905507
  0
CIRCLE
  5
DEC
  8
0
  6
CONTINUOUS
 62
     7
 10
3.3016636260109631
 20
5.98307901093085
 30
0.0
 40
0.0255905507
  0
CIRCLE
  5
DED
  8
0
  6
CONTINUOUS
 62
     7
 10
3.3016636260109631
 20
6.0830790090508344
 30
0.0
 40
0.0255905507
  0
CIRCLE
  5
DEE
  8
0
  6
CONTINUOUS
 62
     7
 10
3.3016636260109631
 20
6.183079007170817
 30
0.0
 40
0.0255905507
  0
CIRCLE
  5
DEF
  8
0
  6
CONTINUOUS
 62
     7
 10
3.3016636260109631
 20
6.2830790052908014
 30
0.0
 40
0.0255905507
  0
CIRCLE
  5
DF0
  8
0
  6
CONTINUOUS
 62
     7
 10
3.3016636260109631
 20
6.3830790034108977
 30
0.0
 40
0.0255905507
  0
CIRCLE
  5
DF1
  8
0
  6
CONTINUOUS
 62
     7
 10
3.3016636260109631
 20
6.4830790015308821
 30
0.0
 40
0.0255905507
  0
CIRCLE
  5
DF2
  8
0
  6
CONTINUOUS
 62
     7
 10
3.3016636260109631
 20
4.483079039130871
 30
0.0
 40
0.0255905507
  0
CIRCLE
  5
DF3
  8
0
  6
CONTINUOUS
 62
     7
 10
3.3016636260109631
 20
4.5830790372508536
 30
0.0
 40
0.0255905507
  0
CIRCLE
  5
DF4
  8
0
  6
CONTINUOUS
 62
     7
 10
3.3016636260109631
 20
4.683079035370838
 30
0.0
 40
0.0255905507
  0
CIRCLE
  5
DF5
  8
0
  6
CONTINUOUS
 62
     7
 10
3.3016636260109631
 20
4.7830790334908206
 30
0.0
 40
0.0255905507
  0
CIRCLE
  5
DF6
  8
0
  6
CONTINUOUS
 62
     7
 10
3.3016636260109631
 20
4.8830790316109178
 30
0.0
 40
0.0255905507
  0
CIRCLE
  5
DF7
  8
0
  6
CONTINUOUS
 62
     7
 10
3.3016636260109631
 20
4.9830790297309022
 30
0.0
 40
0.0255905507
  0
CIRCLE
  5
DF8
  8
0
  6
CONTINUOUS
 62
     7
 10
3.3016636260109631
 20
5.0830790278508848
 30
0.0
 40
0.0255905507
  0
CIRCLE
  5
DF9
  8
0
  6
CONTINUOUS
 62
     7
 10
3.3016636260109631
 20
5.1830790259708692
 30
0.0
 40
0.0255905507
  0
CIRCLE
  5
DFA
  8
0
  6
CONTINUOUS
 62
     7
 10
3.3016636260109631
 20
5.2830790240908518
 30
0.0
 40
0.0255905507
  0
CIRCLE
  5
DFB
  8
0
  6
CONTINUOUS
 62
     7
 10
3.3016636260109631
 20
5.3830790222108362
 30
0.0
 40
0.0255905507
  0
CIRCLE
  5
DFC
  8
0
  6
CONTINUOUS
 62
     7
 10
3.3016636260109631
 20
5.4830790203308188
 30
0.0
 40
0.0255905507
  0
CIRCLE
  5
DFD
  8
0
  6
CONTINUOUS
 62
     7
 10
3.3016636260109631
 20
5.583079018450916
 30
0.0
 40
0.0255905507
  0
CIRCLE
  5
DFE
  8
0
  6
CONTINUOUS
 62
     7
 10
3.3016636260109631
 20
5.6830790165709004
 30
0.0
 40
0.0255905507
  0
CIRCLE
  5
DFF
  8
0
  6
CONTINUOUS
 62
     7
 10
3.3016636260109631
 20
5.783079014690883
 30
0.0
 40
0.0255905507
  0
CIRCLE
  5
E00
  8
0
  6
CONTINUOUS
 62
     7
 10
3.3016636260109631
 20
5.8830790128108674
 30
0.0
 40
0.0255905507
  0
CIRCLE
  5
E01
  8
0
  6
CONTINUOUS
 62
     7
 10
3.3016636260109631
 20
5.98307901093085
 30
0.0
 40
0.0255905507
  0
CIRCLE
  5
E02
  8
0
  6
CONTINUOUS
 62
     7
 10
3.3016636260109631
 20
6.0830790090508344
 30
0.0
 40
0.0255905507
  0
CIRCLE
  5
E03
  8
0
  6
CONTINUOUS
 62
     7
 10
3.3016636260109631
 20
6.183079007170817
 30
0.0
 40
0.0255905507
  0
CIRCLE
  5
E04
  8
0
  6
CONTINUOUS
 62
     7
 10
3.3016636260109631
 20
6.2830790052908014
 30
0.0
 40
0.0255905507
  0
CIRCLE
  5
E05
  8
0
  6
CONTINUOUS
 62
     7
 10
3.3016636260109631
 20
6.3830790034108977
 30
0.0
 40
0.0255905507
  0
CIRCLE
  5
E06
  8
0
  6
CONTINUOUS
 62
     7
 10
3.20166362789098
 20
4.483079039130871
 30
0.0
 40
0.0255905507
  0
CIRCLE
  5
E07
  8
0
  6
CONTINUOUS
 62
     7
 10
3.20166362789098
 20
4.5830790372508536
 30
0.0
 40
0.0255905507
  0
CIRCLE
  5
E08
  8
0
  6
CONTINUOUS
 62
     7
 10
3.20166362789098
 20
4.683079035370838
 30
0.0
 40
0.0255905507
  0
CIRCLE
  5
E09
  8
0
  6
CONTINUOUS
 62
     7
 10
3.20166362789098
 20
4.7830790334908206
 30
0.0
 40
0.0255905507
  0
CIRCLE
  5
E0A
  8
0
  6
CONTINUOUS
 62
     7
 10
3.20166362789098
 20
4.8830790316109178
 30
0.0
 40
0.0255905507
  0
CIRCLE
  5
E0B
  8
0
  6
CONTINUOUS
 62
     7
 10
3.20166362789098
 20
4.9830790297309022
 30
0.0
 40
0.0255905507
  0
CIRCLE
  5
E0C
  8
0
  6
CONTINUOUS
 62
     7
 10
3.20166362789098
 20
5.0830790278508848
 30
0.0
 40
0.0255905507
  0
CIRCLE
  5
E0D
  8
0
  6
CONTINUOUS
 62
     7
 10
3.20166362789098
 20
5.1830790259708692
 30
0.0
 40
0.0255905507
  0
CIRCLE
  5
E0E
  8
0
  6
CONTINUOUS
 62
     7
 10
3.20166362789098
 20
5.2830790240908518
 30
0.0
 40
0.0255905507
  0
CIRCLE
  5
E0F
  8
0
  6
CONTINUOUS
 62
     7
 10
3.20166362789098
 20
5.3830790222108362
 30
0.0
 40
0.0255905507
  0
CIRCLE
  5
E10
  8
0
  6
CONTINUOUS
 62
     7
 10
3.20166362789098
 20
5.4830790203308188
 30
0.0
 40
0.0255905507
  0
CIRCLE
  5
E11
  8
0
  6
CONTINUOUS
 62
     7
 10
3.20166362789098
 20
5.583079018450916
 30
0.0
 40
0.0255905507
  0
CIRCLE
  5
E12
  8
0
  6
CONTINUOUS
 62
     7
 10
3.20166362789098
 20
5.6830790165709004
 30
0.0
 40
0.0255905507
  0
CIRCLE
  5
E13
  8
0
  6
CONTINUOUS
 62
     7
 10
3.20166362789098
 20
5.783079014690883
 30
0.0
 40
0.0255905507
  0
CIRCLE
  5
E14
  8
0
  6
CONTINUOUS
 62
     7
 10
3.20166362789098
 20
5.8830790128108674
 30
0.0
 40
0.0255905507
  0
CIRCLE
  5
E15
  8
0
  6
CONTINUOUS
 62
     7
 10
3.20166362789098
 20
5.98307901093085
 30
0.0
 40
0.0255905507
  0
CIRCLE
  5
E16
  8
0
  6
CONTINUOUS
 62
     7
 10
3.20166362789098
 20
6.0830790090508344
 30
0.0
 40
0.0255905507
  0
CIRCLE
  5
E17
  8
0
  6
CONTINUOUS
 62
     7
 10
3.20166362789098
 20
6.183079007170817
 30
0.0
 40
0.0255905507
  0
CIRCLE
  5
E18
  8
0
  6
CONTINUOUS
 62
     7
 10
3.20166362789098
 20
6.2830790052908014
 30
0.0
 40
0.0255905507
  0
CIRCLE
  5
E19
  8
0
  6
CONTINUOUS
 62
     7
 10
3.20166362789098
 20
6.3830790034108977
 30
0.0
 40
0.0255905507
  0
CIRCLE
  5
E1A
  8
0
  6
CONTINUOUS
 62
     7
 10
3.20166362789098
 20
6.4830790015308821
 30
0.0
 40
0.0255905507
  0
CIRCLE
  5
E1B
  8
0
  6
CONTINUOUS
 62
     7
 10
3.20166362789098
 20
4.483079039130871
 30
0.0
 40
0.0255905507
  0
CIRCLE
  5
E1C
  8
0
  6
CONTINUOUS
 62
     7
 10
3.20166362789098
 20
4.5830790372508536
 30
0.0
 40
0.0255905507
  0
CIRCLE
  5
E1D
  8
0
  6
CONTINUOUS
 62
     7
 10
3.20166362789098
 20
4.683079035370838
 30
0.0
 40
0.0255905507
  0
CIRCLE
  5
E1E
  8
0
  6
CONTINUOUS
 62
     7
 10
3.20166362789098
 20
4.7830790334908206
 30
0.0
 40
0.0255905507
  0
CIRCLE
  5
E1F
  8
0
  6
CONTINUOUS
 62
     7
 10
3.20166362789098
 20
4.8830790316109178
 30
0.0
 40
0.0255905507
  0
CIRCLE
  5
E20
  8
0
  6
CONTINUOUS
 62
     7
 10
3.20166362789098
 20
4.9830790297309022
 30
0.0
 40
0.0255905507
  0
CIRCLE
  5
E21
  8
0
  6
CONTINUOUS
 62
     7
 10
3.20166362789098
 20
5.0830790278508848
 30
0.0
 40
0.0255905507
  0
CIRCLE
  5
E22
  8
0
  6
CONTINUOUS
 62
     7
 10
3.20166362789098
 20
5.1830790259708692
 30
0.0
 40
0.0255905507
  0
CIRCLE
  5
E23
  8
0
  6
CONTINUOUS
 62
     7
 10
3.20166362789098
 20
5.2830790240908518
 30
0.0
 40
0.0255905507
  0
CIRCLE
  5
E24
  8
0
  6
CONTINUOUS
 62
     7
 10
3.20166362789098
 20
5.3830790222108362
 30
0.0
 40
0.0255905507
  0
CIRCLE
  5
E25
  8
0
  6
CONTINUOUS
 62
     7
 10
3.20166362789098
 20
5.4830790203308188
 30
0.0
 40
0.0255905507
  0
CIRCLE
  5
E26
  8
0
  6
CONTINUOUS
 62
     7
 10
3.20166362789098
 20
5.583079018450916
 30
0.0
 40
0.0255905507
  0
CIRCLE
  5
E27
  8
0
  6
CONTINUOUS
 62
     7
 10
3.20166362789098
 20
5.6830790165709004
 30
0.0
 40
0.0255905507
  0
CIRCLE
  5
E28
  8
0
  6
CONTINUOUS
 62
     7
 10
3.20166362789098
 20
5.783079014690883
 30
0.0
 40
0.0255905507
  0
CIRCLE
  5
E29
  8
0
  6
CONTINUOUS
 62
     7
 10
3.20166362789098
 20
5.8830790128108674
 30
0.0
 40
0.0255905507
  0
CIRCLE
  5
E2A
  8
0
  6
CONTINUOUS
 62
     7
 10
3.20166362789098
 20
5.98307901093085
 30
0.0
 40
0.0255905507
  0
CIRCLE
  5
E2B
  8
0
  6
CONTINUOUS
 62
     7
 10
3.20166362789098
 20
6.0830790090508344
 30
0.0
 40
0.0255905507
  0
CIRCLE
  5
E2C
  8
0
  6
CONTINUOUS
 62
     7
 10
3.20166362789098
 20
6.183079007170817
 30
0.0
 40
0.0255905507
  0
CIRCLE
  5
E2D
  8
0
  6
CONTINUOUS
 62
     7
 10
3.20166362789098
 20
6.2830790052908014
 30
0.0
 40
0.0255905507
  0
CIRCLE
  5
E2E
  8
0
  6
CONTINUOUS
 62
     7
 10
3.20166362789098
 20
6.3830790034108977
 30
0.0
 40
0.0255905507
  0
CIRCLE
  5
E2F
  8
0
  6
CONTINUOUS
 62
     7
 10
3.1016636297709961
 20
4.483079039130871
 30
0.0
 40
0.0255905507
  0
CIRCLE
  5
E30
  8
0
  6
CONTINUOUS
 62
     7
 10
3.1016636297709961
 20
4.5830790372508536
 30
0.0
 40
0.0255905507
  0
CIRCLE
  5
E31
  8
0
  6
CONTINUOUS
 62
     7
 10
3.1016636297709961
 20
4.683079035370838
 30
0.0
 40
0.0255905507
  0
CIRCLE
  5
E32
  8
0
  6
CONTINUOUS
 62
     7
 10
3.1016636297709961
 20
4.7830790334908206
 30
0.0
 40
0.0255905507
  0
CIRCLE
  5
E33
  8
0
  6
CONTINUOUS
 62
     7
 10
3.1016636297709961
 20
4.8830790316109178
 30
0.0
 40
0.0255905507
  0
CIRCLE
  5
E34
  8
0
  6
CONTINUOUS
 62
     7
 10
3.1016636297709961
 20
4.9830790297309022
 30
0.0
 40
0.0255905507
  0
CIRCLE
  5
E35
  8
0
  6
CONTINUOUS
 62
     7
 10
3.1016636297709961
 20
5.0830790278508848
 30
0.0
 40
0.0255905507
  0
CIRCLE
  5
E36
  8
0
  6
CONTINUOUS
 62
     7
 10
3.1016636297709961
 20
5.1830790259708692
 30
0.0
 40
0.0255905507
  0
CIRCLE
  5
E37
  8
0
  6
CONTINUOUS
 62
     7
 10
3.1016636297709961
 20
5.2830790240908518
 30
0.0
 40
0.0255905507
  0
CIRCLE
  5
E38
  8
0
  6
CONTINUOUS
 62
     7
 10
3.1016636297709961
 20
5.3830790222108362
 30
0.0
 40
0.0255905507
  0
CIRCLE
  5
E39
  8
0
  6
CONTINUOUS
 62
     7
 10
3.1016636297709961
 20
5.4830790203308188
 30
0.0
 40
0.0255905507
  0
CIRCLE
  5
E3A
  8
0
  6
CONTINUOUS
 62
     7
 10
3.1016636297709961
 20
5.583079018450916
 30
0.0
 40
0.0255905507
  0
CIRCLE
  5
E3B
  8
0
  6
CONTINUOUS
 62
     7
 10
3.1016636297709961
 20
5.6830790165709004
 30
0.0
 40
0.0255905507
  0
CIRCLE
  5
E3C
  8
0
  6
CONTINUOUS
 62
     7
 10
3.1016636297709961
 20
5.783079014690883
 30
0.0
 40
0.0255905507
  0
CIRCLE
  5
E3D
  8
0
  6
CONTINUOUS
 62
     7
 10
3.1016636297709961
 20
5.8830790128108674
 30
0.0
 40
0.0255905507
  0
CIRCLE
  5
E3E
  8
0
  6
CONTINUOUS
 62
     7
 10
3.1016636297709961
 20
5.98307901093085
 30
0.0
 40
0.0255905507
  0
CIRCLE
  5
E3F
  8
0
  6
CONTINUOUS
 62
     7
 10
3.1016636297709961
 20
6.0830790090508344
 30
0.0
 40
0.0255905507
  0
CIRCLE
  5
E40
  8
0
  6
CONTINUOUS
 62
     7
 10
3.1016636297709961
 20
6.183079007170817
 30
0.0
 40
0.0255905507
  0
CIRCLE
  5
E41
  8
0
  6
CONTINUOUS
 62
     7
 10
3.1016636297709961
 20
6.2830790052908014
 30
0.0
 40
0.0255905507
  0
CIRCLE
  5
E42
  8
0
  6
CONTINUOUS
 62
     7
 10
3.1016636297709961
 20
6.3830790034108977
 30
0.0
 40
0.0255905507
  0
CIRCLE
  5
E43
  8
0
  6
CONTINUOUS
 62
     7
 10
3.1016636297709961
 20
6.4830790015308821
 30
0.0
 40
0.0255905507
  0
CIRCLE
  5
E44
  8
0
  6
CONTINUOUS
 62
     7
 10
3.1016636297709961
 20
4.483079039130871
 30
0.0
 40
0.0255905507
  0
CIRCLE
  5
E45
  8
0
  6
CONTINUOUS
 62
     7
 10
3.1016636297709961
 20
4.5830790372508536
 30
0.0
 40
0.0255905507
  0
CIRCLE
  5
E46
  8
0
  6
CONTINUOUS
 62
     7
 10
3.1016636297709961
 20
4.683079035370838
 30
0.0
 40
0.0255905507
  0
CIRCLE
  5
E47
  8
0
  6
CONTINUOUS
 62
     7
 10
3.1016636297709961
 20
4.7830790334908206
 30
0.0
 40
0.0255905507
  0
CIRCLE
  5
E48
  8
0
  6
CONTINUOUS
 62
     7
 10
3.1016636297709961
 20
4.8830790316109178
 30
0.0
 40
0.0255905507
  0
CIRCLE
  5
E49
  8
0
  6
CONTINUOUS
 62
     7
 10
3.1016636297709961
 20
4.9830790297309022
 30
0.0
 40
0.0255905507
  0
CIRCLE
  5
E4A
  8
0
  6
CONTINUOUS
 62
     7
 10
3.1016636297709961
 20
5.0830790278508848
 30
0.0
 40
0.0255905507
  0
CIRCLE
  5
E4B
  8
0
  6
CONTINUOUS
 62
     7
 10
3.1016636297709961
 20
5.1830790259708692
 30
0.0
 40
0.0255905507
  0
CIRCLE
  5
E4C
  8
0
  6
CONTINUOUS
 62
     7
 10
3.1016636297709961
 20
5.2830790240908518
 30
0.0
 40
0.0255905507
  0
CIRCLE
  5
E4D
  8
0
  6
CONTINUOUS
 62
     7
 10
3.1016636297709961
 20
5.3830790222108362
 30
0.0
 40
0.0255905507
  0
CIRCLE
  5
E4E
  8
0
  6
CONTINUOUS
 62
     7
 10
3.1016636297709961
 20
5.4830790203308188
 30
0.0
 40
0.0255905507
  0
CIRCLE
  5
E4F
  8
0
  6
CONTINUOUS
 62
     7
 10
3.1016636297709961
 20
5.583079018450916
 30
0.0
 40
0.0255905507
  0
CIRCLE
  5
E50
  8
0
  6
CONTINUOUS
 62
     7
 10
3.1016636297709961
 20
5.6830790165709004
 30
0.0
 40
0.0255905507
  0
CIRCLE
  5
E51
  8
0
  6
CONTINUOUS
 62
     7
 10
3.1016636297709961
 20
5.783079014690883
 30
0.0
 40
0.0255905507
  0
CIRCLE
  5
E52
  8
0
  6
CONTINUOUS
 62
     7
 10
3.1016636297709961
 20
5.8830790128108674
 30
0.0
 40
0.0255905507
  0
CIRCLE
  5
E53
  8
0
  6
CONTINUOUS
 62
     7
 10
3.1016636297709961
 20
5.98307901093085
 30
0.0
 40
0.0255905507
  0
CIRCLE
  5
E54
  8
0
  6
CONTINUOUS
 62
     7
 10
3.1016636297709961
 20
6.0830790090508344
 30
0.0
 40
0.0255905507
  0
CIRCLE
  5
E55
  8
0
  6
CONTINUOUS
 62
     7
 10
3.1016636297709961
 20
6.183079007170817
 30
0.0
 40
0.0255905507
  0
CIRCLE
  5
E56
  8
0
  6
CONTINUOUS
 62
     7
 10
3.1016636297709961
 20
6.2830790052908014
 30
0.0
 40
0.0255905507
  0
CIRCLE
  5
E57
  8
0
  6
CONTINUOUS
 62
     7
 10
3.1016636297709961
 20
6.3830790034108977
 30
0.0
 40
0.0255905507
  0
CIRCLE
  5
E58
  8
0
  6
CONTINUOUS
 62
     7
 10
3.001663631651013
 20
4.483079039130871
 30
0.0
 40
0.0255905507
  0
CIRCLE
  5
E59
  8
0
  6
CONTINUOUS
 62
     7
 10
3.001663631651013
 20
4.5830790372508536
 30
0.0
 40
0.0255905507
  0
CIRCLE
  5
E5A
  8
0
  6
CONTINUOUS
 62
     7
 10
3.001663631651013
 20
4.683079035370838
 30
0.0
 40
0.0255905507
  0
CIRCLE
  5
E5B
  8
0
  6
CONTINUOUS
 62
     7
 10
3.001663631651013
 20
4.7830790334908206
 30
0.0
 40
0.0255905507
  0
CIRCLE
  5
E5C
  8
0
  6
CONTINUOUS
 62
     7
 10
3.001663631651013
 20
4.8830790316109178
 30
0.0
 40
0.0255905507
  0
CIRCLE
  5
E5D
  8
0
  6
CONTINUOUS
 62
     7
 10
3.001663631651013
 20
4.9830790297309022
 30
0.0
 40
0.0255905507
  0
CIRCLE
  5
E5E
  8
0
  6
CONTINUOUS
 62
     7
 10
3.001663631651013
 20
5.0830790278508848
 30
0.0
 40
0.0255905507
  0
CIRCLE
  5
E5F
  8
0
  6
CONTINUOUS
 62
     7
 10
3.001663631651013
 20
5.1830790259708692
 30
0.0
 40
0.0255905507
  0
CIRCLE
  5
E60
  8
0
  6
CONTINUOUS
 62
     7
 10
3.001663631651013
 20
5.2830790240908518
 30
0.0
 40
0.0255905507
  0
CIRCLE
  5
E61
  8
0
  6
CONTINUOUS
 62
     7
 10
3.001663631651013
 20
5.3830790222108362
 30
0.0
 40
0.0255905507
  0
CIRCLE
  5
E62
  8
0
  6
CONTINUOUS
 62
     7
 10
3.001663631651013
 20
5.4830790203308188
 30
0.0
 40
0.0255905507
  0
CIRCLE
  5
E63
  8
0
  6
CONTINUOUS
 62
     7
 10
3.001663631651013
 20
5.583079018450916
 30
0.0
 40
0.0255905507
  0
CIRCLE
  5
E64
  8
0
  6
CONTINUOUS
 62
     7
 10
3.001663631651013
 20
5.6830790165709004
 30
0.0
 40
0.0255905507
  0
CIRCLE
  5
E65
  8
0
  6
CONTINUOUS
 62
     7
 10
3.001663631651013
 20
5.783079014690883
 30
0.0
 40
0.0255905507
  0
CIRCLE
  5
E66
  8
0
  6
CONTINUOUS
 62
     7
 10
3.001663631651013
 20
5.8830790128108674
 30
0.0
 40
0.0255905507
  0
CIRCLE
  5
E67
  8
0
  6
CONTINUOUS
 62
     7
 10
3.001663631651013
 20
5.98307901093085
 30
0.0
 40
0.0255905507
  0
CIRCLE
  5
E68
  8
0
  6
CONTINUOUS
 62
     7
 10
3.001663631651013
 20
6.0830790090508344
 30
0.0
 40
0.0255905507
  0
CIRCLE
  5
E69
  8
0
  6
CONTINUOUS
 62
     7
 10
3.001663631651013
 20
6.183079007170817
 30
0.0
 40
0.0255905507
  0
CIRCLE
  5
E6A
  8
0
  6
CONTINUOUS
 62
     7
 10
3.001663631651013
 20
6.2830790052908014
 30
0.0
 40
0.0255905507
  0
CIRCLE
  5
E6B
  8
0
  6
CONTINUOUS
 62
     7
 10
3.001663631651013
 20
6.3830790034108977
 30
0.0
 40
0.0255905507
  0
CIRCLE
  5
E6C
  8
0
  6
CONTINUOUS
 62
     7
 10
3.001663631651013
 20
6.4830790015308821
 30
0.0
 40
0.0255905507
  0
CIRCLE
  5
E6D
  8
0
  6
CONTINUOUS
 62
     7
 10
3.001663631651013
 20
4.483079039130871
 30
0.0
 40
0.0255905507
  0
CIRCLE
  5
E6E
  8
0
  6
CONTINUOUS
 62
     7
 10
3.001663631651013
 20
4.5830790372508536
 30
0.0
 40
0.0255905507
  0
CIRCLE
  5
E6F
  8
0
  6
CONTINUOUS
 62
     7
 10
3.001663631651013
 20
4.683079035370838
 30
0.0
 40
0.0255905507
  0
CIRCLE
  5
E70
  8
0
  6
CONTINUOUS
 62
     7
 10
3.001663631651013
 20
4.7830790334908206
 30
0.0
 40
0.0255905507
  0
CIRCLE
  5
E71
  8
0
  6
CONTINUOUS
 62
     7
 10
3.001663631651013
 20
4.8830790316109178
 30
0.0
 40
0.0255905507
  0
CIRCLE
  5
E72
  8
0
  6
CONTINUOUS
 62
     7
 10
3.001663631651013
 20
4.9830790297309022
 30
0.0
 40
0.0255905507
  0
CIRCLE
  5
E73
  8
0
  6
CONTINUOUS
 62
     7
 10
3.001663631651013
 20
5.0830790278508848
 30
0.0
 40
0.0255905507
  0
CIRCLE
  5
E74
  8
0
  6
CONTINUOUS
 62
     7
 10
3.001663631651013
 20
5.1830790259708692
 30
0.0
 40
0.0255905507
  0
CIRCLE
  5
E75
  8
0
  6
CONTINUOUS
 62
     7
 10
3.001663631651013
 20
5.2830790240908518
 30
0.0
 40
0.0255905507
  0
CIRCLE
  5
E76
  8
0
  6
CONTINUOUS
 62
     7
 10
3.001663631651013
 20
5.3830790222108362
 30
0.0
 40
0.0255905507
  0
CIRCLE
  5
E77
  8
0
  6
CONTINUOUS
 62
     7
 10
3.001663631651013
 20
5.4830790203308188
 30
0.0
 40
0.0255905507
  0
CIRCLE
  5
E78
  8
0
  6
CONTINUOUS
 62
     7
 10
3.001663631651013
 20
5.583079018450916
 30
0.0
 40
0.0255905507
  0
CIRCLE
  5
E79
  8
0
  6
CONTINUOUS
 62
     7
 10
3.001663631651013
 20
5.6830790165709004
 30
0.0
 40
0.0255905507
  0
CIRCLE
  5
E7A
  8
0
  6
CONTINUOUS
 62
     7
 10
3.001663631651013
 20
5.783079014690883
 30
0.0
 40
0.0255905507
  0
CIRCLE
  5
E7B
  8
0
  6
CONTINUOUS
 62
     7
 10
3.001663631651013
 20
5.8830790128108674
 30
0.0
 40
0.0255905507
  0
CIRCLE
  5
E7C
  8
0
  6
CONTINUOUS
 62
     7
 10
3.001663631651013
 20
5.98307901093085
 30
0.0
 40
0.0255905507
  0
CIRCLE
  5
E7D
  8
0
  6
CONTINUOUS
 62
     7
 10
3.001663631651013
 20
6.0830790090508344
 30
0.0
 40
0.0255905507
  0
CIRCLE
  5
E7E
  8
0
  6
CONTINUOUS
 62
     7
 10
3.001663631651013
 20
6.183079007170817
 30
0.0
 40
0.0255905507
  0
CIRCLE
  5
E7F
  8
0
  6
CONTINUOUS
 62
     7
 10
3.001663631651013
 20
6.2830790052908014
 30
0.0
 40
0.0255905507
  0
CIRCLE
  5
E80
  8
0
  6
CONTINUOUS
 62
     7
 10
3.001663631651013
 20
6.3830790034108977
 30
0.0
 40
0.0255905507
  0
CIRCLE
  5
E81
  8
0
  6
CONTINUOUS
 62
     7
 10
2.9016636335310291
 20
4.483079039130871
 30
0.0
 40
0.0255905507
  0
CIRCLE
  5
E82
  8
0
  6
CONTINUOUS
 62
     7
 10
2.9016636335310291
 20
4.5830790372508536
 30
0.0
 40
0.0255905507
  0
CIRCLE
  5
E83
  8
0
  6
CONTINUOUS
 62
     7
 10
2.9016636335310291
 20
4.683079035370838
 30
0.0
 40
0.0255905507
  0
CIRCLE
  5
E84
  8
0
  6
CONTINUOUS
 62
     7
 10
2.9016636335310291
 20
4.7830790334908206
 30
0.0
 40
0.0255905507
  0
CIRCLE
  5
E85
  8
0
  6
CONTINUOUS
 62
     7
 10
2.9016636335310291
 20
4.8830790316109178
 30
0.0
 40
0.0255905507
  0
CIRCLE
  5
E86
  8
0
  6
CONTINUOUS
 62
     7
 10
2.9016636335310291
 20
4.9830790297309022
 30
0.0
 40
0.0255905507
  0
CIRCLE
  5
E87
  8
0
  6
CONTINUOUS
 62
     7
 10
2.9016636335310291
 20
5.0830790278508848
 30
0.0
 40
0.0255905507
  0
CIRCLE
  5
E88
  8
0
  6
CONTINUOUS
 62
     7
 10
2.9016636335310291
 20
5.1830790259708692
 30
0.0
 40
0.0255905507
  0
CIRCLE
  5
E89
  8
0
  6
CONTINUOUS
 62
     7
 10
2.9016636335310291
 20
5.2830790240908518
 30
0.0
 40
0.0255905507
  0
CIRCLE
  5
E8A
  8
0
  6
CONTINUOUS
 62
     7
 10
2.9016636335310291
 20
5.3830790222108362
 30
0.0
 40
0.0255905507
  0
CIRCLE
  5
E8B
  8
0
  6
CONTINUOUS
 62
     7
 10
2.9016636335310291
 20
5.4830790203308188
 30
0.0
 40
0.0255905507
  0
CIRCLE
  5
E8C
  8
0
  6
CONTINUOUS
 62
     7
 10
2.9016636335310291
 20
5.583079018450916
 30
0.0
 40
0.0255905507
  0
CIRCLE
  5
E8D
  8
0
  6
CONTINUOUS
 62
     7
 10
2.9016636335310291
 20
5.6830790165709004
 30
0.0
 40
0.0255905507
  0
CIRCLE
  5
E8E
  8
0
  6
CONTINUOUS
 62
     7
 10
2.9016636335310291
 20
5.783079014690883
 30
0.0
 40
0.0255905507
  0
CIRCLE
  5
E8F
  8
0
  6
CONTINUOUS
 62
     7
 10
2.9016636335310291
 20
5.8830790128108674
 30
0.0
 40
0.0255905507
  0
CIRCLE
  5
E90
  8
0
  6
CONTINUOUS
 62
     7
 10
2.9016636335310291
 20
5.98307901093085
 30
0.0
 40
0.0255905507
  0
CIRCLE
  5
E91
  8
0
  6
CONTINUOUS
 62
     7
 10
2.9016636335310291
 20
6.0830790090508344
 30
0.0
 40
0.0255905507
  0
CIRCLE
  5
E92
  8
0
  6
CONTINUOUS
 62
     7
 10
2.9016636335310291
 20
6.183079007170817
 30
0.0
 40
0.0255905507
  0
CIRCLE
  5
E93
  8
0
  6
CONTINUOUS
 62
     7
 10
2.9016636335310291
 20
6.2830790052908014
 30
0.0
 40
0.0255905507
  0
CIRCLE
  5
E94
  8
0
  6
CONTINUOUS
 62
     7
 10
2.9016636335310291
 20
6.3830790034108977
 30
0.0
 40
0.0255905507
  0
CIRCLE
  5
E95
  8
0
  6
CONTINUOUS
 62
     7
 10
2.9016636335310291
 20
6.4830790015308821
 30
0.0
 40
0.0255905507
  0
CIRCLE
  5
E96
  8
0
  6
CONTINUOUS
 62
     7
 10
2.9016636335310291
 20
4.483079039130871
 30
0.0
 40
0.0255905507
  0
CIRCLE
  5
E97
  8
0
  6
CONTINUOUS
 62
     7
 10
2.9016636335310291
 20
4.5830790372508536
 30
0.0
 40
0.0255905507
  0
CIRCLE
  5
E98
  8
0
  6
CONTINUOUS
 62
     7
 10
2.9016636335310291
 20
4.683079035370838
 30
0.0
 40
0.0255905507
  0
CIRCLE
  5
E99
  8
0
  6
CONTINUOUS
 62
     7
 10
2.9016636335310291
 20
4.7830790334908206
 30
0.0
 40
0.0255905507
  0
CIRCLE
  5
E9A
  8
0
  6
CONTINUOUS
 62
     7
 10
2.9016636335310291
 20
4.8830790316109178
 30
0.0
 40
0.0255905507
  0
CIRCLE
  5
E9B
  8
0
  6
CONTINUOUS
 62
     7
 10
2.9016636335310291
 20
4.9830790297309022
 30
0.0
 40
0.0255905507
  0
CIRCLE
  5
E9C
  8
0
  6
CONTINUOUS
 62
     7
 10
2.9016636335310291
 20
5.0830790278508848
 30
0.0
 40
0.0255905507
  0
CIRCLE
  5
E9D
  8
0
  6
CONTINUOUS
 62
     7
 10
2.9016636335310291
 20
5.1830790259708692
 30
0.0
 40
0.0255905507
  0
CIRCLE
  5
E9E
  8
0
  6
CONTINUOUS
 62
     7
 10
2.9016636335310291
 20
5.2830790240908518
 30
0.0
 40
0.0255905507
  0
CIRCLE
  5
E9F
  8
0
  6
CONTINUOUS
 62
     7
 10
2.9016636335310291
 20
5.3830790222108362
 30
0.0
 40
0.0255905507
  0
CIRCLE
  5
EA0
  8
0
  6
CONTINUOUS
 62
     7
 10
2.9016636335310291
 20
5.4830790203308188
 30
0.0
 40
0.0255905507
  0
CIRCLE
  5
EA1
  8
0
  6
CONTINUOUS
 62
     7
 10
2.9016636335310291
 20
5.583079018450916
 30
0.0
 40
0.0255905507
  0
CIRCLE
  5
EA2
  8
0
  6
CONTINUOUS
 62
     7
 10
2.9016636335310291
 20
5.6830790165709004
 30
0.0
 40
0.0255905507
  0
CIRCLE
  5
EA3
  8
0
  6
CONTINUOUS
 62
     7
 10
2.9016636335310291
 20
5.783079014690883
 30
0.0
 40
0.0255905507
  0
CIRCLE
  5
EA4
  8
0
  6
CONTINUOUS
 62
     7
 10
2.9016636335310291
 20
5.8830790128108674
 30
0.0
 40
0.0255905507
  0
CIRCLE
  5
EA5
  8
0
  6
CONTINUOUS
 62
     7
 10
2.9016636335310291
 20
5.98307901093085
 30
0.0
 40
0.0255905507
  0
CIRCLE
  5
EA6
  8
0
  6
CONTINUOUS
 62
     7
 10
2.9016636335310291
 20
6.0830790090508344
 30
0.0
 40
0.0255905507
  0
CIRCLE
  5
EA7
  8
0
  6
CONTINUOUS
 62
     7
 10
2.9016636335310291
 20
6.183079007170817
 30
0.0
 40
0.0255905507
  0
CIRCLE
  5
EA8
  8
0
  6
CONTINUOUS
 62
     7
 10
2.9016636335310291
 20
6.2830790052908014
 30
0.0
 40
0.0255905507
  0
CIRCLE
  5
EA9
  8
0
  6
CONTINUOUS
 62
     7
 10
2.9016636335310291
 20
6.3830790034108977
 30
0.0
 40
0.0255905507
  0
CIRCLE
  5
EAA
  8
0
  6
CONTINUOUS
 62
     7
 10
2.801663635411046
 20
4.483079039130871
 30
0.0
 40
0.0255905507
  0
CIRCLE
  5
EAB
  8
0
  6
CONTINUOUS
 62
     7
 10
2.801663635411046
 20
4.5830790372508536
 30
0.0
 40
0.0255905507
  0
CIRCLE
  5
EAC
  8
0
  6
CONTINUOUS
 62
     7
 10
2.801663635411046
 20
4.683079035370838
 30
0.0
 40
0.0255905507
  0
CIRCLE
  5
EAD
  8
0
  6
CONTINUOUS
 62
     7
 10
2.801663635411046
 20
4.7830790334908206
 30
0.0
 40
0.0255905507
  0
CIRCLE
  5
EAE
  8
0
  6
CONTINUOUS
 62
     7
 10
2.801663635411046
 20
4.8830790316109178
 30
0.0
 40
0.0255905507
  0
CIRCLE
  5
EAF
  8
0
  6
CONTINUOUS
 62
     7
 10
2.801663635411046
 20
4.9830790297309022
 30
0.0
 40
0.0255905507
  0
CIRCLE
  5
EB0
  8
0
  6
CONTINUOUS
 62
     7
 10
2.801663635411046
 20
5.0830790278508848
 30
0.0
 40
0.0255905507
  0
CIRCLE
  5
EB1
  8
0
  6
CONTINUOUS
 62
     7
 10
2.801663635411046
 20
5.1830790259708692
 30
0.0
 40
0.0255905507
  0
CIRCLE
  5
EB2
  8
0
  6
CONTINUOUS
 62
     7
 10
2.801663635411046
 20
5.2830790240908518
 30
0.0
 40
0.0255905507
  0
CIRCLE
  5
EB3
  8
0
  6
CONTINUOUS
 62
     7
 10
2.801663635411046
 20
5.3830790222108362
 30
0.0
 40
0.0255905507
  0
CIRCLE
  5
EB4
  8
0
  6
CONTINUOUS
 62
     7
 10
2.801663635411046
 20
5.4830790203308188
 30
0.0
 40
0.0255905507
  0
CIRCLE
  5
EB5
  8
0
  6
CONTINUOUS
 62
     7
 10
2.801663635411046
 20
5.583079018450916
 30
0.0
 40
0.0255905507
  0
CIRCLE
  5
EB6
  8
0
  6
CONTINUOUS
 62
     7
 10
2.801663635411046
 20
5.6830790165709004
 30
0.0
 40
0.0255905507
  0
CIRCLE
  5
EB7
  8
0
  6
CONTINUOUS
 62
     7
 10
2.801663635411046
 20
5.783079014690883
 30
0.0
 40
0.0255905507
  0
CIRCLE
  5
EB8
  8
0
  6
CONTINUOUS
 62
     7
 10
2.801663635411046
 20
5.8830790128108674
 30
0.0
 40
0.0255905507
  0
CIRCLE
  5
EB9
  8
0
  6
CONTINUOUS
 62
     7
 10
2.801663635411046
 20
5.98307901093085
 30
0.0
 40
0.0255905507
  0
CIRCLE
  5
EBA
  8
0
  6
CONTINUOUS
 62
     7
 10
2.801663635411046
 20
6.0830790090508344
 30
0.0
 40
0.0255905507
  0
CIRCLE
  5
EBB
  8
0
  6
CONTINUOUS
 62
     7
 10
2.801663635411046
 20
6.183079007170817
 30
0.0
 40
0.0255905507
  0
CIRCLE
  5
EBC
  8
0
  6
CONTINUOUS
 62
     7
 10
2.801663635411046
 20
6.2830790052908014
 30
0.0
 40
0.0255905507
  0
CIRCLE
  5
EBD
  8
0
  6
CONTINUOUS
 62
     7
 10
2.801663635411046
 20
6.3830790034108977
 30
0.0
 40
0.0255905507
  0
CIRCLE
  5
EBE
  8
0
  6
CONTINUOUS
 62
     7
 10
2.801663635411046
 20
6.4830790015308821
 30
0.0
 40
0.0255905507
  0
CIRCLE
  5
EBF
  8
0
  6
CONTINUOUS
 62
     7
 10
2.801663635411046
 20
4.483079039130871
 30
0.0
 40
0.0255905507
  0
CIRCLE
  5
EC0
  8
0
  6
CONTINUOUS
 62
     7
 10
2.801663635411046
 20
4.5830790372508536
 30
0.0
 40
0.0255905507
  0
CIRCLE
  5
EC1
  8
0
  6
CONTINUOUS
 62
     7
 10
2.801663635411046
 20
4.683079035370838
 30
0.0
 40
0.0255905507
  0
CIRCLE
  5
EC2
  8
0
  6
CONTINUOUS
 62
     7
 10
2.801663635411046
 20
4.7830790334908206
 30
0.0
 40
0.0255905507
  0
CIRCLE
  5
EC3
  8
0
  6
CONTINUOUS
 62
     7
 10
2.801663635411046
 20
4.8830790316109178
 30
0.0
 40
0.0255905507
  0
CIRCLE
  5
EC4
  8
0
  6
CONTINUOUS
 62
     7
 10
2.801663635411046
 20
4.9830790297309022
 30
0.0
 40
0.0255905507
  0
CIRCLE
  5
EC5
  8
0
  6
CONTINUOUS
 62
     7
 10
2.801663635411046
 20
5.0830790278508848
 30
0.0
 40
0.0255905507
  0
CIRCLE
  5
EC6
  8
0
  6
CONTINUOUS
 62
     7
 10
2.801663635411046
 20
5.1830790259708692
 30
0.0
 40
0.0255905507
  0
CIRCLE
  5
EC7
  8
0
  6
CONTINUOUS
 62
     7
 10
2.801663635411046
 20
5.2830790240908518
 30
0.0
 40
0.0255905507
  0
CIRCLE
  5
EC8
  8
0
  6
CONTINUOUS
 62
     7
 10
2.801663635411046
 20
5.3830790222108362
 30
0.0
 40
0.0255905507
  0
CIRCLE
  5
EC9
  8
0
  6
CONTINUOUS
 62
     7
 10
2.801663635411046
 20
5.4830790203308188
 30
0.0
 40
0.0255905507
  0
CIRCLE
  5
ECA
  8
0
  6
CONTINUOUS
 62
     7
 10
2.801663635411046
 20
5.583079018450916
 30
0.0
 40
0.0255905507
  0
CIRCLE
  5
ECB
  8
0
  6
CONTINUOUS
 62
     7
 10
2.801663635411046
 20
5.6830790165709004
 30
0.0
 40
0.0255905507
  0
CIRCLE
  5
ECC
  8
0
  6
CONTINUOUS
 62
     7
 10
2.801663635411046
 20
5.783079014690883
 30
0.0
 40
0.0255905507
  0
CIRCLE
  5
ECD
  8
0
  6
CONTINUOUS
 62
     7
 10
2.801663635411046
 20
5.8830790128108674
 30
0.0
 40
0.0255905507
  0
CIRCLE
  5
ECE
  8
0
  6
CONTINUOUS
 62
     7
 10
2.801663635411046
 20
5.98307901093085
 30
0.0
 40
0.0255905507
  0
CIRCLE
  5
ECF
  8
0
  6
CONTINUOUS
 62
     7
 10
2.801663635411046
 20
6.0830790090508344
 30
0.0
 40
0.0255905507
  0
CIRCLE
  5
ED0
  8
0
  6
CONTINUOUS
 62
     7
 10
2.801663635411046
 20
6.183079007170817
 30
0.0
 40
0.0255905507
  0
CIRCLE
  5
ED1
  8
0
  6
CONTINUOUS
 62
     7
 10
2.801663635411046
 20
6.2830790052908014
 30
0.0
 40
0.0255905507
  0
CIRCLE
  5
ED2
  8
0
  6
CONTINUOUS
 62
     7
 10
2.801663635411046
 20
6.3830790034108977
 30
0.0
 40
0.0255905507
  0
CIRCLE
  5
ED3
  8
0
  6
CONTINUOUS
 62
     7
 10
2.7016636372910621
 20
4.483079039130871
 30
0.0
 40
0.0255905507
  0
CIRCLE
  5
ED4
  8
0
  6
CONTINUOUS
 62
     7
 10
2.7016636372910621
 20
4.5830790372508536
 30
0.0
 40
0.0255905507
  0
CIRCLE
  5
ED5
  8
0
  6
CONTINUOUS
 62
     7
 10
2.7016636372910621
 20
4.683079035370838
 30
0.0
 40
0.0255905507
  0
CIRCLE
  5
ED6
  8
0
  6
CONTINUOUS
 62
     7
 10
2.7016636372910621
 20
4.7830790334908206
 30
0.0
 40
0.0255905507
  0
CIRCLE
  5
ED7
  8
0
  6
CONTINUOUS
 62
     7
 10
2.7016636372910621
 20
4.8830790316109178
 30
0.0
 40
0.0255905507
  0
CIRCLE
  5
ED8
  8
0
  6
CONTINUOUS
 62
     7
 10
2.7016636372910621
 20
4.9830790297309022
 30
0.0
 40
0.0255905507
  0
CIRCLE
  5
ED9
  8
0
  6
CONTINUOUS
 62
     7
 10
2.7016636372910621
 20
5.0830790278508848
 30
0.0
 40
0.0255905507
  0
CIRCLE
  5
EDA
  8
0
  6
CONTINUOUS
 62
     7
 10
2.7016636372910621
 20
5.1830790259708692
 30
0.0
 40
0.0255905507
  0
CIRCLE
  5
EDB
  8
0
  6
CONTINUOUS
 62
     7
 10
2.7016636372910621
 20
5.2830790240908518
 30
0.0
 40
0.0255905507
  0
CIRCLE
  5
EDC
  8
0
  6
CONTINUOUS
 62
     7
 10
2.7016636372910621
 20
5.3830790222108362
 30
0.0
 40
0.0255905507
  0
CIRCLE
  5
EDD
  8
0
  6
CONTINUOUS
 62
     7
 10
2.7016636372910621
 20
5.4830790203308188
 30
0.0
 40
0.0255905507
  0
CIRCLE
  5
EDE
  8
0
  6
CONTINUOUS
 62
     7
 10
2.7016636372910621
 20
5.583079018450916
 30
0.0
 40
0.0255905507
  0
CIRCLE
  5
EDF
  8
0
  6
CONTINUOUS
 62
     7
 10
2.7016636372910621
 20
5.6830790165709004
 30
0.0
 40
0.0255905507
  0
CIRCLE
  5
EE0
  8
0
  6
CONTINUOUS
 62
     7
 10
2.7016636372910621
 20
5.783079014690883
 30
0.0
 40
0.0255905507
  0
CIRCLE
  5
EE1
  8
0
  6
CONTINUOUS
 62
     7
 10
2.7016636372910621
 20
5.8830790128108674
 30
0.0
 40
0.0255905507
  0
CIRCLE
  5
EE2
  8
0
  6
CONTINUOUS
 62
     7
 10
2.7016636372910621
 20
5.98307901093085
 30
0.0
 40
0.0255905507
  0
CIRCLE
  5
EE3
  8
0
  6
CONTINUOUS
 62
     7
 10
2.7016636372910621
 20
6.0830790090508344
 30
0.0
 40
0.0255905507
  0
CIRCLE
  5
EE4
  8
0
  6
CONTINUOUS
 62
     7
 10
2.7016636372910621
 20
6.183079007170817
 30
0.0
 40
0.0255905507
  0
CIRCLE
  5
EE5
  8
0
  6
CONTINUOUS
 62
     7
 10
2.7016636372910621
 20
6.2830790052908014
 30
0.0
 40
0.0255905507
  0
CIRCLE
  5
EE6
  8
0
  6
CONTINUOUS
 62
     7
 10
2.7016636372910621
 20
6.3830790034108977
 30
0.0
 40
0.0255905507
  0
CIRCLE
  5
EE7
  8
0
  6
CONTINUOUS
 62
     7
 10
2.7016636372910621
 20
6.4830790015308821
 30
0.0
 40
0.0255905507
  0
CIRCLE
  5
EE8
  8
0
  6
CONTINUOUS
 62
     7
 10
2.7016636372910621
 20
4.483079039130871
 30
0.0
 40
0.0255905507
  0
CIRCLE
  5
EE9
  8
0
  6
CONTINUOUS
 62
     7
 10
2.7016636372910621
 20
4.5830790372508536
 30
0.0
 40
0.0255905507
  0
CIRCLE
  5
EEA
  8
0
  6
CONTINUOUS
 62
     7
 10
2.7016636372910621
 20
4.683079035370838
 30
0.0
 40
0.0255905507
  0
CIRCLE
  5
EEB
  8
0
  6
CONTINUOUS
 62
     7
 10
2.7016636372910621
 20
4.7830790334908206
 30
0.0
 40
0.0255905507
  0
CIRCLE
  5
EEC
  8
0
  6
CONTINUOUS
 62
     7
 10
2.7016636372910621
 20
4.8830790316109178
 30
0.0
 40
0.0255905507
  0
CIRCLE
  5
EED
  8
0
  6
CONTINUOUS
 62
     7
 10
2.7016636372910621
 20
4.9830790297309022
 30
0.0
 40
0.0255905507
  0
CIRCLE
  5
EEE
  8
0
  6
CONTINUOUS
 62
     7
 10
2.7016636372910621
 20
5.0830790278508848
 30
0.0
 40
0.0255905507
  0
CIRCLE
  5
EEF
  8
0
  6
CONTINUOUS
 62
     7
 10
2.7016636372910621
 20
5.1830790259708692
 30
0.0
 40
0.0255905507
  0
CIRCLE
  5
EF0
  8
0
  6
CONTINUOUS
 62
     7
 10
2.7016636372910621
 20
5.2830790240908518
 30
0.0
 40
0.0255905507
  0
CIRCLE
  5
EF1
  8
0
  6
CONTINUOUS
 62
     7
 10
2.7016636372910621
 20
5.3830790222108362
 30
0.0
 40
0.0255905507
  0
CIRCLE
  5
EF2
  8
0
  6
CONTINUOUS
 62
     7
 10
2.7016636372910621
 20
5.4830790203308188
 30
0.0
 40
0.0255905507
  0
CIRCLE
  5
EF3
  8
0
  6
CONTINUOUS
 62
     7
 10
2.7016636372910621
 20
5.583079018450916
 30
0.0
 40
0.0255905507
  0
CIRCLE
  5
EF4
  8
0
  6
CONTINUOUS
 62
     7
 10
2.7016636372910621
 20
5.6830790165709004
 30
0.0
 40
0.0255905507
  0
CIRCLE
  5
EF5
  8
0
  6
CONTINUOUS
 62
     7
 10
2.7016636372910621
 20
5.783079014690883
 30
0.0
 40
0.0255905507
  0
CIRCLE
  5
EF6
  8
0
  6
CONTINUOUS
 62
     7
 10
2.7016636372910621
 20
5.8830790128108674
 30
0.0
 40
0.0255905507
  0
CIRCLE
  5
EF7
  8
0
  6
CONTINUOUS
 62
     7
 10
2.7016636372910621
 20
5.98307901093085
 30
0.0
 40
0.0255905507
  0
CIRCLE
  5
EF8
  8
0
  6
CONTINUOUS
 62
     7
 10
2.7016636372910621
 20
6.0830790090508344
 30
0.0
 40
0.0255905507
  0
CIRCLE
  5
EF9
  8
0
  6
CONTINUOUS
 62
     7
 10
2.7016636372910621
 20
6.183079007170817
 30
0.0
 40
0.0255905507
  0
CIRCLE
  5
EFA
  8
0
  6
CONTINUOUS
 62
     7
 10
2.7016636372910621
 20
6.2830790052908014
 30
0.0
 40
0.0255905507
  0
CIRCLE
  5
EFB
  8
0
  6
CONTINUOUS
 62
     7
 10
2.7016636372910621
 20
6.3830790034108977
 30
0.0
 40
0.0255905507
  0
ENDSEC
  0
EOF
